999
Converted by 3D Exploration 
999
XDimension Software, LLC
999
http://www.xdsoft.com/explorer/
0
SECTION
2
HEADER
9
$ACADVER
1
AC1008
9
$UCSORG
10
0.0
20
0.0
30
0.0
9
$UCSXDIR
10
1.0
20
0.0
30
0.0
9
$TILEMODE
70
1
9
$UCSYDIR
10
0.0
20
1.0
30
0.0
9
$EXTMIN
10
-25.350000
20
-27.250000
30
-27.250000
9
$EXTMAX
10
119.582001
20
27.250000
30
132.856003
0
ENDSEC
0
SECTION
2
TABLES
0
TABLE
2
LTYPE
70
1
0
LTYPE
2
CONTINUOUS
70
64
3
Solid line
72
65
73
0
40
0.0
0
ENDTAB
0
TABLE
2
LAYER
70
30
0
LAYER
2
OBJECT__0
70
0
62
253
6
CONTINUOUS
0
LAYER
2
OBJECT__1
70
0
62
253
6
CONTINUOUS
0
LAYER
2
OBJECT__3
70
0
62
253
6
CONTINUOUS
0
LAYER
2
OBJECT__4
70
0
62
253
6
CONTINUOUS
0
LAYER
2
OBJECT__5
70
0
62
253
6
CONTINUOUS
0
LAYER
2
OBJECT__6
70
0
62
253
6
CONTINUOUS
0
LAYER
2
OBJECT__7
70
0
62
253
6
CONTINUOUS
0
LAYER
2
OBJECT__8
70
0
62
253
6
CONTINUOUS
0
LAYER
2
OBJECT__9
70
0
62
253
6
CONTINUOUS
0
LAYER
2
OBJECT__10
70
0
62
253
6
CONTINUOUS
0
LAYER
2
OBJECT__11
70
0
62
253
6
CONTINUOUS
0
LAYER
2
OBJECT__13
70
0
62
253
6
CONTINUOUS
0
LAYER
2
OBJECT__14
70
0
62
253
6
CONTINUOUS
0
LAYER
2
OBJECT__15
70
0
62
253
6
CONTINUOUS
0
LAYER
2
OBJECT__17
70
0
62
253
6
CONTINUOUS
0
LAYER
2
OBJECT__18
70
0
62
253
6
CONTINUOUS
0
LAYER
2
OBJECT__19
70
0
62
253
6
CONTINUOUS
0
LAYER
2
OBJECT__20
70
0
62
253
6
CONTINUOUS
0
LAYER
2
OBJECT__21
70
0
62
253
6
CONTINUOUS
0
LAYER
2
OBJECT__22
70
0
62
253
6
CONTINUOUS
0
LAYER
2
OBJECT__23
70
0
62
253
6
CONTINUOUS
0
LAYER
2
OBJECT__24
70
0
62
253
6
CONTINUOUS
0
LAYER
2
OBJECT__25
70
0
62
253
6
CONTINUOUS
0
LAYER
2
OBJECT__26
70
0
62
253
6
CONTINUOUS
0
LAYER
2
OBJECT__27
70
0
62
253
6
CONTINUOUS
0
LAYER
2
OBJECT__28
70
0
62
253
6
CONTINUOUS
0
LAYER
2
OBJECT__29
70
0
62
253
6
CONTINUOUS
0
ENDTAB
0
TABLE
2
STYLE
70
1
0
STYLE
2
STANDARD
70
0
40
0.0
41
1.0
50
0.0
71
0
42
0.2
3
txt
4
1
0
ENDTAB
0
TABLE
2
UCS
70
0
0
ENDTAB
0
ENDSEC
0
SECTION
2
ENTITIES
0
POLYLINE
8
OBJECT__0
66
1
70
64
71
38
72
38
62
253
0
VERTEX
8
OBJECT__0
10
117.347000
20
-8.886000
30
120.350998
70
192
0
VERTEX
8
OBJECT__0
10
112.541000
20
-13.118000
30
119.458000
70
192
0
VERTEX
8
OBJECT__0
10
111.158997
20
-11.230000
30
118.305000
70
192
0
VERTEX
8
OBJECT__0
10
116.549004
20
-10.664000
30
120.387001
70
192
0
VERTEX
8
OBJECT__0
10
113.037003
20
-13.703000
30
119.876999
70
192
0
VERTEX
8
OBJECT__0
10
114.875999
20
-13.203000
30
120.462997
70
192
0
VERTEX
8
OBJECT__0
10
113.792000
20
-14.592000
30
120.512001
70
192
0
VERTEX
8
OBJECT__0
10
110.065002
20
-9.203000
30
117.402000
70
192
0
VERTEX
8
OBJECT__0
10
109.082001
20
-7.379000
30
116.589996
70
192
0
VERTEX
8
OBJECT__0
10
118.028000
20
-7.371000
30
120.320999
70
192
0
VERTEX
8
OBJECT__0
10
119.227997
20
-3.750000
30
120.267998
70
192
0
VERTEX
8
OBJECT__0
10
118.647003
20
-5.993000
30
120.292999
70
192
0
VERTEX
8
OBJECT__0
10
119.136002
20
-3.017000
30
120.158997
70
192
0
VERTEX
8
OBJECT__0
10
119.515999
20
0.009000
30
120.254997
70
192
0
VERTEX
8
OBJECT__0
10
107.722000
20
-2.794000
30
115.475998
70
192
0
VERTEX
8
OBJECT__0
10
107.581001
20
-1.686000
30
115.361000
70
192
0
VERTEX
8
OBJECT__0
10
119.513000
20
-0.041000
30
120.254997
70
192
0
VERTEX
8
OBJECT__0
10
108.219002
20
-4.629000
30
115.883003
70
192
0
VERTEX
8
OBJECT__0
10
108.970001
20
-7.171000
30
116.497002
70
192
0
VERTEX
8
OBJECT__0
10
108.780998
20
-6.699000
30
116.342003
70
192
0
VERTEX
8
OBJECT__0
10
107.606003
20
0.007000
30
115.382004
70
192
0
VERTEX
8
OBJECT__0
10
107.639999
20
2.233000
30
115.410004
70
192
0
VERTEX
8
OBJECT__0
10
107.776001
20
3.135000
30
115.521004
70
192
0
VERTEX
8
OBJECT__0
10
107.709999
20
1.578000
30
115.403000
70
192
0
VERTEX
8
OBJECT__0
10
108.220001
20
4.674000
30
115.884003
70
192
0
VERTEX
8
OBJECT__0
10
119.228996
20
3.763000
30
120.267998
70
192
0
VERTEX
8
OBJECT__0
10
119.582001
20
0.856000
30
120.251999
70
192
0
VERTEX
8
OBJECT__0
10
108.882004
20
6.971000
30
116.426003
70
192
0
VERTEX
8
OBJECT__0
10
109.103996
20
7.392000
30
116.609001
70
192
0
VERTEX
8
OBJECT__0
10
118.070999
20
7.389000
30
120.320999
70
192
0
VERTEX
8
OBJECT__0
10
107.606003
20
0.021000
30
115.382004
70
192
0
VERTEX
8
OBJECT__0
10
110.081001
20
9.247000
30
117.416000
70
192
0
VERTEX
8
OBJECT__0
10
117.515999
20
8.808000
30
120.346001
70
192
0
VERTEX
8
OBJECT__0
10
117.802002
20
8.233000
30
120.333000
70
192
0
VERTEX
8
OBJECT__0
10
111.033997
20
11.054000
30
118.202003
70
192
0
VERTEX
8
OBJECT__0
10
113.096001
20
13.706000
30
119.929001
70
192
0
VERTEX
8
OBJECT__0
10
116.832001
20
10.182000
30
120.376999
70
192
0
VERTEX
8
OBJECT__0
10
113.795998
20
14.606000
30
120.514999
70
192
0
VERTEX
8
OBJECT__0
10
0
20
0
30
0
70
128
71
1
72
2
73
3
0
VERTEX
8
OBJECT__0
10
0
20
0
30
0
70
128
71
2
72
1
73
4
0
VERTEX
8
OBJECT__0
10
0
20
0
30
0
70
128
71
4
72
5
73
2
0
VERTEX
8
OBJECT__0
10
0
20
0
30
0
70
128
71
5
72
4
73
6
0
VERTEX
8
OBJECT__0
10
0
20
0
30
0
70
128
71
6
72
7
73
5
0
VERTEX
8
OBJECT__0
10
0
20
0
30
0
70
128
71
3
72
8
73
1
0
VERTEX
8
OBJECT__0
10
0
20
0
30
0
70
128
71
9
72
10
73
1
0
VERTEX
8
OBJECT__0
10
0
20
0
30
0
70
128
71
11
72
12
73
13
0
VERTEX
8
OBJECT__0
10
0
20
0
30
0
70
128
71
14
72
15
73
16
0
VERTEX
8
OBJECT__0
10
0
20
0
30
0
70
128
71
15
72
14
73
17
0
VERTEX
8
OBJECT__0
10
0
20
0
30
0
70
128
71
17
72
18
73
15
0
VERTEX
8
OBJECT__0
10
0
20
0
30
0
70
128
71
13
72
19
73
20
0
VERTEX
8
OBJECT__0
10
0
20
0
30
0
70
128
71
12
72
10
73
9
0
VERTEX
8
OBJECT__0
10
0
20
0
30
0
70
128
71
19
72
13
73
12
0
VERTEX
8
OBJECT__0
10
0
20
0
30
0
70
128
71
9
72
19
73
12
0
VERTEX
8
OBJECT__0
10
0
20
0
30
0
70
128
71
18
72
17
73
13
0
VERTEX
8
OBJECT__0
10
0
20
0
30
0
70
128
71
20
72
18
73
13
0
VERTEX
8
OBJECT__0
10
0
20
0
30
0
70
128
71
16
72
21
73
14
0
VERTEX
8
OBJECT__0
10
0
20
0
30
0
70
128
71
13
72
17
73
11
0
VERTEX
8
OBJECT__0
10
0
20
0
30
0
70
128
71
22
72
23
73
24
0
VERTEX
8
OBJECT__0
10
0
20
0
30
0
70
128
71
25
72
26
73
27
0
VERTEX
8
OBJECT__0
10
0
20
0
30
0
70
128
71
26
72
28
73
29
0
VERTEX
8
OBJECT__0
10
0
20
0
30
0
70
128
71
26
72
25
73
28
0
VERTEX
8
OBJECT__0
10
0
20
0
30
0
70
128
71
29
72
30
73
26
0
VERTEX
8
OBJECT__0
10
0
20
0
30
0
70
128
71
14
72
24
73
23
0
VERTEX
8
OBJECT__0
10
0
20
0
30
0
70
128
71
14
72
21
73
31
0
VERTEX
8
OBJECT__0
10
0
20
0
30
0
70
128
71
31
72
24
73
14
0
VERTEX
8
OBJECT__0
10
0
20
0
30
0
70
128
71
23
72
25
73
14
0
VERTEX
8
OBJECT__0
10
0
20
0
30
0
70
128
71
27
72
14
73
25
0
VERTEX
8
OBJECT__0
10
0
20
0
30
0
70
128
71
24
72
31
73
22
0
VERTEX
8
OBJECT__0
10
0
20
0
30
0
70
128
71
32
72
33
73
34
0
VERTEX
8
OBJECT__0
10
0
20
0
30
0
70
128
71
35
72
36
73
37
0
VERTEX
8
OBJECT__0
10
0
20
0
30
0
70
128
71
33
72
32
73
35
0
VERTEX
8
OBJECT__0
10
0
20
0
30
0
70
128
71
37
72
33
73
35
0
VERTEX
8
OBJECT__0
10
0
20
0
30
0
70
128
71
30
72
29
73
32
0
VERTEX
8
OBJECT__0
10
0
20
0
30
0
70
128
71
34
72
30
73
32
0
VERTEX
8
OBJECT__0
10
0
20
0
30
0
70
128
71
36
72
38
73
37
0
VERTEX
8
OBJECT__0
10
0
20
0
30
0
70
128
71
8
72
9
73
1
0
SEQEND
8
OBJECT__0
0
POLYLINE
8
OBJECT__1
66
1
70
64
71
90
72
109
62
253
0
VERTEX
8
OBJECT__1
10
78.186996
20
-5.235000
30
122.500999
70
192
0
VERTEX
8
OBJECT__1
10
78.125000
20
0.043000
30
121.846001
70
192
0
VERTEX
8
OBJECT__1
10
93.762001
20
0.032000
30
119.184998
70
192
0
VERTEX
8
OBJECT__1
10
95.323997
20
-15.278000
30
124.977997
70
192
0
VERTEX
8
OBJECT__1
10
78.691002
20
-15.790000
30
127.763000
70
192
0
VERTEX
8
OBJECT__1
10
78.375999
20
-10.512000
30
124.473000
70
192
0
VERTEX
8
OBJECT__1
10
94.455002
20
-10.175000
30
121.757004
70
192
0
VERTEX
8
OBJECT__1
10
64.047997
20
-5.127000
30
122.616997
70
192
0
VERTEX
8
OBJECT__1
10
64.103996
20
0.052000
30
121.966003
70
192
0
VERTEX
8
OBJECT__1
10
63.596001
20
-15.485000
30
127.850998
70
192
0
VERTEX
8
OBJECT__1
10
63.877998
20
-10.307000
30
124.579002
70
192
0
VERTEX
8
OBJECT__1
10
63.598000
20
15.595000
30
127.872002
70
192
0
VERTEX
8
OBJECT__1
10
78.695999
20
15.878000
30
127.785004
70
192
0
VERTEX
8
OBJECT__1
10
78.378998
20
10.599000
30
124.487999
70
192
0
VERTEX
8
OBJECT__1
10
63.879002
20
10.413000
30
124.593002
70
192
0
VERTEX
8
OBJECT__1
10
78.189003
20
5.321000
30
122.509003
70
192
0
VERTEX
8
OBJECT__1
10
94.460999
20
10.240000
30
121.773003
70
192
0
VERTEX
8
OBJECT__1
10
93.936996
20
5.136000
30
119.834000
70
192
0
VERTEX
8
OBJECT__1
10
95.333000
20
15.344000
30
125.001999
70
192
0
VERTEX
8
OBJECT__1
10
111.033997
20
11.054000
30
118.202003
70
192
0
VERTEX
8
OBJECT__1
10
110.081001
20
9.247000
30
117.416000
70
192
0
VERTEX
8
OBJECT__1
10
113.096001
20
13.706000
30
119.929001
70
192
0
VERTEX
8
OBJECT__1
10
108.882004
20
6.971000
30
116.426003
70
192
0
VERTEX
8
OBJECT__1
10
108.220001
20
4.674000
30
115.884003
70
192
0
VERTEX
8
OBJECT__1
10
109.103996
20
7.392000
30
116.609001
70
192
0
VERTEX
8
OBJECT__1
10
107.639999
20
2.233000
30
115.410004
70
192
0
VERTEX
8
OBJECT__1
10
107.776001
20
3.135000
30
115.521004
70
192
0
VERTEX
8
OBJECT__1
10
93.934998
20
-5.072000
30
119.825996
70
192
0
VERTEX
8
OBJECT__1
10
107.581001
20
-1.686000
30
115.361000
70
192
0
VERTEX
8
OBJECT__1
10
107.722000
20
-2.794000
30
115.475998
70
192
0
VERTEX
8
OBJECT__1
10
107.606003
20
0.021000
30
115.382004
70
192
0
VERTEX
8
OBJECT__1
10
107.606003
20
0.007000
30
115.382004
70
192
0
VERTEX
8
OBJECT__1
10
108.970001
20
-7.171000
30
116.497002
70
192
0
VERTEX
8
OBJECT__1
10
109.082001
20
-7.379000
30
116.589996
70
192
0
VERTEX
8
OBJECT__1
10
108.780998
20
-6.699000
30
116.342003
70
192
0
VERTEX
8
OBJECT__1
10
108.219002
20
-4.629000
30
115.883003
70
192
0
VERTEX
8
OBJECT__1
10
111.158997
20
-11.230000
30
118.305000
70
192
0
VERTEX
8
OBJECT__1
10
112.541000
20
-13.118000
30
119.458000
70
192
0
VERTEX
8
OBJECT__1
10
110.065002
20
-9.203000
30
117.402000
70
192
0
VERTEX
8
OBJECT__1
10
113.037003
20
-13.703000
30
119.876999
70
192
0
VERTEX
8
OBJECT__1
10
113.792000
20
-14.592000
30
120.512001
70
192
0
VERTEX
8
OBJECT__1
10
97.809998
20
-15.683000
30
124.834000
70
192
0
VERTEX
8
OBJECT__1
10
88.639999
20
-16.187000
30
126.831001
70
192
0
VERTEX
8
OBJECT__1
10
95.428001
20
-15.814000
30
125.358002
70
192
0
VERTEX
8
OBJECT__1
10
89.003998
20
-16.165001
30
126.772003
70
192
0
VERTEX
8
OBJECT__1
10
80.886002
20
-16.665001
30
128.098999
70
192
0
VERTEX
8
OBJECT__1
10
71.906998
20
-17.282000
30
129.307999
70
192
0
VERTEX
8
OBJECT__1
10
69.301003
20
-17.482000
30
129.574997
70
192
0
VERTEX
8
OBJECT__1
10
76.140999
20
-16.957001
30
128.875000
70
192
0
VERTEX
8
OBJECT__1
10
78.746002
20
-16.797001
30
128.449005
70
192
0
VERTEX
8
OBJECT__1
10
57.973999
20
-18.520000
30
129.983994
70
192
0
VERTEX
8
OBJECT__1
10
52.904999
20
-15.568000
30
126.635002
70
192
0
VERTEX
8
OBJECT__1
10
53.327000
20
-14.901000
30
126.245003
70
192
0
VERTEX
8
OBJECT__1
10
63.402000
20
-18.023001
30
129.787994
70
192
0
VERTEX
8
OBJECT__1
10
54.498001
20
-18.872000
30
129.817993
70
192
0
VERTEX
8
OBJECT__1
10
49.070000
20
-19.421000
30
129.559006
70
192
0
VERTEX
8
OBJECT__1
10
55.924000
20
-10.796000
30
123.846001
70
192
0
VERTEX
8
OBJECT__1
10
54.247002
20
-13.447000
30
125.394997
70
192
0
VERTEX
8
OBJECT__1
10
57.595001
20
-6.417000
30
122.166000
70
192
0
VERTEX
8
OBJECT__1
10
56.226002
20
-10.005000
30
123.542999
70
192
0
VERTEX
8
OBJECT__1
10
57.431000
20
-6.846000
30
122.331001
70
192
0
VERTEX
8
OBJECT__1
10
57.845001
20
-4.991000
30
121.902000
70
192
0
VERTEX
8
OBJECT__1
10
58.396999
20
-1.849000
30
121.319000
70
192
0
VERTEX
8
OBJECT__1
10
58.334999
20
0.122000
30
121.352997
70
192
0
VERTEX
8
OBJECT__1
10
58.250999
20
2.820000
30
121.400002
70
192
0
VERTEX
8
OBJECT__1
10
58.337002
20
0.054000
30
121.351997
70
192
0
VERTEX
8
OBJECT__1
10
64.047997
20
5.233000
30
122.624001
70
192
0
VERTEX
8
OBJECT__1
10
57.741001
20
5.095000
30
121.903000
70
192
0
VERTEX
8
OBJECT__1
10
57.291000
20
7.102000
30
122.347000
70
192
0
VERTEX
8
OBJECT__1
10
57.237999
20
7.339000
30
122.400002
70
192
0
VERTEX
8
OBJECT__1
10
55.625999
20
11.269000
30
124.010002
70
192
0
VERTEX
8
OBJECT__1
10
54.082001
20
13.700000
30
125.428001
70
192
0
VERTEX
8
OBJECT__1
10
56.099998
20
10.113000
30
123.537003
70
192
0
VERTEX
8
OBJECT__1
10
53.061001
20
15.309000
30
126.365997
70
192
0
VERTEX
8
OBJECT__1
10
49.480000
20
19.051001
30
129.134003
70
192
0
VERTEX
8
OBJECT__1
10
54.459000
20
18.964001
30
129.802994
70
192
0
VERTEX
8
OBJECT__1
10
57.893002
20
18.610001
30
129.970993
70
192
0
VERTEX
8
OBJECT__1
10
53.231998
20
15.040000
30
126.209999
70
192
0
VERTEX
8
OBJECT__1
10
63.407001
20
18.094999
30
129.778000
70
192
0
VERTEX
8
OBJECT__1
10
71.882004
20
17.344999
30
129.302002
70
192
0
VERTEX
8
OBJECT__1
10
76.155998
20
17.011000
30
128.867004
70
192
0
VERTEX
8
OBJECT__1
10
69.210999
20
17.552999
30
129.574005
70
192
0
VERTEX
8
OBJECT__1
10
89.008003
20
16.204000
30
126.767998
70
192
0
VERTEX
8
OBJECT__1
10
88.627998
20
16.228001
30
126.830002
70
192
0
VERTEX
8
OBJECT__1
10
82.068001
20
16.639999
30
127.901001
70
192
0
VERTEX
8
OBJECT__1
10
78.748001
20
16.848000
30
128.444000
70
192
0
VERTEX
8
OBJECT__1
10
97.814003
20
15.713000
30
124.833000
70
192
0
VERTEX
8
OBJECT__1
10
95.430000
20
15.846000
30
125.357002
70
192
0
VERTEX
8
OBJECT__1
10
113.795998
20
14.606000
30
120.514999
70
192
0
VERTEX
8
OBJECT__1
10
48.883999
20
19.539000
30
129.529007
70
192
0
VERTEX
8
OBJECT__1
10
0
20
0
30
0
70
128
71
1
72
2
73
3
0
VERTEX
8
OBJECT__1
10
0
20
0
30
0
70
128
71
4
72
5
73
6
0
VERTEX
8
OBJECT__1
10
0
20
0
30
0
70
128
71
7
72
6
73
1
0
VERTEX
8
OBJECT__1
10
0
20
0
30
0
70
128
71
8
72
9
73
2
0
VERTEX
8
OBJECT__1
10
0
20
0
30
0
70
128
71
10
72
11
73
6
0
VERTEX
8
OBJECT__1
10
0
20
0
30
0
70
128
71
11
72
8
73
1
0
VERTEX
8
OBJECT__1
10
0
20
0
30
0
70
128
71
12
72
13
73
14
0
VERTEX
8
OBJECT__1
10
0
20
0
30
0
70
128
71
15
72
14
73
16
0
VERTEX
8
OBJECT__1
10
0
20
0
30
0
70
128
71
16
72
2
73
9
0
VERTEX
8
OBJECT__1
10
0
20
0
30
0
70
128
71
17
72
18
73
16
0
VERTEX
8
OBJECT__1
10
0
20
0
30
0
70
128
71
19
72
17
73
14
0
VERTEX
8
OBJECT__1
10
0
20
0
30
0
70
128
71
16
72
18
73
3
0
VERTEX
8
OBJECT__1
10
0
20
0
30
0
70
128
71
19
72
20
73
21
0
VERTEX
8
OBJECT__1
10
0
20
0
30
0
70
128
71
19
72
22
73
20
0
VERTEX
8
OBJECT__1
10
0
20
0
30
0
70
128
71
17
72
23
73
24
0
VERTEX
8
OBJECT__1
10
0
20
0
30
0
70
128
71
17
72
21
73
25
0
VERTEX
8
OBJECT__1
10
0
20
0
30
0
70
128
71
25
72
23
73
17
0
VERTEX
8
OBJECT__1
10
0
20
0
30
0
70
128
71
3
72
18
73
26
0
VERTEX
8
OBJECT__1
10
0
20
0
30
0
70
128
71
18
72
24
73
27
0
VERTEX
8
OBJECT__1
10
0
20
0
30
0
70
128
71
27
72
26
73
18
0
VERTEX
8
OBJECT__1
10
0
20
0
30
0
70
128
71
28
72
3
73
29
0
VERTEX
8
OBJECT__1
10
0
20
0
30
0
70
128
71
29
72
30
73
28
0
VERTEX
8
OBJECT__1
10
0
20
0
30
0
70
128
71
3
72
31
73
32
0
VERTEX
8
OBJECT__1
10
0
20
0
30
0
70
128
71
32
72
29
73
3
0
VERTEX
8
OBJECT__1
10
0
20
0
30
0
70
128
71
7
72
33
73
34
0
VERTEX
8
OBJECT__1
10
0
20
0
30
0
70
128
71
7
72
35
73
33
0
VERTEX
8
OBJECT__1
10
0
20
0
30
0
70
128
71
7
72
28
73
36
0
VERTEX
8
OBJECT__1
10
0
20
0
30
0
70
128
71
36
72
35
73
7
0
VERTEX
8
OBJECT__1
10
0
20
0
30
0
70
128
71
4
72
37
73
38
0
VERTEX
8
OBJECT__1
10
0
20
0
30
0
70
128
71
4
72
7
73
39
0
VERTEX
8
OBJECT__1
10
0
20
0
30
0
70
128
71
39
72
37
73
4
0
VERTEX
8
OBJECT__1
10
0
20
0
30
0
70
128
71
40
72
41
73
42
0
VERTEX
8
OBJECT__1
10
0
20
0
30
0
70
128
71
42
72
4
73
40
0
VERTEX
8
OBJECT__1
10
0
20
0
30
0
70
128
71
5
72
4
73
43
0
VERTEX
8
OBJECT__1
10
0
20
0
30
0
70
128
71
4
72
44
73
45
0
VERTEX
8
OBJECT__1
10
0
20
0
30
0
70
128
71
45
72
43
73
4
0
VERTEX
8
OBJECT__1
10
0
20
0
30
0
70
128
71
43
72
46
73
5
0
VERTEX
8
OBJECT__1
10
0
20
0
30
0
70
128
71
10
72
47
73
48
0
VERTEX
8
OBJECT__1
10
0
20
0
30
0
70
128
71
5
72
49
73
47
0
VERTEX
8
OBJECT__1
10
0
20
0
30
0
70
128
71
5
72
50
73
49
0
VERTEX
8
OBJECT__1
10
0
20
0
30
0
70
128
71
47
72
10
73
5
0
VERTEX
8
OBJECT__1
10
0
20
0
30
0
70
128
71
51
72
52
73
53
0
VERTEX
8
OBJECT__1
10
0
20
0
30
0
70
128
71
10
72
54
73
51
0
VERTEX
8
OBJECT__1
10
0
20
0
30
0
70
128
71
52
72
51
73
55
0
VERTEX
8
OBJECT__1
10
0
20
0
30
0
70
128
71
55
72
56
73
52
0
VERTEX
8
OBJECT__1
10
0
20
0
30
0
70
128
71
11
72
10
73
57
0
VERTEX
8
OBJECT__1
10
0
20
0
30
0
70
128
71
10
72
53
73
58
0
VERTEX
8
OBJECT__1
10
0
20
0
30
0
70
128
71
58
72
57
73
10
0
VERTEX
8
OBJECT__1
10
0
20
0
30
0
70
128
71
8
72
11
73
59
0
VERTEX
8
OBJECT__1
10
0
20
0
30
0
70
128
71
11
72
60
73
61
0
VERTEX
8
OBJECT__1
10
0
20
0
30
0
70
128
71
61
72
59
73
11
0
VERTEX
8
OBJECT__1
10
0
20
0
30
0
70
128
71
8
72
62
73
63
0
VERTEX
8
OBJECT__1
10
0
20
0
30
0
70
128
71
63
72
9
73
8
0
VERTEX
8
OBJECT__1
10
0
20
0
30
0
70
128
71
9
72
64
73
65
0
VERTEX
8
OBJECT__1
10
0
20
0
30
0
70
128
71
9
72
66
73
64
0
VERTEX
8
OBJECT__1
10
0
20
0
30
0
70
128
71
65
72
67
73
9
0
VERTEX
8
OBJECT__1
10
0
20
0
30
0
70
128
71
67
72
68
73
69
0
VERTEX
8
OBJECT__1
10
0
20
0
30
0
70
128
71
69
72
15
73
67
0
VERTEX
8
OBJECT__1
10
0
20
0
30
0
70
128
71
69
72
70
73
15
0
VERTEX
8
OBJECT__1
10
0
20
0
30
0
70
128
71
12
72
71
73
72
0
VERTEX
8
OBJECT__1
10
0
20
0
30
0
70
128
71
12
72
15
73
73
0
VERTEX
8
OBJECT__1
10
0
20
0
30
0
70
128
71
73
72
71
73
12
0
VERTEX
8
OBJECT__1
10
0
20
0
30
0
70
128
71
74
72
75
73
76
0
VERTEX
8
OBJECT__1
10
0
20
0
30
0
70
128
71
76
72
77
73
74
0
VERTEX
8
OBJECT__1
10
0
20
0
30
0
70
128
71
77
72
12
73
78
0
VERTEX
8
OBJECT__1
10
0
20
0
30
0
70
128
71
78
72
74
73
77
0
VERTEX
8
OBJECT__1
10
0
20
0
30
0
70
128
71
77
72
79
73
12
0
VERTEX
8
OBJECT__1
10
0
20
0
30
0
70
128
71
13
72
12
73
80
0
VERTEX
8
OBJECT__1
10
0
20
0
30
0
70
128
71
80
72
81
73
13
0
VERTEX
8
OBJECT__1
10
0
20
0
30
0
70
128
71
12
72
79
73
82
0
VERTEX
8
OBJECT__1
10
0
20
0
30
0
70
128
71
82
72
80
73
12
0
VERTEX
8
OBJECT__1
10
0
20
0
30
0
70
128
71
19
72
13
73
83
0
VERTEX
8
OBJECT__1
10
0
20
0
30
0
70
128
71
13
72
84
73
83
0
VERTEX
8
OBJECT__1
10
0
20
0
30
0
70
128
71
13
72
85
73
84
0
VERTEX
8
OBJECT__1
10
0
20
0
30
0
70
128
71
13
72
86
73
85
0
VERTEX
8
OBJECT__1
10
0
20
0
30
0
70
128
71
22
72
19
73
87
0
VERTEX
8
OBJECT__1
10
0
20
0
30
0
70
128
71
19
72
88
73
87
0
VERTEX
8
OBJECT__1
10
0
20
0
30
0
70
128
71
87
72
89
73
22
0
VERTEX
8
OBJECT__1
10
0
20
0
30
0
70
128
71
83
72
88
73
19
0
VERTEX
8
OBJECT__1
10
0
20
0
30
0
70
128
71
81
72
86
73
13
0
VERTEX
8
OBJECT__1
10
0
20
0
30
0
70
128
71
75
72
90
73
76
0
VERTEX
8
OBJECT__1
10
0
20
0
30
0
70
128
71
72
72
78
73
12
0
VERTEX
8
OBJECT__1
10
0
20
0
30
0
70
128
71
70
72
73
73
15
0
VERTEX
8
OBJECT__1
10
0
20
0
30
0
70
128
71
65
72
68
73
67
0
VERTEX
8
OBJECT__1
10
0
20
0
30
0
70
128
71
63
72
66
73
9
0
VERTEX
8
OBJECT__1
10
0
20
0
30
0
70
128
71
59
72
62
73
8
0
VERTEX
8
OBJECT__1
10
0
20
0
30
0
70
128
71
57
72
60
73
11
0
VERTEX
8
OBJECT__1
10
0
20
0
30
0
70
128
71
53
72
10
73
51
0
VERTEX
8
OBJECT__1
10
0
20
0
30
0
70
128
71
48
72
54
73
10
0
VERTEX
8
OBJECT__1
10
0
20
0
30
0
70
128
71
46
72
50
73
5
0
VERTEX
8
OBJECT__1
10
0
20
0
30
0
70
128
71
42
72
44
73
4
0
VERTEX
8
OBJECT__1
10
0
20
0
30
0
70
128
71
38
72
40
73
4
0
VERTEX
8
OBJECT__1
10
0
20
0
30
0
70
128
71
34
72
39
73
7
0
VERTEX
8
OBJECT__1
10
0
20
0
30
0
70
128
71
30
72
36
73
28
0
VERTEX
8
OBJECT__1
10
0
20
0
30
0
70
128
71
26
72
31
73
3
0
VERTEX
8
OBJECT__1
10
0
20
0
30
0
70
128
71
24
72
18
73
17
0
VERTEX
8
OBJECT__1
10
0
20
0
30
0
70
128
71
21
72
17
73
19
0
VERTEX
8
OBJECT__1
10
0
20
0
30
0
70
128
71
3
72
2
73
16
0
VERTEX
8
OBJECT__1
10
0
20
0
30
0
70
128
71
14
72
13
73
19
0
VERTEX
8
OBJECT__1
10
0
20
0
30
0
70
128
71
16
72
14
73
17
0
VERTEX
8
OBJECT__1
10
0
20
0
30
0
70
128
71
9
72
67
73
16
0
VERTEX
8
OBJECT__1
10
0
20
0
30
0
70
128
71
16
72
67
73
15
0
VERTEX
8
OBJECT__1
10
0
20
0
30
0
70
128
71
14
72
15
73
12
0
VERTEX
8
OBJECT__1
10
0
20
0
30
0
70
128
71
1
72
6
73
11
0
VERTEX
8
OBJECT__1
10
0
20
0
30
0
70
128
71
6
72
5
73
10
0
VERTEX
8
OBJECT__1
10
0
20
0
30
0
70
128
71
2
72
1
73
8
0
VERTEX
8
OBJECT__1
10
0
20
0
30
0
70
128
71
1
72
28
73
7
0
VERTEX
8
OBJECT__1
10
0
20
0
30
0
70
128
71
6
72
7
73
4
0
VERTEX
8
OBJECT__1
10
0
20
0
30
0
70
128
71
3
72
28
73
1
0
SEQEND
8
OBJECT__1
0
POLYLINE
8
OBJECT__3
66
1
70
64
71
59
72
64
62
253
0
VERTEX
8
OBJECT__3
10
52.568001
20
-6.614000
30
119.741997
70
192
0
VERTEX
8
OBJECT__3
10
57.845001
20
-4.991000
30
121.902000
70
192
0
VERTEX
8
OBJECT__3
10
57.595001
20
-6.417000
30
122.166000
70
192
0
VERTEX
8
OBJECT__3
10
53.249001
20
0.083000
30
118.668999
70
192
0
VERTEX
8
OBJECT__3
10
58.396999
20
-1.849000
30
121.319000
70
192
0
VERTEX
8
OBJECT__3
10
58.337002
20
0.054000
30
121.351997
70
192
0
VERTEX
8
OBJECT__3
10
58.334999
20
0.122000
30
121.352997
70
192
0
VERTEX
8
OBJECT__3
10
49.539001
20
-7.399000
30
115.225998
70
192
0
VERTEX
8
OBJECT__3
10
50.132999
20
-3.441000
30
114.012001
70
192
0
VERTEX
8
OBJECT__3
10
50.264000
20
-0.036000
30
113.693001
70
192
0
VERTEX
8
OBJECT__3
10
50.275002
20
-13.027000
30
122.781998
70
192
0
VERTEX
8
OBJECT__3
10
55.924000
20
-10.796000
30
123.846001
70
192
0
VERTEX
8
OBJECT__3
10
56.226002
20
-10.005000
30
123.542999
70
192
0
VERTEX
8
OBJECT__3
10
57.431000
20
-6.846000
30
122.331001
70
192
0
VERTEX
8
OBJECT__3
10
52.442001
20
6.844000
30
119.764999
70
192
0
VERTEX
8
OBJECT__3
10
56.099998
20
10.113000
30
123.537003
70
192
0
VERTEX
8
OBJECT__3
10
57.237999
20
7.339000
30
122.400002
70
192
0
VERTEX
8
OBJECT__3
10
50.113998
20
13.240000
30
122.830002
70
192
0
VERTEX
8
OBJECT__3
10
54.082001
20
13.700000
30
125.428001
70
192
0
VERTEX
8
OBJECT__3
10
55.625999
20
11.269000
30
124.010002
70
192
0
VERTEX
8
OBJECT__3
10
57.741001
20
5.095000
30
121.903000
70
192
0
VERTEX
8
OBJECT__3
10
58.250999
20
2.820000
30
121.400002
70
192
0
VERTEX
8
OBJECT__3
10
57.291000
20
7.102000
30
122.347000
70
192
0
VERTEX
8
OBJECT__3
10
48.854000
20
9.789000
30
116.328003
70
192
0
VERTEX
8
OBJECT__3
10
48.167999
20
12.141000
30
117.591003
70
192
0
VERTEX
8
OBJECT__3
10
49.421001
20
7.846000
30
115.283997
70
192
0
VERTEX
8
OBJECT__3
10
45.895000
20
16.532000
30
121.047997
70
192
0
VERTEX
8
OBJECT__3
10
44.841999
20
17.709999
30
122.210999
70
192
0
VERTEX
8
OBJECT__3
10
45.873001
20
18.794001
30
126.962997
70
192
0
VERTEX
8
OBJECT__3
10
47.186001
20
14.038000
30
119.084000
70
192
0
VERTEX
8
OBJECT__3
10
50.113998
20
3.140000
30
113.945000
70
192
0
VERTEX
8
OBJECT__3
10
50.258999
20
0.066000
30
113.700996
70
192
0
VERTEX
8
OBJECT__3
10
46.095001
20
-18.620001
30
126.945999
70
192
0
VERTEX
8
OBJECT__3
10
44.861000
20
-17.757999
30
122.366997
70
192
0
VERTEX
8
OBJECT__3
10
45.929001
20
-16.537001
30
121.156998
70
192
0
VERTEX
8
OBJECT__3
10
43.740002
20
-19.039000
30
123.638000
70
192
0
VERTEX
8
OBJECT__3
10
48.897999
20
-9.850000
30
116.417999
70
192
0
VERTEX
8
OBJECT__3
10
49.436001
20
-8.085000
30
115.436996
70
192
0
VERTEX
8
OBJECT__3
10
48.132999
20
-12.359000
30
117.813004
70
192
0
VERTEX
8
OBJECT__3
10
47.344002
20
-13.854000
30
119.010002
70
192
0
VERTEX
8
OBJECT__3
10
52.904999
20
-15.568000
30
126.635002
70
192
0
VERTEX
8
OBJECT__3
10
49.070000
20
-19.421000
30
129.559006
70
192
0
VERTEX
8
OBJECT__3
10
49.041000
20
-19.427999
30
129.554001
70
192
0
VERTEX
8
OBJECT__3
10
53.327000
20
-14.901000
30
126.245003
70
192
0
VERTEX
8
OBJECT__3
10
54.247002
20
-13.447000
30
125.394997
70
192
0
VERTEX
8
OBJECT__3
10
43.226002
20
-19.625999
30
124.220001
70
192
0
VERTEX
8
OBJECT__3
10
43.668999
20
-20.764000
30
128.630997
70
192
0
VERTEX
8
OBJECT__3
10
42.323002
20
-21.098000
30
128.399994
70
192
0
VERTEX
8
OBJECT__3
10
39.339001
20
-22.268999
30
127.559998
70
192
0
VERTEX
8
OBJECT__3
10
42.895000
20
19.889000
30
124.360001
70
192
0
VERTEX
8
OBJECT__3
10
42.085999
20
21.225000
30
128.348999
70
192
0
VERTEX
8
OBJECT__3
10
43.460999
20
20.884001
30
128.587997
70
192
0
VERTEX
8
OBJECT__3
10
39.112999
20
22.368000
30
127.514000
70
192
0
VERTEX
8
OBJECT__3
10
43.535000
20
19.173000
30
123.653999
70
192
0
VERTEX
8
OBJECT__3
10
49.480000
20
19.051001
30
129.134003
70
192
0
VERTEX
8
OBJECT__3
10
53.061001
20
15.309000
30
126.365997
70
192
0
VERTEX
8
OBJECT__3
10
48.687000
20
19.587999
30
129.494995
70
192
0
VERTEX
8
OBJECT__3
10
48.883999
20
19.539000
30
129.529007
70
192
0
VERTEX
8
OBJECT__3
10
53.231998
20
15.040000
30
126.209999
70
192
0
VERTEX
8
OBJECT__3
10
0
20
0
30
0
70
128
71
1
72
2
73
3
0
VERTEX
8
OBJECT__3
10
0
20
0
30
0
70
128
71
4
72
5
73
2
0
VERTEX
8
OBJECT__3
10
0
20
0
30
0
70
128
71
4
72
6
73
5
0
VERTEX
8
OBJECT__3
10
0
20
0
30
0
70
128
71
4
72
7
73
6
0
VERTEX
8
OBJECT__3
10
0
20
0
30
0
70
128
71
2
72
1
73
4
0
VERTEX
8
OBJECT__3
10
0
20
0
30
0
70
128
71
1
72
8
73
9
0
VERTEX
8
OBJECT__3
10
0
20
0
30
0
70
128
71
9
72
4
73
1
0
VERTEX
8
OBJECT__3
10
0
20
0
30
0
70
128
71
9
72
10
73
4
0
VERTEX
8
OBJECT__3
10
0
20
0
30
0
70
128
71
11
72
1
73
12
0
VERTEX
8
OBJECT__3
10
0
20
0
30
0
70
128
71
1
72
13
73
12
0
VERTEX
8
OBJECT__3
10
0
20
0
30
0
70
128
71
1
72
14
73
13
0
VERTEX
8
OBJECT__3
10
0
20
0
30
0
70
128
71
15
72
16
73
17
0
VERTEX
8
OBJECT__3
10
0
20
0
30
0
70
128
71
18
72
19
73
20
0
VERTEX
8
OBJECT__3
10
0
20
0
30
0
70
128
71
20
72
15
73
18
0
VERTEX
8
OBJECT__3
10
0
20
0
30
0
70
128
71
20
72
16
73
15
0
VERTEX
8
OBJECT__3
10
0
20
0
30
0
70
128
71
4
72
15
73
21
0
VERTEX
8
OBJECT__3
10
0
20
0
30
0
70
128
71
21
72
22
73
4
0
VERTEX
8
OBJECT__3
10
0
20
0
30
0
70
128
71
15
72
23
73
21
0
VERTEX
8
OBJECT__3
10
0
20
0
30
0
70
128
71
15
72
24
73
25
0
VERTEX
8
OBJECT__3
10
0
20
0
30
0
70
128
71
25
72
18
73
15
0
VERTEX
8
OBJECT__3
10
0
20
0
30
0
70
128
71
15
72
26
73
24
0
VERTEX
8
OBJECT__3
10
0
20
0
30
0
70
128
71
18
72
27
73
28
0
VERTEX
8
OBJECT__3
10
0
20
0
30
0
70
128
71
28
72
29
73
18
0
VERTEX
8
OBJECT__3
10
0
20
0
30
0
70
128
71
18
72
30
73
27
0
VERTEX
8
OBJECT__3
10
0
20
0
30
0
70
128
71
15
72
4
73
31
0
VERTEX
8
OBJECT__3
10
0
20
0
30
0
70
128
71
4
72
32
73
31
0
VERTEX
8
OBJECT__3
10
0
20
0
30
0
70
128
71
33
72
34
73
35
0
VERTEX
8
OBJECT__3
10
0
20
0
30
0
70
128
71
33
72
36
73
34
0
VERTEX
8
OBJECT__3
10
0
20
0
30
0
70
128
71
35
72
11
73
33
0
VERTEX
8
OBJECT__3
10
0
20
0
30
0
70
128
71
1
72
37
73
38
0
VERTEX
8
OBJECT__3
10
0
20
0
30
0
70
128
71
1
72
11
73
39
0
VERTEX
8
OBJECT__3
10
0
20
0
30
0
70
128
71
11
72
40
73
39
0
VERTEX
8
OBJECT__3
10
0
20
0
30
0
70
128
71
39
72
37
73
1
0
VERTEX
8
OBJECT__3
10
0
20
0
30
0
70
128
71
11
72
41
73
42
0
VERTEX
8
OBJECT__3
10
0
20
0
30
0
70
128
71
42
72
43
73
11
0
VERTEX
8
OBJECT__3
10
0
20
0
30
0
70
128
71
11
72
44
73
41
0
VERTEX
8
OBJECT__3
10
0
20
0
30
0
70
128
71
11
72
45
73
44
0
VERTEX
8
OBJECT__3
10
0
20
0
30
0
70
128
71
46
72
33
73
47
0
VERTEX
8
OBJECT__3
10
0
20
0
30
0
70
128
71
47
72
48
73
46
0
VERTEX
8
OBJECT__3
10
0
20
0
30
0
70
128
71
48
72
49
73
46
0
VERTEX
8
OBJECT__3
10
0
20
0
30
0
70
128
71
50
72
51
73
52
0
VERTEX
8
OBJECT__3
10
0
20
0
30
0
70
128
71
50
72
53
73
51
0
VERTEX
8
OBJECT__3
10
0
20
0
30
0
70
128
71
29
72
54
73
50
0
VERTEX
8
OBJECT__3
10
0
20
0
30
0
70
128
71
18
72
29
73
55
0
VERTEX
8
OBJECT__3
10
0
20
0
30
0
70
128
71
55
72
56
73
18
0
VERTEX
8
OBJECT__3
10
0
20
0
30
0
70
128
71
55
72
29
73
57
0
VERTEX
8
OBJECT__3
10
0
20
0
30
0
70
128
71
57
72
58
73
55
0
VERTEX
8
OBJECT__3
10
0
20
0
30
0
70
128
71
56
72
59
73
18
0
VERTEX
8
OBJECT__3
10
0
20
0
30
0
70
128
71
59
72
19
73
18
0
VERTEX
8
OBJECT__3
10
0
20
0
30
0
70
128
71
57
72
29
73
52
0
VERTEX
8
OBJECT__3
10
0
20
0
30
0
70
128
71
52
72
29
73
50
0
VERTEX
8
OBJECT__3
10
0
20
0
30
0
70
128
71
46
72
36
73
33
0
VERTEX
8
OBJECT__3
10
0
20
0
30
0
70
128
71
47
72
33
73
43
0
VERTEX
8
OBJECT__3
10
0
20
0
30
0
70
128
71
43
72
33
73
11
0
VERTEX
8
OBJECT__3
10
0
20
0
30
0
70
128
71
38
72
8
73
1
0
VERTEX
8
OBJECT__3
10
0
20
0
30
0
70
128
71
35
72
40
73
11
0
VERTEX
8
OBJECT__3
10
0
20
0
30
0
70
128
71
31
72
26
73
15
0
VERTEX
8
OBJECT__3
10
0
20
0
30
0
70
128
71
28
72
54
73
29
0
VERTEX
8
OBJECT__3
10
0
20
0
30
0
70
128
71
25
72
30
73
18
0
VERTEX
8
OBJECT__3
10
0
20
0
30
0
70
128
71
22
72
7
73
4
0
VERTEX
8
OBJECT__3
10
0
20
0
30
0
70
128
71
17
72
23
73
15
0
VERTEX
8
OBJECT__3
10
0
20
0
30
0
70
128
71
12
72
45
73
11
0
VERTEX
8
OBJECT__3
10
0
20
0
30
0
70
128
71
10
72
32
73
4
0
VERTEX
8
OBJECT__3
10
0
20
0
30
0
70
128
71
3
72
14
73
1
0
SEQEND
8
OBJECT__3
0
POLYLINE
8
OBJECT__4
66
1
70
64
71
129
72
155
62
253
0
VERTEX
8
OBJECT__4
10
37.516998
20
-14.075000
30
129.800003
70
192
0
VERTEX
8
OBJECT__4
10
54.886002
20
-15.310000
30
130.895996
70
192
0
VERTEX
8
OBJECT__4
10
55.450001
20
-7.611000
30
132.363007
70
192
0
VERTEX
8
OBJECT__4
10
38.202000
20
-0.027000
30
131.709000
70
192
0
VERTEX
8
OBJECT__4
10
4.785000
20
-0.012000
30
118.346001
70
192
0
VERTEX
8
OBJECT__4
10
4.260000
20
-10.724000
30
116.462997
70
192
0
VERTEX
8
OBJECT__4
10
12.169000
20
-11.678000
30
121.553001
70
192
0
VERTEX
8
OBJECT__4
10
21.025999
20
-0.021000
30
127.246002
70
192
0
VERTEX
8
OBJECT__4
10
-2.724000
20
-0.006000
30
111.830002
70
192
0
VERTEX
8
OBJECT__4
10
37.474998
20
14.022000
30
129.826004
70
192
0
VERTEX
8
OBJECT__4
10
55.430000
20
7.546000
30
132.376007
70
192
0
VERTEX
8
OBJECT__4
10
55.629002
20
-0.032000
30
132.856003
70
192
0
VERTEX
8
OBJECT__4
10
12.093000
20
11.642000
30
121.578003
70
192
0
VERTEX
8
OBJECT__4
10
20.350000
20
12.511000
30
125.392998
70
192
0
VERTEX
8
OBJECT__4
10
4.170000
20
10.695000
30
116.487999
70
192
0
VERTEX
8
OBJECT__4
10
-3.303000
20
9.666000
30
109.949997
70
192
0
VERTEX
8
OBJECT__4
10
72.000999
20
16.208000
30
129.623993
70
192
0
VERTEX
8
OBJECT__4
10
54.861000
20
15.247000
30
130.921997
70
192
0
VERTEX
8
OBJECT__4
10
89.181000
20
8.418000
30
128.216995
70
192
0
VERTEX
8
OBJECT__4
10
72.597000
20
8.045000
30
131.121002
70
192
0
VERTEX
8
OBJECT__4
10
72.801003
20
-0.036000
30
131.615997
70
192
0
VERTEX
8
OBJECT__4
10
89.184998
20
-8.495000
30
128.203003
70
192
0
VERTEX
8
OBJECT__4
10
89.389000
20
-0.039000
30
128.725006
70
192
0
VERTEX
8
OBJECT__4
10
72.608002
20
-8.117000
30
131.106995
70
192
0
VERTEX
8
OBJECT__4
10
72.012001
20
-16.278000
30
129.595993
70
192
0
VERTEX
8
OBJECT__4
10
-8.122000
20
-6.117000
30
104.998001
70
192
0
VERTEX
8
OBJECT__4
10
-6.862000
20
-9.147000
30
105.844002
70
192
0
VERTEX
8
OBJECT__4
10
-8.573000
20
-4.312000
30
104.738998
70
192
0
VERTEX
8
OBJECT__4
10
-8.999000
20
-0.001000
30
104.584000
70
192
0
VERTEX
8
OBJECT__4
10
-3.199000
20
-9.690000
30
109.925003
70
192
0
VERTEX
8
OBJECT__4
10
-6.259000
20
-10.441000
30
106.257004
70
192
0
VERTEX
8
OBJECT__4
10
-5.598000
20
-11.556000
30
106.725998
70
192
0
VERTEX
8
OBJECT__4
10
-6.474000
20
-10.080000
30
106.105003
70
192
0
VERTEX
8
OBJECT__4
10
-3.696000
20
-13.916000
30
108.065002
70
192
0
VERTEX
8
OBJECT__4
10
-2.407000
20
-15.515000
30
108.972000
70
192
0
VERTEX
8
OBJECT__4
10
0.153000
20
-17.820999
30
110.676003
70
192
0
VERTEX
8
OBJECT__4
10
2.118000
20
-19.113001
30
111.858002
70
192
0
VERTEX
8
OBJECT__4
10
4.381000
20
-20.601000
30
113.219002
70
192
0
VERTEX
8
OBJECT__4
10
5.295000
20
-21.202000
30
113.768997
70
192
0
VERTEX
8
OBJECT__4
10
3.079000
20
-19.745001
30
112.435997
70
192
0
VERTEX
8
OBJECT__4
10
20.414000
20
-12.553000
30
125.367996
70
192
0
VERTEX
8
OBJECT__4
10
13.926000
20
-24.413000
30
118.052002
70
192
0
VERTEX
8
OBJECT__4
10
17.855000
20
-25.327999
30
119.794998
70
192
0
VERTEX
8
OBJECT__4
10
10.526000
20
-23.417999
30
116.467003
70
192
0
VERTEX
8
OBJECT__4
10
11.595000
20
-23.870001
30
117.017998
70
192
0
VERTEX
8
OBJECT__4
10
33.563999
20
-24.410000
30
125.617996
70
192
0
VERTEX
8
OBJECT__4
10
36.327000
20
-23.385000
30
126.546997
70
192
0
VERTEX
8
OBJECT__4
10
28.367001
20
-25.443001
30
123.810997
70
192
0
VERTEX
8
OBJECT__4
10
26.648001
20
-25.622000
30
123.192001
70
192
0
VERTEX
8
OBJECT__4
10
18.587999
20
-25.368000
30
120.081001
70
192
0
VERTEX
8
OBJECT__4
10
25.017000
20
-25.719999
30
122.595001
70
192
0
VERTEX
8
OBJECT__4
10
49.070000
20
-19.421000
30
129.559006
70
192
0
VERTEX
8
OBJECT__4
10
42.323002
20
-21.098000
30
128.399994
70
192
0
VERTEX
8
OBJECT__4
10
43.668999
20
-20.764000
30
128.630997
70
192
0
VERTEX
8
OBJECT__4
10
49.041000
20
-19.427999
30
129.554001
70
192
0
VERTEX
8
OBJECT__4
10
37.918999
20
-22.795000
30
127.082001
70
192
0
VERTEX
8
OBJECT__4
10
39.339001
20
-22.268999
30
127.559998
70
192
0
VERTEX
8
OBJECT__4
10
63.402000
20
-18.023001
30
129.787994
70
192
0
VERTEX
8
OBJECT__4
10
69.301003
20
-17.482000
30
129.574997
70
192
0
VERTEX
8
OBJECT__4
10
57.973999
20
-18.520000
30
129.983994
70
192
0
VERTEX
8
OBJECT__4
10
54.498001
20
-18.872000
30
129.817993
70
192
0
VERTEX
8
OBJECT__4
10
76.140999
20
-16.957001
30
128.875000
70
192
0
VERTEX
8
OBJECT__4
10
78.746002
20
-16.797001
30
128.449005
70
192
0
VERTEX
8
OBJECT__4
10
71.906998
20
-17.282000
30
129.307999
70
192
0
VERTEX
8
OBJECT__4
10
80.886002
20
-16.665001
30
128.098999
70
192
0
VERTEX
8
OBJECT__4
10
114.875999
20
-13.203000
30
120.462997
70
192
0
VERTEX
8
OBJECT__4
10
116.549004
20
-10.664000
30
120.387001
70
192
0
VERTEX
8
OBJECT__4
10
97.809998
20
-15.683000
30
124.834000
70
192
0
VERTEX
8
OBJECT__4
10
113.792000
20
-14.592000
30
120.512001
70
192
0
VERTEX
8
OBJECT__4
10
95.428001
20
-15.814000
30
125.358002
70
192
0
VERTEX
8
OBJECT__4
10
89.003998
20
-16.165001
30
126.772003
70
192
0
VERTEX
8
OBJECT__4
10
88.639999
20
-16.187000
30
126.831001
70
192
0
VERTEX
8
OBJECT__4
10
118.647003
20
-5.993000
30
120.292999
70
192
0
VERTEX
8
OBJECT__4
10
119.227997
20
-3.750000
30
120.267998
70
192
0
VERTEX
8
OBJECT__4
10
118.028000
20
-7.371000
30
120.320999
70
192
0
VERTEX
8
OBJECT__4
10
117.347000
20
-8.886000
30
120.350998
70
192
0
VERTEX
8
OBJECT__4
10
119.582001
20
0.856000
30
120.251999
70
192
0
VERTEX
8
OBJECT__4
10
119.228996
20
3.763000
30
120.267998
70
192
0
VERTEX
8
OBJECT__4
10
119.386002
20
1.885000
30
120.296997
70
192
0
VERTEX
8
OBJECT__4
10
117.802002
20
8.233000
30
120.333000
70
192
0
VERTEX
8
OBJECT__4
10
117.515999
20
8.808000
30
120.346001
70
192
0
VERTEX
8
OBJECT__4
10
118.070999
20
7.389000
30
120.320999
70
192
0
VERTEX
8
OBJECT__4
10
119.513000
20
-0.041000
30
120.254997
70
192
0
VERTEX
8
OBJECT__4
10
119.515999
20
0.009000
30
120.254997
70
192
0
VERTEX
8
OBJECT__4
10
116.832001
20
10.182000
30
120.376999
70
192
0
VERTEX
8
OBJECT__4
10
113.795998
20
14.606000
30
120.514999
70
192
0
VERTEX
8
OBJECT__4
10
97.814003
20
15.713000
30
124.833000
70
192
0
VERTEX
8
OBJECT__4
10
95.430000
20
15.846000
30
125.357002
70
192
0
VERTEX
8
OBJECT__4
10
89.008003
20
16.204000
30
126.767998
70
192
0
VERTEX
8
OBJECT__4
10
82.068001
20
16.639999
30
127.901001
70
192
0
VERTEX
8
OBJECT__4
10
88.627998
20
16.228001
30
126.830002
70
192
0
VERTEX
8
OBJECT__4
10
78.748001
20
16.848000
30
128.444000
70
192
0
VERTEX
8
OBJECT__4
10
76.155998
20
17.011000
30
128.867004
70
192
0
VERTEX
8
OBJECT__4
10
69.210999
20
17.552999
30
129.574005
70
192
0
VERTEX
8
OBJECT__4
10
63.407001
20
18.094999
30
129.778000
70
192
0
VERTEX
8
OBJECT__4
10
57.893002
20
18.610001
30
129.970993
70
192
0
VERTEX
8
OBJECT__4
10
71.882004
20
17.344999
30
129.302002
70
192
0
VERTEX
8
OBJECT__4
10
42.085999
20
21.225000
30
128.348999
70
192
0
VERTEX
8
OBJECT__4
10
39.112999
20
22.368000
30
127.514000
70
192
0
VERTEX
8
OBJECT__4
10
38.001999
20
22.770000
30
127.140999
70
192
0
VERTEX
8
OBJECT__4
10
48.687000
20
19.587999
30
129.494995
70
192
0
VERTEX
8
OBJECT__4
10
43.460999
20
20.884001
30
128.587997
70
192
0
VERTEX
8
OBJECT__4
10
48.883999
20
19.539000
30
129.529007
70
192
0
VERTEX
8
OBJECT__4
10
54.459000
20
18.964001
30
129.802994
70
192
0
VERTEX
8
OBJECT__4
10
26.740000
20
25.600000
30
123.267998
70
192
0
VERTEX
8
OBJECT__4
10
20.219000
20
25.590000
30
120.799004
70
192
0
VERTEX
8
OBJECT__4
10
28.167999
20
25.452999
30
123.780998
70
192
0
VERTEX
8
OBJECT__4
10
36.301998
20
23.384001
30
126.570999
70
192
0
VERTEX
8
OBJECT__4
10
33.311001
20
24.465000
30
125.568001
70
192
0
VERTEX
8
OBJECT__4
10
13.987000
20
24.475000
30
118.144997
70
192
0
VERTEX
8
OBJECT__4
10
13.145000
20
24.325001
30
117.786003
70
192
0
VERTEX
8
OBJECT__4
10
18.611000
20
25.302000
30
120.113998
70
192
0
VERTEX
8
OBJECT__4
10
7.202000
20
22.162001
30
114.856003
70
192
0
VERTEX
8
OBJECT__4
10
4.419000
20
20.583000
30
113.269997
70
192
0
VERTEX
8
OBJECT__4
10
10.533000
20
23.374001
30
116.498001
70
192
0
VERTEX
8
OBJECT__4
10
-2.848000
20
15.120000
30
108.758003
70
192
0
VERTEX
8
OBJECT__4
10
-3.804000
20
13.991000
30
108.096001
70
192
0
VERTEX
8
OBJECT__4
10
1.065000
20
18.562000
30
111.319000
70
192
0
VERTEX
8
OBJECT__4
10
1.869000
20
19.136000
30
111.816002
70
192
0
VERTEX
8
OBJECT__4
10
2.052000
20
19.240000
30
111.919998
70
192
0
VERTEX
8
OBJECT__4
10
3.017000
20
19.787001
30
112.470001
70
192
0
VERTEX
8
OBJECT__4
10
-6.208000
20
10.469000
30
106.419998
70
192
0
VERTEX
8
OBJECT__4
10
-6.957000
20
9.249000
30
105.896004
70
192
0
VERTEX
8
OBJECT__4
10
-4.688000
20
12.946000
30
107.484001
70
192
0
VERTEX
8
OBJECT__4
10
-8.972000
20
1.262000
30
104.615997
70
192
0
VERTEX
8
OBJECT__4
10
-9.003000
20
0.033000
30
104.583000
70
192
0
VERTEX
8
OBJECT__4
10
-7.025000
20
9.093000
30
105.849998
70
192
0
VERTEX
8
OBJECT__4
10
-7.671000
20
7.598000
30
105.412003
70
192
0
VERTEX
8
OBJECT__4
10
-8.755000
20
3.447000
30
104.739998
70
192
0
VERTEX
8
OBJECT__4
10
0
20
0
30
0
70
128
71
1
72
2
73
3
0
VERTEX
8
OBJECT__4
10
0
20
0
30
0
70
128
71
3
72
4
73
1
0
VERTEX
8
OBJECT__4
10
0
20
0
30
0
70
128
71
5
72
6
73
7
0
VERTEX
8
OBJECT__4
10
0
20
0
30
0
70
128
71
7
72
8
73
5
0
VERTEX
8
OBJECT__4
10
0
20
0
30
0
70
128
71
1
72
4
73
8
0
VERTEX
8
OBJECT__4
10
0
20
0
30
0
70
128
71
6
72
5
73
9
0
VERTEX
8
OBJECT__4
10
0
20
0
30
0
70
128
71
10
72
4
73
11
0
VERTEX
8
OBJECT__4
10
0
20
0
30
0
70
128
71
4
72
12
73
11
0
VERTEX
8
OBJECT__4
10
0
20
0
30
0
70
128
71
5
72
8
73
13
0
VERTEX
8
OBJECT__4
10
0
20
0
30
0
70
128
71
8
72
14
73
13
0
VERTEX
8
OBJECT__4
10
0
20
0
30
0
70
128
71
10
72
14
73
8
0
VERTEX
8
OBJECT__4
10
0
20
0
30
0
70
128
71
15
72
16
73
9
0
VERTEX
8
OBJECT__4
10
0
20
0
30
0
70
128
71
17
72
18
73
11
0
VERTEX
8
OBJECT__4
10
0
20
0
30
0
70
128
71
19
72
20
73
21
0
VERTEX
8
OBJECT__4
10
0
20
0
30
0
70
128
71
20
72
11
73
12
0
VERTEX
8
OBJECT__4
10
0
20
0
30
0
70
128
71
22
72
23
73
21
0
VERTEX
8
OBJECT__4
10
0
20
0
30
0
70
128
71
24
72
21
73
12
0
VERTEX
8
OBJECT__4
10
0
20
0
30
0
70
128
71
25
72
24
73
3
0
VERTEX
8
OBJECT__4
10
0
20
0
30
0
70
128
71
9
72
26
73
27
0
VERTEX
8
OBJECT__4
10
0
20
0
30
0
70
128
71
9
72
28
73
26
0
VERTEX
8
OBJECT__4
10
0
20
0
30
0
70
128
71
9
72
29
73
28
0
VERTEX
8
OBJECT__4
10
0
20
0
30
0
70
128
71
30
72
31
73
32
0
VERTEX
8
OBJECT__4
10
0
20
0
30
0
70
128
71
30
72
27
73
33
0
VERTEX
8
OBJECT__4
10
0
20
0
30
0
70
128
71
33
72
31
73
30
0
VERTEX
8
OBJECT__4
10
0
20
0
30
0
70
128
71
6
72
30
73
34
0
VERTEX
8
OBJECT__4
10
0
20
0
30
0
70
128
71
34
72
35
73
6
0
VERTEX
8
OBJECT__4
10
0
20
0
30
0
70
128
71
35
72
36
73
6
0
VERTEX
8
OBJECT__4
10
0
20
0
30
0
70
128
71
36
72
37
73
6
0
VERTEX
8
OBJECT__4
10
0
20
0
30
0
70
128
71
7
72
6
73
38
0
VERTEX
8
OBJECT__4
10
0
20
0
30
0
70
128
71
38
72
39
73
7
0
VERTEX
8
OBJECT__4
10
0
20
0
30
0
70
128
71
6
72
40
73
38
0
VERTEX
8
OBJECT__4
10
0
20
0
30
0
70
128
71
41
72
7
73
42
0
VERTEX
8
OBJECT__4
10
0
20
0
30
0
70
128
71
42
72
43
73
41
0
VERTEX
8
OBJECT__4
10
0
20
0
30
0
70
128
71
7
72
44
73
45
0
VERTEX
8
OBJECT__4
10
0
20
0
30
0
70
128
71
45
72
42
73
7
0
VERTEX
8
OBJECT__4
10
0
20
0
30
0
70
128
71
41
72
46
73
47
0
VERTEX
8
OBJECT__4
10
0
20
0
30
0
70
128
71
41
72
48
73
46
0
VERTEX
8
OBJECT__4
10
0
20
0
30
0
70
128
71
41
72
49
73
48
0
VERTEX
8
OBJECT__4
10
0
20
0
30
0
70
128
71
41
72
50
73
51
0
VERTEX
8
OBJECT__4
10
0
20
0
30
0
70
128
71
51
72
49
73
41
0
VERTEX
8
OBJECT__4
10
0
20
0
30
0
70
128
71
2
72
1
73
52
0
VERTEX
8
OBJECT__4
10
0
20
0
30
0
70
128
71
1
72
53
73
54
0
VERTEX
8
OBJECT__4
10
0
20
0
30
0
70
128
71
54
72
55
73
1
0
VERTEX
8
OBJECT__4
10
0
20
0
30
0
70
128
71
1
72
56
73
57
0
VERTEX
8
OBJECT__4
10
0
20
0
30
0
70
128
71
1
72
47
73
56
0
VERTEX
8
OBJECT__4
10
0
20
0
30
0
70
128
71
57
72
53
73
1
0
VERTEX
8
OBJECT__4
10
0
20
0
30
0
70
128
71
55
72
52
73
1
0
VERTEX
8
OBJECT__4
10
0
20
0
30
0
70
128
71
2
72
58
73
59
0
VERTEX
8
OBJECT__4
10
0
20
0
30
0
70
128
71
2
72
60
73
58
0
VERTEX
8
OBJECT__4
10
0
20
0
30
0
70
128
71
2
72
61
73
60
0
VERTEX
8
OBJECT__4
10
0
20
0
30
0
70
128
71
59
72
25
73
2
0
VERTEX
8
OBJECT__4
10
0
20
0
30
0
70
128
71
25
72
62
73
63
0
VERTEX
8
OBJECT__4
10
0
20
0
30
0
70
128
71
25
72
64
73
62
0
VERTEX
8
OBJECT__4
10
0
20
0
30
0
70
128
71
22
72
24
73
65
0
VERTEX
8
OBJECT__4
10
0
20
0
30
0
70
128
71
24
72
25
73
65
0
VERTEX
8
OBJECT__4
10
0
20
0
30
0
70
128
71
22
72
66
73
67
0
VERTEX
8
OBJECT__4
10
0
20
0
30
0
70
128
71
66
72
22
73
68
0
VERTEX
8
OBJECT__4
10
0
20
0
30
0
70
128
71
68
72
69
73
66
0
VERTEX
8
OBJECT__4
10
0
20
0
30
0
70
128
71
22
72
70
73
68
0
VERTEX
8
OBJECT__4
10
0
20
0
30
0
70
128
71
22
72
71
73
70
0
VERTEX
8
OBJECT__4
10
0
20
0
30
0
70
128
71
22
72
72
73
71
0
VERTEX
8
OBJECT__4
10
0
20
0
30
0
70
128
71
23
72
73
73
74
0
VERTEX
8
OBJECT__4
10
0
20
0
30
0
70
128
71
23
72
75
73
73
0
VERTEX
8
OBJECT__4
10
0
20
0
30
0
70
128
71
23
72
22
73
76
0
VERTEX
8
OBJECT__4
10
0
20
0
30
0
70
128
71
76
72
75
73
23
0
VERTEX
8
OBJECT__4
10
0
20
0
30
0
70
128
71
77
72
78
73
79
0
VERTEX
8
OBJECT__4
10
0
20
0
30
0
70
128
71
23
72
80
73
81
0
VERTEX
8
OBJECT__4
10
0
20
0
30
0
70
128
71
23
72
82
73
80
0
VERTEX
8
OBJECT__4
10
0
20
0
30
0
70
128
71
23
72
79
73
78
0
VERTEX
8
OBJECT__4
10
0
20
0
30
0
70
128
71
23
72
83
73
84
0
VERTEX
8
OBJECT__4
10
0
20
0
30
0
70
128
71
84
72
79
73
23
0
VERTEX
8
OBJECT__4
10
0
20
0
30
0
70
128
71
78
72
82
73
23
0
VERTEX
8
OBJECT__4
10
0
20
0
30
0
70
128
71
81
72
19
73
23
0
VERTEX
8
OBJECT__4
10
0
20
0
30
0
70
128
71
79
72
84
73
77
0
VERTEX
8
OBJECT__4
10
0
20
0
30
0
70
128
71
85
72
86
73
87
0
VERTEX
8
OBJECT__4
10
0
20
0
30
0
70
128
71
19
72
81
73
85
0
VERTEX
8
OBJECT__4
10
0
20
0
30
0
70
128
71
87
72
19
73
85
0
VERTEX
8
OBJECT__4
10
0
20
0
30
0
70
128
71
87
72
88
73
19
0
VERTEX
8
OBJECT__4
10
0
20
0
30
0
70
128
71
88
72
89
73
19
0
VERTEX
8
OBJECT__4
10
0
20
0
30
0
70
128
71
20
72
19
73
90
0
VERTEX
8
OBJECT__4
10
0
20
0
30
0
70
128
71
19
72
91
73
90
0
VERTEX
8
OBJECT__4
10
0
20
0
30
0
70
128
71
17
72
90
73
92
0
VERTEX
8
OBJECT__4
10
0
20
0
30
0
70
128
71
92
72
93
73
17
0
VERTEX
8
OBJECT__4
10
0
20
0
30
0
70
128
71
18
72
17
73
94
0
VERTEX
8
OBJECT__4
10
0
20
0
30
0
70
128
71
94
72
95
73
18
0
VERTEX
8
OBJECT__4
10
0
20
0
30
0
70
128
71
95
72
96
73
18
0
VERTEX
8
OBJECT__4
10
0
20
0
30
0
70
128
71
17
72
97
73
94
0
VERTEX
8
OBJECT__4
10
0
20
0
30
0
70
128
71
10
72
98
73
99
0
VERTEX
8
OBJECT__4
10
0
20
0
30
0
70
128
71
99
72
100
73
10
0
VERTEX
8
OBJECT__4
10
0
20
0
30
0
70
128
71
10
72
101
73
102
0
VERTEX
8
OBJECT__4
10
0
20
0
30
0
70
128
71
10
72
103
73
101
0
VERTEX
8
OBJECT__4
10
0
20
0
30
0
70
128
71
102
72
98
73
10
0
VERTEX
8
OBJECT__4
10
0
20
0
30
0
70
128
71
18
72
104
73
103
0
VERTEX
8
OBJECT__4
10
0
20
0
30
0
70
128
71
103
72
10
73
18
0
VERTEX
8
OBJECT__4
10
0
20
0
30
0
70
128
71
14
72
105
73
106
0
VERTEX
8
OBJECT__4
10
0
20
0
30
0
70
128
71
14
72
107
73
105
0
VERTEX
8
OBJECT__4
10
0
20
0
30
0
70
128
71
14
72
10
73
108
0
VERTEX
8
OBJECT__4
10
0
20
0
30
0
70
128
71
108
72
109
73
14
0
VERTEX
8
OBJECT__4
10
0
20
0
30
0
70
128
71
109
72
107
73
14
0
VERTEX
8
OBJECT__4
10
0
20
0
30
0
70
128
71
13
72
110
73
111
0
VERTEX
8
OBJECT__4
10
0
20
0
30
0
70
128
71
14
72
112
73
110
0
VERTEX
8
OBJECT__4
10
0
20
0
30
0
70
128
71
110
72
13
73
14
0
VERTEX
8
OBJECT__4
10
0
20
0
30
0
70
128
71
13
72
113
73
114
0
VERTEX
8
OBJECT__4
10
0
20
0
30
0
70
128
71
13
72
115
73
113
0
VERTEX
8
OBJECT__4
10
0
20
0
30
0
70
128
71
114
72
15
73
13
0
VERTEX
8
OBJECT__4
10
0
20
0
30
0
70
128
71
15
72
116
73
117
0
VERTEX
8
OBJECT__4
10
0
20
0
30
0
70
128
71
15
72
118
73
116
0
VERTEX
8
OBJECT__4
10
0
20
0
30
0
70
128
71
15
72
119
73
118
0
VERTEX
8
OBJECT__4
10
0
20
0
30
0
70
128
71
15
72
120
73
119
0
VERTEX
8
OBJECT__4
10
0
20
0
30
0
70
128
71
15
72
121
73
120
0
VERTEX
8
OBJECT__4
10
0
20
0
30
0
70
128
71
16
72
122
73
123
0
VERTEX
8
OBJECT__4
10
0
20
0
30
0
70
128
71
16
72
117
73
124
0
VERTEX
8
OBJECT__4
10
0
20
0
30
0
70
128
71
124
72
122
73
16
0
VERTEX
8
OBJECT__4
10
0
20
0
30
0
70
128
71
9
72
125
73
126
0
VERTEX
8
OBJECT__4
10
0
20
0
30
0
70
128
71
9
72
16
73
127
0
VERTEX
8
OBJECT__4
10
0
20
0
30
0
70
128
71
127
72
128
73
9
0
VERTEX
8
OBJECT__4
10
0
20
0
30
0
70
128
71
128
72
129
73
9
0
VERTEX
8
OBJECT__4
10
0
20
0
30
0
70
128
71
129
72
125
73
9
0
VERTEX
8
OBJECT__4
10
0
20
0
30
0
70
128
71
126
72
29
73
9
0
VERTEX
8
OBJECT__4
10
0
20
0
30
0
70
128
71
123
72
127
73
16
0
VERTEX
8
OBJECT__4
10
0
20
0
30
0
70
128
71
117
72
16
73
15
0
VERTEX
8
OBJECT__4
10
0
20
0
30
0
70
128
71
114
72
121
73
15
0
VERTEX
8
OBJECT__4
10
0
20
0
30
0
70
128
71
111
72
115
73
13
0
VERTEX
8
OBJECT__4
10
0
20
0
30
0
70
128
71
106
72
112
73
14
0
VERTEX
8
OBJECT__4
10
0
20
0
30
0
70
128
71
100
72
108
73
10
0
VERTEX
8
OBJECT__4
10
0
20
0
30
0
70
128
71
96
72
104
73
18
0
VERTEX
8
OBJECT__4
10
0
20
0
30
0
70
128
71
93
72
97
73
17
0
VERTEX
8
OBJECT__4
10
0
20
0
30
0
70
128
71
90
72
17
73
20
0
VERTEX
8
OBJECT__4
10
0
20
0
30
0
70
128
71
89
72
91
73
19
0
VERTEX
8
OBJECT__4
10
0
20
0
30
0
70
128
71
74
72
83
73
23
0
VERTEX
8
OBJECT__4
10
0
20
0
30
0
70
128
71
67
72
76
73
22
0
VERTEX
8
OBJECT__4
10
0
20
0
30
0
70
128
71
65
72
72
73
22
0
VERTEX
8
OBJECT__4
10
0
20
0
30
0
70
128
71
63
72
65
73
25
0
VERTEX
8
OBJECT__4
10
0
20
0
30
0
70
128
71
59
72
64
73
25
0
VERTEX
8
OBJECT__4
10
0
20
0
30
0
70
128
71
52
72
61
73
2
0
VERTEX
8
OBJECT__4
10
0
20
0
30
0
70
128
71
47
72
1
73
41
0
VERTEX
8
OBJECT__4
10
0
20
0
30
0
70
128
71
43
72
50
73
41
0
VERTEX
8
OBJECT__4
10
0
20
0
30
0
70
128
71
39
72
44
73
7
0
VERTEX
8
OBJECT__4
10
0
20
0
30
0
70
128
71
37
72
40
73
6
0
VERTEX
8
OBJECT__4
10
0
20
0
30
0
70
128
71
32
72
34
73
30
0
VERTEX
8
OBJECT__4
10
0
20
0
30
0
70
128
71
27
72
30
73
9
0
VERTEX
8
OBJECT__4
10
0
20
0
30
0
70
128
71
3
72
2
73
25
0
VERTEX
8
OBJECT__4
10
0
20
0
30
0
70
128
71
12
72
3
73
24
0
VERTEX
8
OBJECT__4
10
0
20
0
30
0
70
128
71
21
72
24
73
22
0
VERTEX
8
OBJECT__4
10
0
20
0
30
0
70
128
71
12
72
21
73
20
0
VERTEX
8
OBJECT__4
10
0
20
0
30
0
70
128
71
21
72
23
73
19
0
VERTEX
8
OBJECT__4
10
0
20
0
30
0
70
128
71
11
72
20
73
17
0
VERTEX
8
OBJECT__4
10
0
20
0
30
0
70
128
71
9
72
5
73
15
0
VERTEX
8
OBJECT__4
10
0
20
0
30
0
70
128
71
8
72
4
73
10
0
VERTEX
8
OBJECT__4
10
0
20
0
30
0
70
128
71
13
72
15
73
5
0
VERTEX
8
OBJECT__4
10
0
20
0
30
0
70
128
71
11
72
18
73
10
0
VERTEX
8
OBJECT__4
10
0
20
0
30
0
70
128
71
9
72
30
73
6
0
VERTEX
8
OBJECT__4
10
0
20
0
30
0
70
128
71
8
72
41
73
1
0
VERTEX
8
OBJECT__4
10
0
20
0
30
0
70
128
71
7
72
41
73
8
0
VERTEX
8
OBJECT__4
10
0
20
0
30
0
70
128
71
3
72
12
73
4
0
SEQEND
8
OBJECT__4
0
POLYLINE
8
OBJECT__5
66
1
70
64
71
37
72
38
62
253
0
VERTEX
8
OBJECT__5
10
41.381001
20
-18.750999
30
110.003998
70
192
0
VERTEX
8
OBJECT__5
10
32.962002
20
-24.503000
30
111.486000
70
192
0
VERTEX
8
OBJECT__5
10
33.816002
20
-21.299999
30
93.941002
70
192
0
VERTEX
8
OBJECT__5
10
27.273001
20
-25.087999
30
95.094002
70
192
0
VERTEX
8
OBJECT__5
10
30.834999
20
-23.398001
30
94.466003
70
192
0
VERTEX
8
OBJECT__5
10
21.872999
20
-26.743999
30
110.116997
70
192
0
VERTEX
8
OBJECT__5
10
22.434000
20
-26.702000
30
95.947998
70
192
0
VERTEX
8
OBJECT__5
10
25.930000
20
-25.725000
30
95.331001
70
192
0
VERTEX
8
OBJECT__5
10
20.740999
20
-27.010000
30
107.015999
70
192
0
VERTEX
8
OBJECT__5
10
17.047001
20
-27.250000
30
96.898003
70
192
0
VERTEX
8
OBJECT__5
10
23.013000
20
-26.476999
30
113.237999
70
192
0
VERTEX
8
OBJECT__5
10
46.985001
20
-10.157000
30
109.019997
70
192
0
VERTEX
8
OBJECT__5
10
39.814999
20
-14.476000
30
92.883003
70
192
0
VERTEX
8
OBJECT__5
10
37.686001
20
-17.455999
30
93.258003
70
192
0
VERTEX
8
OBJECT__5
10
35.937000
20
-19.193001
30
93.567001
70
192
0
VERTEX
8
OBJECT__5
10
49.539001
20
-7.399000
30
115.225998
70
192
0
VERTEX
8
OBJECT__5
10
49.436001
20
-8.085000
30
115.436996
70
192
0
VERTEX
8
OBJECT__5
10
42.214001
20
-9.547000
30
92.459999
70
192
0
VERTEX
8
OBJECT__5
10
43.251999
20
-6.019000
30
92.277000
70
192
0
VERTEX
8
OBJECT__5
10
50.132999
20
-3.441000
30
114.012001
70
192
0
VERTEX
8
OBJECT__5
10
41.787998
20
-10.422000
30
92.535004
70
192
0
VERTEX
8
OBJECT__5
10
44.451000
20
-0.033000
30
93.797997
70
192
0
VERTEX
8
OBJECT__5
10
43.915001
20
-0.033000
30
92.160004
70
192
0
VERTEX
8
OBJECT__5
10
50.264000
20
-0.036000
30
113.693001
70
192
0
VERTEX
8
OBJECT__5
10
47.344002
20
-13.854000
30
119.010002
70
192
0
VERTEX
8
OBJECT__5
10
45.929001
20
-16.537001
30
121.156998
70
192
0
VERTEX
8
OBJECT__5
10
48.132999
20
-12.359000
30
117.813004
70
192
0
VERTEX
8
OBJECT__5
10
48.897999
20
-9.850000
30
116.417999
70
192
0
VERTEX
8
OBJECT__5
10
43.226002
20
-19.625999
30
124.220001
70
192
0
VERTEX
8
OBJECT__5
10
39.339001
20
-22.268999
30
127.559998
70
192
0
VERTEX
8
OBJECT__5
10
37.918999
20
-22.795000
30
127.082001
70
192
0
VERTEX
8
OBJECT__5
10
43.740002
20
-19.039000
30
123.638000
70
192
0
VERTEX
8
OBJECT__5
10
44.861000
20
-17.757999
30
122.366997
70
192
0
VERTEX
8
OBJECT__5
10
28.367001
20
-25.443001
30
123.810997
70
192
0
VERTEX
8
OBJECT__5
10
26.648001
20
-25.622000
30
123.192001
70
192
0
VERTEX
8
OBJECT__5
10
36.327000
20
-23.385000
30
126.546997
70
192
0
VERTEX
8
OBJECT__5
10
33.563999
20
-24.410000
30
125.617996
70
192
0
VERTEX
8
OBJECT__5
10
0
20
0
30
0
70
128
71
1
72
2
73
3
0
VERTEX
8
OBJECT__5
10
0
20
0
30
0
70
128
71
2
72
4
73
5
0
VERTEX
8
OBJECT__5
10
0
20
0
30
0
70
128
71
5
72
3
73
2
0
VERTEX
8
OBJECT__5
10
0
20
0
30
0
70
128
71
6
72
7
73
8
0
VERTEX
8
OBJECT__5
10
0
20
0
30
0
70
128
71
7
72
6
73
9
0
VERTEX
8
OBJECT__5
10
0
20
0
30
0
70
128
71
9
72
10
73
7
0
VERTEX
8
OBJECT__5
10
0
20
0
30
0
70
128
71
2
72
11
73
6
0
VERTEX
8
OBJECT__5
10
0
20
0
30
0
70
128
71
8
72
2
73
6
0
VERTEX
8
OBJECT__5
10
0
20
0
30
0
70
128
71
12
72
1
73
13
0
VERTEX
8
OBJECT__5
10
0
20
0
30
0
70
128
71
1
72
14
73
13
0
VERTEX
8
OBJECT__5
10
0
20
0
30
0
70
128
71
1
72
15
73
14
0
VERTEX
8
OBJECT__5
10
0
20
0
30
0
70
128
71
16
72
17
73
12
0
VERTEX
8
OBJECT__5
10
0
20
0
30
0
70
128
71
16
72
18
73
19
0
VERTEX
8
OBJECT__5
10
0
20
0
30
0
70
128
71
19
72
20
73
16
0
VERTEX
8
OBJECT__5
10
0
20
0
30
0
70
128
71
12
72
21
73
18
0
VERTEX
8
OBJECT__5
10
0
20
0
30
0
70
128
71
12
72
18
73
16
0
VERTEX
8
OBJECT__5
10
0
20
0
30
0
70
128
71
20
72
19
73
22
0
VERTEX
8
OBJECT__5
10
0
20
0
30
0
70
128
71
19
72
23
73
22
0
VERTEX
8
OBJECT__5
10
0
20
0
30
0
70
128
71
22
72
24
73
20
0
VERTEX
8
OBJECT__5
10
0
20
0
30
0
70
128
71
1
72
25
73
26
0
VERTEX
8
OBJECT__5
10
0
20
0
30
0
70
128
71
1
72
27
73
25
0
VERTEX
8
OBJECT__5
10
0
20
0
30
0
70
128
71
1
72
12
73
28
0
VERTEX
8
OBJECT__5
10
0
20
0
30
0
70
128
71
28
72
27
73
1
0
VERTEX
8
OBJECT__5
10
0
20
0
30
0
70
128
71
29
72
30
73
31
0
VERTEX
8
OBJECT__5
10
0
20
0
30
0
70
128
71
2
72
32
73
29
0
VERTEX
8
OBJECT__5
10
0
20
0
30
0
70
128
71
2
72
1
73
33
0
VERTEX
8
OBJECT__5
10
0
20
0
30
0
70
128
71
33
72
32
73
2
0
VERTEX
8
OBJECT__5
10
0
20
0
30
0
70
128
71
2
72
34
73
35
0
VERTEX
8
OBJECT__5
10
0
20
0
30
0
70
128
71
2
72
36
73
37
0
VERTEX
8
OBJECT__5
10
0
20
0
30
0
70
128
71
37
72
34
73
2
0
VERTEX
8
OBJECT__5
10
0
20
0
30
0
70
128
71
2
72
31
73
36
0
VERTEX
8
OBJECT__5
10
0
20
0
30
0
70
128
71
35
72
11
73
2
0
VERTEX
8
OBJECT__5
10
0
20
0
30
0
70
128
71
31
72
2
73
29
0
VERTEX
8
OBJECT__5
10
0
20
0
30
0
70
128
71
26
72
33
73
1
0
VERTEX
8
OBJECT__5
10
0
20
0
30
0
70
128
71
17
72
28
73
12
0
VERTEX
8
OBJECT__5
10
0
20
0
30
0
70
128
71
13
72
21
73
12
0
VERTEX
8
OBJECT__5
10
0
20
0
30
0
70
128
71
8
72
4
73
2
0
VERTEX
8
OBJECT__5
10
0
20
0
30
0
70
128
71
3
72
15
73
1
0
SEQEND
8
OBJECT__5
0
POLYLINE
8
OBJECT__6
66
1
70
64
71
37
72
38
62
253
0
VERTEX
8
OBJECT__6
10
33.006001
20
24.480000
30
111.434998
70
192
0
VERTEX
8
OBJECT__6
10
33.867001
20
21.259001
30
93.931999
70
192
0
VERTEX
8
OBJECT__6
10
30.889999
20
23.364000
30
94.457001
70
192
0
VERTEX
8
OBJECT__6
10
41.404999
20
18.709000
30
109.958000
70
192
0
VERTEX
8
OBJECT__6
10
35.983002
20
19.146999
30
93.558998
70
192
0
VERTEX
8
OBJECT__6
10
22.497000
20
26.688999
30
95.936996
70
192
0
VERTEX
8
OBJECT__6
10
17.111000
20
27.250000
30
96.886002
70
192
0
VERTEX
8
OBJECT__6
10
20.837000
20
27.002001
30
107.091003
70
192
0
VERTEX
8
OBJECT__6
10
21.952999
20
26.737000
30
110.149002
70
192
0
VERTEX
8
OBJECT__6
10
23.061001
20
26.473000
30
113.185997
70
192
0
VERTEX
8
OBJECT__6
10
25.990999
20
25.702999
30
95.320000
70
192
0
VERTEX
8
OBJECT__6
10
27.332001
20
25.063000
30
95.084000
70
192
0
VERTEX
8
OBJECT__6
10
46.960999
20
10.095000
30
108.984001
70
192
0
VERTEX
8
OBJECT__6
10
41.813000
20
10.362000
30
92.530998
70
192
0
VERTEX
8
OBJECT__6
10
39.849998
20
14.420000
30
92.876999
70
192
0
VERTEX
8
OBJECT__6
10
37.727001
20
17.406000
30
93.250999
70
192
0
VERTEX
8
OBJECT__6
10
28.167999
20
25.452999
30
123.780998
70
192
0
VERTEX
8
OBJECT__6
10
33.311001
20
24.465000
30
125.568001
70
192
0
VERTEX
8
OBJECT__6
10
26.740000
20
25.600000
30
123.267998
70
192
0
VERTEX
8
OBJECT__6
10
36.301998
20
23.384001
30
126.570999
70
192
0
VERTEX
8
OBJECT__6
10
43.535000
20
19.173000
30
123.653999
70
192
0
VERTEX
8
OBJECT__6
10
44.841999
20
17.709999
30
122.210999
70
192
0
VERTEX
8
OBJECT__6
10
38.001999
20
22.770000
30
127.140999
70
192
0
VERTEX
8
OBJECT__6
10
39.112999
20
22.368000
30
127.514000
70
192
0
VERTEX
8
OBJECT__6
10
42.895000
20
19.889000
30
124.360001
70
192
0
VERTEX
8
OBJECT__6
10
48.167999
20
12.141000
30
117.591003
70
192
0
VERTEX
8
OBJECT__6
10
48.854000
20
9.789000
30
116.328003
70
192
0
VERTEX
8
OBJECT__6
10
45.895000
20
16.532000
30
121.047997
70
192
0
VERTEX
8
OBJECT__6
10
47.186001
20
14.038000
30
119.084000
70
192
0
VERTEX
8
OBJECT__6
10
50.258999
20
0.066000
30
113.700996
70
192
0
VERTEX
8
OBJECT__6
10
50.264000
20
-0.036000
30
113.693001
70
192
0
VERTEX
8
OBJECT__6
10
44.451000
20
-0.033000
30
93.797997
70
192
0
VERTEX
8
OBJECT__6
10
43.265999
20
5.955000
30
92.274002
70
192
0
VERTEX
8
OBJECT__6
10
50.113998
20
3.140000
30
113.945000
70
192
0
VERTEX
8
OBJECT__6
10
43.915001
20
-0.033000
30
92.160004
70
192
0
VERTEX
8
OBJECT__6
10
42.237000
20
9.485000
30
92.456001
70
192
0
VERTEX
8
OBJECT__6
10
49.421001
20
7.846000
30
115.283997
70
192
0
VERTEX
8
OBJECT__6
10
0
20
0
30
0
70
128
71
1
72
2
73
3
0
VERTEX
8
OBJECT__6
10
0
20
0
30
0
70
128
71
4
72
5
73
2
0
VERTEX
8
OBJECT__6
10
0
20
0
30
0
70
128
71
2
72
1
73
4
0
VERTEX
8
OBJECT__6
10
0
20
0
30
0
70
128
71
6
72
7
73
8
0
VERTEX
8
OBJECT__6
10
0
20
0
30
0
70
128
71
8
72
9
73
6
0
VERTEX
8
OBJECT__6
10
0
20
0
30
0
70
128
71
10
72
1
73
11
0
VERTEX
8
OBJECT__6
10
0
20
0
30
0
70
128
71
11
72
6
73
10
0
VERTEX
8
OBJECT__6
10
0
20
0
30
0
70
128
71
1
72
12
73
11
0
VERTEX
8
OBJECT__6
10
0
20
0
30
0
70
128
71
13
72
14
73
15
0
VERTEX
8
OBJECT__6
10
0
20
0
30
0
70
128
71
15
72
4
73
13
0
VERTEX
8
OBJECT__6
10
0
20
0
30
0
70
128
71
15
72
16
73
4
0
VERTEX
8
OBJECT__6
10
0
20
0
30
0
70
128
71
1
72
17
73
18
0
VERTEX
8
OBJECT__6
10
0
20
0
30
0
70
128
71
1
72
10
73
19
0
VERTEX
8
OBJECT__6
10
0
20
0
30
0
70
128
71
19
72
17
73
1
0
VERTEX
8
OBJECT__6
10
0
20
0
30
0
70
128
71
18
72
20
73
1
0
VERTEX
8
OBJECT__6
10
0
20
0
30
0
70
128
71
1
72
21
73
22
0
VERTEX
8
OBJECT__6
10
0
20
0
30
0
70
128
71
1
72
23
73
24
0
VERTEX
8
OBJECT__6
10
0
20
0
30
0
70
128
71
24
72
25
73
1
0
VERTEX
8
OBJECT__6
10
0
20
0
30
0
70
128
71
25
72
21
73
1
0
VERTEX
8
OBJECT__6
10
0
20
0
30
0
70
128
71
4
72
26
73
27
0
VERTEX
8
OBJECT__6
10
0
20
0
30
0
70
128
71
4
72
22
73
28
0
VERTEX
8
OBJECT__6
10
0
20
0
30
0
70
128
71
28
72
29
73
4
0
VERTEX
8
OBJECT__6
10
0
20
0
30
0
70
128
71
29
72
26
73
4
0
VERTEX
8
OBJECT__6
10
0
20
0
30
0
70
128
71
30
72
31
73
32
0
VERTEX
8
OBJECT__6
10
0
20
0
30
0
70
128
71
33
72
34
73
30
0
VERTEX
8
OBJECT__6
10
0
20
0
30
0
70
128
71
30
72
35
73
33
0
VERTEX
8
OBJECT__6
10
0
20
0
30
0
70
128
71
33
72
36
73
13
0
VERTEX
8
OBJECT__6
10
0
20
0
30
0
70
128
71
13
72
34
73
33
0
VERTEX
8
OBJECT__6
10
0
20
0
30
0
70
128
71
13
72
37
73
34
0
VERTEX
8
OBJECT__6
10
0
20
0
30
0
70
128
71
36
72
14
73
13
0
VERTEX
8
OBJECT__6
10
0
20
0
30
0
70
128
71
13
72
27
73
37
0
VERTEX
8
OBJECT__6
10
0
20
0
30
0
70
128
71
32
72
35
73
30
0
VERTEX
8
OBJECT__6
10
0
20
0
30
0
70
128
71
27
72
13
73
4
0
VERTEX
8
OBJECT__6
10
0
20
0
30
0
70
128
71
22
72
4
73
1
0
VERTEX
8
OBJECT__6
10
0
20
0
30
0
70
128
71
20
72
23
73
1
0
VERTEX
8
OBJECT__6
10
0
20
0
30
0
70
128
71
16
72
5
73
4
0
VERTEX
8
OBJECT__6
10
0
20
0
30
0
70
128
71
9
72
10
73
6
0
VERTEX
8
OBJECT__6
10
0
20
0
30
0
70
128
71
3
72
12
73
1
0
SEQEND
8
OBJECT__6
0
POLYLINE
8
OBJECT__7
66
1
70
64
71
39
72
38
62
253
0
VERTEX
8
OBJECT__7
10
11.523000
20
-24.944000
30
111.958000
70
192
0
VERTEX
8
OBJECT__7
10
11.152000
20
-26.577000
30
97.936996
70
192
0
VERTEX
8
OBJECT__7
10
17.047001
20
-27.250000
30
96.898003
70
192
0
VERTEX
8
OBJECT__7
10
20.740999
20
-27.010000
30
107.015999
70
192
0
VERTEX
8
OBJECT__7
10
7.678000
20
-25.523001
30
98.550003
70
192
0
VERTEX
8
OBJECT__7
10
6.815000
20
-25.090000
30
98.702003
70
192
0
VERTEX
8
OBJECT__7
10
23.013000
20
-26.476999
30
113.237999
70
192
0
VERTEX
8
OBJECT__7
10
18.587999
20
-25.368000
30
120.081001
70
192
0
VERTEX
8
OBJECT__7
10
17.855000
20
-25.327999
30
119.794998
70
192
0
VERTEX
8
OBJECT__7
10
26.648001
20
-25.622000
30
123.192001
70
192
0
VERTEX
8
OBJECT__7
10
25.017000
20
-25.719999
30
122.595001
70
192
0
VERTEX
8
OBJECT__7
10
13.926000
20
-24.413000
30
118.052002
70
192
0
VERTEX
8
OBJECT__7
10
21.872999
20
-26.743999
30
110.116997
70
192
0
VERTEX
8
OBJECT__7
10
11.595000
20
-23.870001
30
117.017998
70
192
0
VERTEX
8
OBJECT__7
10
10.526000
20
-23.417999
30
116.467003
70
192
0
VERTEX
8
OBJECT__7
10
5.295000
20
-21.202000
30
113.768997
70
192
0
VERTEX
8
OBJECT__7
10
-0.112000
20
-20.924999
30
99.922997
70
192
0
VERTEX
8
OBJECT__7
10
3.079000
20
-19.745001
30
112.435997
70
192
0
VERTEX
8
OBJECT__7
10
2.118000
20
-19.113001
30
111.858002
70
192
0
VERTEX
8
OBJECT__7
10
-1.823000
20
-19.149000
30
100.224998
70
192
0
VERTEX
8
OBJECT__7
10
2.823000
20
-23.087000
30
99.405998
70
192
0
VERTEX
8
OBJECT__7
10
4.381000
20
-20.601000
30
113.219002
70
192
0
VERTEX
8
OBJECT__7
10
-5.963000
20
-13.968000
30
100.955002
70
192
0
VERTEX
8
OBJECT__7
10
-5.598000
20
-11.556000
30
106.725998
70
192
0
VERTEX
8
OBJECT__7
10
-6.259000
20
-10.441000
30
106.257004
70
192
0
VERTEX
8
OBJECT__7
10
-3.696000
20
-13.916000
30
108.065002
70
192
0
VERTEX
8
OBJECT__7
10
-2.407000
20
-15.515000
30
108.972000
70
192
0
VERTEX
8
OBJECT__7
10
-3.897000
20
-16.996000
30
100.591003
70
192
0
VERTEX
8
OBJECT__7
10
0.153000
20
-17.820999
30
110.676003
70
192
0
VERTEX
8
OBJECT__7
10
-9.757000
20
0.033000
30
101.624001
70
192
0
VERTEX
8
OBJECT__7
10
-9.217000
20
-5.437000
30
101.528999
70
192
0
VERTEX
8
OBJECT__7
10
-8.573000
20
-4.312000
30
104.738998
70
192
0
VERTEX
8
OBJECT__7
10
-8.999000
20
-0.001000
30
104.584000
70
192
0
VERTEX
8
OBJECT__7
10
-8.255000
20
-8.988000
30
101.359001
70
192
0
VERTEX
8
OBJECT__7
10
-8.122000
20
-6.117000
30
104.998001
70
192
0
VERTEX
8
OBJECT__7
10
-6.862000
20
-9.147000
30
105.844002
70
192
0
VERTEX
8
OBJECT__7
10
-7.628000
20
-10.351000
30
101.248001
70
192
0
VERTEX
8
OBJECT__7
10
-6.474000
20
-10.080000
30
106.105003
70
192
0
VERTEX
8
OBJECT__7
10
-9.003000
20
0.033000
30
104.583000
70
192
0
VERTEX
8
OBJECT__7
10
0
20
0
30
0
70
128
71
1
72
2
73
3
0
VERTEX
8
OBJECT__7
10
0
20
0
30
0
70
128
71
3
72
4
73
1
0
VERTEX
8
OBJECT__7
10
0
20
0
30
0
70
128
71
1
72
5
73
2
0
VERTEX
8
OBJECT__7
10
0
20
0
30
0
70
128
71
1
72
6
73
5
0
VERTEX
8
OBJECT__7
10
0
20
0
30
0
70
128
71
7
72
8
73
9
0
VERTEX
8
OBJECT__7
10
0
20
0
30
0
70
128
71
7
72
10
73
11
0
VERTEX
8
OBJECT__7
10
0
20
0
30
0
70
128
71
11
72
8
73
7
0
VERTEX
8
OBJECT__7
10
0
20
0
30
0
70
128
71
12
72
1
73
13
0
VERTEX
8
OBJECT__7
10
0
20
0
30
0
70
128
71
13
72
7
73
12
0
VERTEX
8
OBJECT__7
10
0
20
0
30
0
70
128
71
1
72
14
73
15
0
VERTEX
8
OBJECT__7
10
0
20
0
30
0
70
128
71
1
72
12
73
14
0
VERTEX
8
OBJECT__7
10
0
20
0
30
0
70
128
71
15
72
16
73
1
0
VERTEX
8
OBJECT__7
10
0
20
0
30
0
70
128
71
17
72
18
73
19
0
VERTEX
8
OBJECT__7
10
0
20
0
30
0
70
128
71
19
72
20
73
17
0
VERTEX
8
OBJECT__7
10
0
20
0
30
0
70
128
71
17
72
21
73
18
0
VERTEX
8
OBJECT__7
10
0
20
0
30
0
70
128
71
6
72
1
73
22
0
VERTEX
8
OBJECT__7
10
0
20
0
30
0
70
128
71
22
72
18
73
6
0
VERTEX
8
OBJECT__7
10
0
20
0
30
0
70
128
71
23
72
24
73
25
0
VERTEX
8
OBJECT__7
10
0
20
0
30
0
70
128
71
26
72
24
73
23
0
VERTEX
8
OBJECT__7
10
0
20
0
30
0
70
128
71
27
72
26
73
28
0
VERTEX
8
OBJECT__7
10
0
20
0
30
0
70
128
71
28
72
20
73
27
0
VERTEX
8
OBJECT__7
10
0
20
0
30
0
70
128
71
20
72
19
73
29
0
VERTEX
8
OBJECT__7
10
0
20
0
30
0
70
128
71
29
72
27
73
20
0
VERTEX
8
OBJECT__7
10
0
20
0
30
0
70
128
71
23
72
28
73
26
0
VERTEX
8
OBJECT__7
10
0
20
0
30
0
70
128
71
30
72
31
73
32
0
VERTEX
8
OBJECT__7
10
0
20
0
30
0
70
128
71
32
72
33
73
30
0
VERTEX
8
OBJECT__7
10
0
20
0
30
0
70
128
71
31
72
34
73
35
0
VERTEX
8
OBJECT__7
10
0
20
0
30
0
70
128
71
35
72
32
73
31
0
VERTEX
8
OBJECT__7
10
0
20
0
30
0
70
128
71
36
72
35
73
34
0
VERTEX
8
OBJECT__7
10
0
20
0
30
0
70
128
71
37
72
38
73
36
0
VERTEX
8
OBJECT__7
10
0
20
0
30
0
70
128
71
37
72
25
73
38
0
VERTEX
8
OBJECT__7
10
0
20
0
30
0
70
128
71
34
72
37
73
36
0
VERTEX
8
OBJECT__7
10
0
20
0
30
0
70
128
71
33
72
39
73
30
0
VERTEX
8
OBJECT__7
10
0
20
0
30
0
70
128
71
25
72
37
73
23
0
VERTEX
8
OBJECT__7
10
0
20
0
30
0
70
128
71
21
72
6
73
18
0
VERTEX
8
OBJECT__7
10
0
20
0
30
0
70
128
71
16
72
22
73
1
0
VERTEX
8
OBJECT__7
10
0
20
0
30
0
70
128
71
9
72
12
73
7
0
VERTEX
8
OBJECT__7
10
0
20
0
30
0
70
128
71
4
72
13
73
1
0
SEQEND
8
OBJECT__7
0
POLYLINE
8
OBJECT__8
66
1
70
64
71
39
72
38
62
253
0
VERTEX
8
OBJECT__8
10
20.837000
20
27.002001
30
107.091003
70
192
0
VERTEX
8
OBJECT__8
10
17.111000
20
27.250000
30
96.886002
70
192
0
VERTEX
8
OBJECT__8
10
11.711000
20
26.698999
30
97.837997
70
192
0
VERTEX
8
OBJECT__8
10
11.585000
20
24.959999
30
111.997002
70
192
0
VERTEX
8
OBJECT__8
10
21.952999
20
26.737000
30
110.149002
70
192
0
VERTEX
8
OBJECT__8
10
-7.576000
20
10.405000
30
101.238998
70
192
0
VERTEX
8
OBJECT__8
10
-8.588000
20
7.955000
30
101.417999
70
192
0
VERTEX
8
OBJECT__8
10
-7.671000
20
7.598000
30
105.412003
70
192
0
VERTEX
8
OBJECT__8
10
-7.025000
20
9.093000
30
105.849998
70
192
0
VERTEX
8
OBJECT__8
10
-6.957000
20
9.249000
30
105.896004
70
192
0
VERTEX
8
OBJECT__8
10
-9.410000
20
4.368000
30
101.563004
70
192
0
VERTEX
8
OBJECT__8
10
-9.757000
20
0.033000
30
101.624001
70
192
0
VERTEX
8
OBJECT__8
10
-8.972000
20
1.262000
30
104.615997
70
192
0
VERTEX
8
OBJECT__8
10
-9.003000
20
0.033000
30
104.583000
70
192
0
VERTEX
8
OBJECT__8
10
-8.755000
20
3.447000
30
104.739998
70
192
0
VERTEX
8
OBJECT__8
10
-1.799000
20
19.223000
30
100.221001
70
192
0
VERTEX
8
OBJECT__8
10
1.065000
20
18.562000
30
111.319000
70
192
0
VERTEX
8
OBJECT__8
10
1.869000
20
19.136000
30
111.816002
70
192
0
VERTEX
8
OBJECT__8
10
-2.848000
20
15.120000
30
108.758003
70
192
0
VERTEX
8
OBJECT__8
10
-3.804000
20
13.991000
30
108.096001
70
192
0
VERTEX
8
OBJECT__8
10
-4.546000
20
16.135000
30
100.705002
70
192
0
VERTEX
8
OBJECT__8
10
-4.688000
20
12.946000
30
107.484001
70
192
0
VERTEX
8
OBJECT__8
10
-6.493000
20
13.024000
30
101.047997
70
192
0
VERTEX
8
OBJECT__8
10
-6.208000
20
10.469000
30
106.419998
70
192
0
VERTEX
8
OBJECT__8
10
6.844000
20
25.173000
30
98.696999
70
192
0
VERTEX
8
OBJECT__8
10
3.017000
20
19.787001
30
112.470001
70
192
0
VERTEX
8
OBJECT__8
10
4.419000
20
20.583000
30
113.269997
70
192
0
VERTEX
8
OBJECT__8
10
1.931000
20
22.493999
30
99.563004
70
192
0
VERTEX
8
OBJECT__8
10
-0.918000
20
20.214001
30
100.065002
70
192
0
VERTEX
8
OBJECT__8
10
2.052000
20
19.240000
30
111.919998
70
192
0
VERTEX
8
OBJECT__8
10
6.686000
20
25.122999
30
98.724998
70
192
0
VERTEX
8
OBJECT__8
10
7.202000
20
22.162001
30
114.856003
70
192
0
VERTEX
8
OBJECT__8
10
10.533000
20
23.374001
30
116.498001
70
192
0
VERTEX
8
OBJECT__8
10
13.145000
20
24.325001
30
117.786003
70
192
0
VERTEX
8
OBJECT__8
10
13.987000
20
24.475000
30
118.144997
70
192
0
VERTEX
8
OBJECT__8
10
23.061001
20
26.473000
30
113.185997
70
192
0
VERTEX
8
OBJECT__8
10
18.611000
20
25.302000
30
120.113998
70
192
0
VERTEX
8
OBJECT__8
10
20.219000
20
25.590000
30
120.799004
70
192
0
VERTEX
8
OBJECT__8
10
26.740000
20
25.600000
30
123.267998
70
192
0
VERTEX
8
OBJECT__8
10
0
20
0
30
0
70
128
71
1
72
2
73
3
0
VERTEX
8
OBJECT__8
10
0
20
0
30
0
70
128
71
3
72
4
73
1
0
VERTEX
8
OBJECT__8
10
0
20
0
30
0
70
128
71
4
72
5
73
1
0
VERTEX
8
OBJECT__8
10
0
20
0
30
0
70
128
71
6
72
7
73
8
0
VERTEX
8
OBJECT__8
10
0
20
0
30
0
70
128
71
8
72
9
73
6
0
VERTEX
8
OBJECT__8
10
0
20
0
30
0
70
128
71
9
72
10
73
6
0
VERTEX
8
OBJECT__8
10
0
20
0
30
0
70
128
71
8
72
7
73
11
0
VERTEX
8
OBJECT__8
10
0
20
0
30
0
70
128
71
11
72
12
73
13
0
VERTEX
8
OBJECT__8
10
0
20
0
30
0
70
128
71
12
72
14
73
13
0
VERTEX
8
OBJECT__8
10
0
20
0
30
0
70
128
71
13
72
15
73
11
0
VERTEX
8
OBJECT__8
10
0
20
0
30
0
70
128
71
11
72
15
73
8
0
VERTEX
8
OBJECT__8
10
0
20
0
30
0
70
128
71
16
72
17
73
18
0
VERTEX
8
OBJECT__8
10
0
20
0
30
0
70
128
71
16
72
19
73
17
0
VERTEX
8
OBJECT__8
10
0
20
0
30
0
70
128
71
20
72
16
73
21
0
VERTEX
8
OBJECT__8
10
0
20
0
30
0
70
128
71
21
72
22
73
20
0
VERTEX
8
OBJECT__8
10
0
20
0
30
0
70
128
71
20
72
19
73
16
0
VERTEX
8
OBJECT__8
10
0
20
0
30
0
70
128
71
23
72
6
73
24
0
VERTEX
8
OBJECT__8
10
0
20
0
30
0
70
128
71
22
72
21
73
23
0
VERTEX
8
OBJECT__8
10
0
20
0
30
0
70
128
71
24
72
22
73
23
0
VERTEX
8
OBJECT__8
10
0
20
0
30
0
70
128
71
25
72
26
73
27
0
VERTEX
8
OBJECT__8
10
0
20
0
30
0
70
128
71
28
72
29
73
30
0
VERTEX
8
OBJECT__8
10
0
20
0
30
0
70
128
71
30
72
26
73
28
0
VERTEX
8
OBJECT__8
10
0
20
0
30
0
70
128
71
26
72
25
73
31
0
VERTEX
8
OBJECT__8
10
0
20
0
30
0
70
128
71
31
72
28
73
26
0
VERTEX
8
OBJECT__8
10
0
20
0
30
0
70
128
71
29
72
16
73
30
0
VERTEX
8
OBJECT__8
10
0
20
0
30
0
70
128
71
4
72
32
73
33
0
VERTEX
8
OBJECT__8
10
0
20
0
30
0
70
128
71
4
72
27
73
32
0
VERTEX
8
OBJECT__8
10
0
20
0
30
0
70
128
71
33
72
34
73
4
0
VERTEX
8
OBJECT__8
10
0
20
0
30
0
70
128
71
4
72
35
73
36
0
VERTEX
8
OBJECT__8
10
0
20
0
30
0
70
128
71
36
72
37
73
38
0
VERTEX
8
OBJECT__8
10
0
20
0
30
0
70
128
71
36
72
35
73
37
0
VERTEX
8
OBJECT__8
10
0
20
0
30
0
70
128
71
38
72
39
73
36
0
VERTEX
8
OBJECT__8
10
0
20
0
30
0
70
128
71
36
72
5
73
4
0
VERTEX
8
OBJECT__8
10
0
20
0
30
0
70
128
71
34
72
35
73
4
0
VERTEX
8
OBJECT__8
10
0
20
0
30
0
70
128
71
27
72
4
73
25
0
VERTEX
8
OBJECT__8
10
0
20
0
30
0
70
128
71
18
72
30
73
16
0
VERTEX
8
OBJECT__8
10
0
20
0
30
0
70
128
71
10
72
24
73
6
0
VERTEX
8
OBJECT__8
10
0
20
0
30
0
70
128
71
3
72
25
73
4
0
SEQEND
8
OBJECT__8
0
POLYLINE
8
OBJECT__9
66
1
70
64
71
48
72
46
62
253
0
VERTEX
8
OBJECT__9
10
41.813000
20
10.362000
30
92.530998
70
192
0
VERTEX
8
OBJECT__9
10
33.816002
20
-21.299999
30
93.941002
70
192
0
VERTEX
8
OBJECT__9
10
30.834999
20
-23.398001
30
94.466003
70
192
0
VERTEX
8
OBJECT__9
10
43.251999
20
-6.019000
30
92.277000
70
192
0
VERTEX
8
OBJECT__9
10
42.237000
20
9.485000
30
92.456001
70
192
0
VERTEX
8
OBJECT__9
10
43.265999
20
5.955000
30
92.274002
70
192
0
VERTEX
8
OBJECT__9
10
22.434000
20
-26.702000
30
95.947998
70
192
0
VERTEX
8
OBJECT__9
10
-9.217000
20
-5.437000
30
101.528999
70
192
0
VERTEX
8
OBJECT__9
10
-9.757000
20
0.033000
30
101.624001
70
192
0
VERTEX
8
OBJECT__9
10
6.815000
20
-25.090000
30
98.702003
70
192
0
VERTEX
8
OBJECT__9
10
2.823000
20
-23.087000
30
99.405998
70
192
0
VERTEX
8
OBJECT__9
10
17.047001
20
-27.250000
30
96.898003
70
192
0
VERTEX
8
OBJECT__9
10
11.152000
20
-26.577000
30
97.936996
70
192
0
VERTEX
8
OBJECT__9
10
27.273001
20
-25.087999
30
95.094002
70
192
0
VERTEX
8
OBJECT__9
10
25.930000
20
-25.725000
30
95.331001
70
192
0
VERTEX
8
OBJECT__9
10
35.937000
20
-19.193001
30
93.567001
70
192
0
VERTEX
8
OBJECT__9
10
41.787998
20
-10.422000
30
92.535004
70
192
0
VERTEX
8
OBJECT__9
10
39.814999
20
-14.476000
30
92.883003
70
192
0
VERTEX
8
OBJECT__9
10
43.915001
20
-0.033000
30
92.160004
70
192
0
VERTEX
8
OBJECT__9
10
-8.255000
20
-8.988000
30
101.359001
70
192
0
VERTEX
8
OBJECT__9
10
-3.897000
20
-16.996000
30
100.591003
70
192
0
VERTEX
8
OBJECT__9
10
-5.963000
20
-13.968000
30
100.955002
70
192
0
VERTEX
8
OBJECT__9
10
-0.112000
20
-20.924999
30
99.922997
70
192
0
VERTEX
8
OBJECT__9
10
7.678000
20
-25.523001
30
98.550003
70
192
0
VERTEX
8
OBJECT__9
10
37.686001
20
-17.455999
30
93.258003
70
192
0
VERTEX
8
OBJECT__9
10
42.214001
20
-9.547000
30
92.459999
70
192
0
VERTEX
8
OBJECT__9
10
37.727001
20
17.406000
30
93.250999
70
192
0
VERTEX
8
OBJECT__9
10
39.849998
20
14.420000
30
92.876999
70
192
0
VERTEX
8
OBJECT__9
10
27.332001
20
25.063000
30
95.084000
70
192
0
VERTEX
8
OBJECT__9
10
30.889999
20
23.364000
30
94.457001
70
192
0
VERTEX
8
OBJECT__9
10
11.711000
20
26.698999
30
97.837997
70
192
0
VERTEX
8
OBJECT__9
10
17.111000
20
27.250000
30
96.886002
70
192
0
VERTEX
8
OBJECT__9
10
-9.410000
20
4.368000
30
101.563004
70
192
0
VERTEX
8
OBJECT__9
10
-8.588000
20
7.955000
30
101.417999
70
192
0
VERTEX
8
OBJECT__9
10
-7.628000
20
-10.351000
30
101.248001
70
192
0
VERTEX
8
OBJECT__9
10
-1.823000
20
-19.149000
30
100.224998
70
192
0
VERTEX
8
OBJECT__9
10
35.983002
20
19.146999
30
93.558998
70
192
0
VERTEX
8
OBJECT__9
10
33.867001
20
21.259001
30
93.931999
70
192
0
VERTEX
8
OBJECT__9
10
6.844000
20
25.173000
30
98.696999
70
192
0
VERTEX
8
OBJECT__9
10
1.931000
20
22.493999
30
99.563004
70
192
0
VERTEX
8
OBJECT__9
10
6.686000
20
25.122999
30
98.724998
70
192
0
VERTEX
8
OBJECT__9
10
-6.493000
20
13.024000
30
101.047997
70
192
0
VERTEX
8
OBJECT__9
10
-4.546000
20
16.135000
30
100.705002
70
192
0
VERTEX
8
OBJECT__9
10
22.497000
20
26.688999
30
95.936996
70
192
0
VERTEX
8
OBJECT__9
10
-0.918000
20
20.214001
30
100.065002
70
192
0
VERTEX
8
OBJECT__9
10
-7.576000
20
10.405000
30
101.238998
70
192
0
VERTEX
8
OBJECT__9
10
25.990999
20
25.702999
30
95.320000
70
192
0
VERTEX
8
OBJECT__9
10
-1.799000
20
19.223000
30
100.221001
70
192
0
VERTEX
8
OBJECT__9
10
0
20
0
30
0
70
128
71
1
72
2
73
3
0
VERTEX
8
OBJECT__9
10
0
20
0
30
0
70
128
71
4
72
5
73
6
0
VERTEX
8
OBJECT__9
10
0
20
0
30
0
70
128
71
7
72
8
73
9
0
VERTEX
8
OBJECT__9
10
0
20
0
30
0
70
128
71
7
72
10
73
11
0
VERTEX
8
OBJECT__9
10
0
20
0
30
0
70
128
71
7
72
12
73
13
0
VERTEX
8
OBJECT__9
10
0
20
0
30
0
70
128
71
1
72
14
73
15
0
VERTEX
8
OBJECT__9
10
0
20
0
30
0
70
128
71
1
72
16
73
2
0
VERTEX
8
OBJECT__9
10
0
20
0
30
0
70
128
71
1
72
17
73
18
0
VERTEX
8
OBJECT__9
10
0
20
0
30
0
70
128
71
6
72
19
73
4
0
VERTEX
8
OBJECT__9
10
0
20
0
30
0
70
128
71
7
72
20
73
8
0
VERTEX
8
OBJECT__9
10
0
20
0
30
0
70
128
71
7
72
21
73
22
0
VERTEX
8
OBJECT__9
10
0
20
0
30
0
70
128
71
11
72
23
73
7
0
VERTEX
8
OBJECT__9
10
0
20
0
30
0
70
128
71
13
72
24
73
7
0
VERTEX
8
OBJECT__9
10
0
20
0
30
0
70
128
71
3
72
14
73
1
0
VERTEX
8
OBJECT__9
10
0
20
0
30
0
70
128
71
18
72
25
73
1
0
VERTEX
8
OBJECT__9
10
0
20
0
30
0
70
128
71
26
72
1
73
5
0
VERTEX
8
OBJECT__9
10
0
20
0
30
0
70
128
71
7
72
27
73
28
0
VERTEX
8
OBJECT__9
10
0
20
0
30
0
70
128
71
7
72
29
73
30
0
VERTEX
8
OBJECT__9
10
0
20
0
30
0
70
128
71
7
72
31
73
32
0
VERTEX
8
OBJECT__9
10
0
20
0
30
0
70
128
71
7
72
33
73
34
0
VERTEX
8
OBJECT__9
10
0
20
0
30
0
70
128
71
7
72
35
73
20
0
VERTEX
8
OBJECT__9
10
0
20
0
30
0
70
128
71
7
72
36
73
21
0
VERTEX
8
OBJECT__9
10
0
20
0
30
0
70
128
71
24
72
10
73
7
0
VERTEX
8
OBJECT__9
10
0
20
0
30
0
70
128
71
25
72
16
73
1
0
VERTEX
8
OBJECT__9
10
0
20
0
30
0
70
128
71
4
72
26
73
5
0
VERTEX
8
OBJECT__9
10
0
20
0
30
0
70
128
71
7
72
37
73
27
0
VERTEX
8
OBJECT__9
10
0
20
0
30
0
70
128
71
30
72
38
73
7
0
VERTEX
8
OBJECT__9
10
0
20
0
30
0
70
128
71
7
72
39
73
31
0
VERTEX
8
OBJECT__9
10
0
20
0
30
0
70
128
71
7
72
40
73
41
0
VERTEX
8
OBJECT__9
10
0
20
0
30
0
70
128
71
7
72
42
73
43
0
VERTEX
8
OBJECT__9
10
0
20
0
30
0
70
128
71
9
72
33
73
7
0
VERTEX
8
OBJECT__9
10
0
20
0
30
0
70
128
71
23
72
36
73
7
0
VERTEX
8
OBJECT__9
10
0
20
0
30
0
70
128
71
26
72
17
73
1
0
VERTEX
8
OBJECT__9
10
0
20
0
30
0
70
128
71
38
72
37
73
7
0
VERTEX
8
OBJECT__9
10
0
20
0
30
0
70
128
71
32
72
44
73
7
0
VERTEX
8
OBJECT__9
10
0
20
0
30
0
70
128
71
7
72
45
73
40
0
VERTEX
8
OBJECT__9
10
0
20
0
30
0
70
128
71
7
72
46
73
42
0
VERTEX
8
OBJECT__9
10
0
20
0
30
0
70
128
71
22
72
35
73
7
0
VERTEX
8
OBJECT__9
10
0
20
0
30
0
70
128
71
28
72
1
73
7
0
VERTEX
8
OBJECT__9
10
0
20
0
30
0
70
128
71
44
72
47
73
7
0
VERTEX
8
OBJECT__9
10
0
20
0
30
0
70
128
71
7
72
48
73
45
0
VERTEX
8
OBJECT__9
10
0
20
0
30
0
70
128
71
34
72
46
73
7
0
VERTEX
8
OBJECT__9
10
0
20
0
30
0
70
128
71
47
72
29
73
7
0
VERTEX
8
OBJECT__9
10
0
20
0
30
0
70
128
71
43
72
48
73
7
0
VERTEX
8
OBJECT__9
10
0
20
0
30
0
70
128
71
41
72
39
73
7
0
VERTEX
8
OBJECT__9
10
0
20
0
30
0
70
128
71
15
72
7
73
1
0
SEQEND
8
OBJECT__9
0
POLYLINE
8
OBJECT__10
66
1
70
64
71
22
72
22
62
253
0
VERTEX
8
OBJECT__10
10
112.072998
20
-9.927000
30
52.703999
70
192
0
VERTEX
8
OBJECT__10
10
107.949997
20
-9.927000
30
59.435001
70
192
0
VERTEX
8
OBJECT__10
10
102.510002
20
-11.800000
30
56.103001
70
192
0
VERTEX
8
OBJECT__10
10
111.663002
20
-4.902000
30
61.709999
70
192
0
VERTEX
8
OBJECT__10
10
116.593002
20
1.679000
30
55.473000
70
192
0
VERTEX
8
OBJECT__10
10
112.470001
20
1.679000
30
62.203999
70
192
0
VERTEX
8
OBJECT__10
10
110.114998
20
7.727000
30
60.761002
70
192
0
VERTEX
8
OBJECT__10
10
105.345001
20
11.322000
30
57.840000
70
192
0
VERTEX
8
OBJECT__10
10
114.237999
20
7.727000
30
54.029999
70
192
0
VERTEX
8
OBJECT__10
10
103.799004
20
11.322000
30
47.634998
70
192
0
VERTEX
8
OBJECT__10
10
99.675003
20
11.322000
30
54.367001
70
192
0
VERTEX
8
OBJECT__10
10
94.905998
20
7.727000
30
51.445000
70
192
0
VERTEX
8
OBJECT__10
10
92.550003
20
1.679000
30
50.001999
70
192
0
VERTEX
8
OBJECT__10
10
99.028999
20
7.727000
30
44.714001
70
192
0
VERTEX
8
OBJECT__10
10
97.480003
20
-4.902000
30
43.764999
70
192
0
VERTEX
8
OBJECT__10
10
93.357002
20
-4.902000
30
50.495998
70
192
0
VERTEX
8
OBJECT__10
10
101.193001
20
-9.927000
30
46.039001
70
192
0
VERTEX
8
OBJECT__10
10
97.070000
20
-9.927000
30
52.771000
70
192
0
VERTEX
8
OBJECT__10
10
106.633003
20
-11.800000
30
49.372002
70
192
0
VERTEX
8
OBJECT__10
10
96.674004
20
1.679000
30
43.271000
70
192
0
VERTEX
8
OBJECT__10
10
109.468002
20
11.322000
30
51.108002
70
192
0
VERTEX
8
OBJECT__10
10
115.786003
20
-4.902000
30
54.979000
70
192
0
VERTEX
8
OBJECT__10
10
0
20
0
30
0
70
128
71
1
72
2
73
3
0
VERTEX
8
OBJECT__10
10
0
20
0
30
0
70
128
71
4
72
2
73
1
0
VERTEX
8
OBJECT__10
10
0
20
0
30
0
70
128
71
5
72
6
73
4
0
VERTEX
8
OBJECT__10
10
0
20
0
30
0
70
128
71
7
72
6
73
5
0
VERTEX
8
OBJECT__10
10
0
20
0
30
0
70
128
71
8
72
7
73
9
0
VERTEX
8
OBJECT__10
10
0
20
0
30
0
70
128
71
10
72
11
73
8
0
VERTEX
8
OBJECT__10
10
0
20
0
30
0
70
128
71
12
72
11
73
10
0
VERTEX
8
OBJECT__10
10
0
20
0
30
0
70
128
71
13
72
12
73
14
0
VERTEX
8
OBJECT__10
10
0
20
0
30
0
70
128
71
15
72
16
73
13
0
VERTEX
8
OBJECT__10
10
0
20
0
30
0
70
128
71
17
72
18
73
16
0
VERTEX
8
OBJECT__10
10
0
20
0
30
0
70
128
71
19
72
3
73
18
0
VERTEX
8
OBJECT__10
10
0
20
0
30
0
70
128
71
18
72
17
73
19
0
VERTEX
8
OBJECT__10
10
0
20
0
30
0
70
128
71
16
72
15
73
17
0
VERTEX
8
OBJECT__10
10
0
20
0
30
0
70
128
71
13
72
20
73
15
0
VERTEX
8
OBJECT__10
10
0
20
0
30
0
70
128
71
14
72
20
73
13
0
VERTEX
8
OBJECT__10
10
0
20
0
30
0
70
128
71
10
72
14
73
12
0
VERTEX
8
OBJECT__10
10
0
20
0
30
0
70
128
71
8
72
21
73
10
0
VERTEX
8
OBJECT__10
10
0
20
0
30
0
70
128
71
9
72
21
73
8
0
VERTEX
8
OBJECT__10
10
0
20
0
30
0
70
128
71
5
72
9
73
7
0
VERTEX
8
OBJECT__10
10
0
20
0
30
0
70
128
71
4
72
22
73
5
0
VERTEX
8
OBJECT__10
10
0
20
0
30
0
70
128
71
1
72
22
73
4
0
VERTEX
8
OBJECT__10
10
0
20
0
30
0
70
128
71
3
72
19
73
1
0
SEQEND
8
OBJECT__10
0
POLYLINE
8
OBJECT__11
66
1
70
64
71
22
72
22
62
253
0
VERTEX
8
OBJECT__11
10
106.633003
20
-11.800000
30
49.372002
70
192
0
VERTEX
8
OBJECT__11
10
106.949997
20
-10.750000
30
48.855000
70
192
0
VERTEX
8
OBJECT__11
10
111.905998
20
-9.043000
30
51.890999
70
192
0
VERTEX
8
OBJECT__11
10
112.072998
20
-9.927000
30
52.703999
70
192
0
VERTEX
8
OBJECT__11
10
115.289001
20
-4.466000
30
53.963001
70
192
0
VERTEX
8
OBJECT__11
10
115.786003
20
-4.902000
30
54.979000
70
192
0
VERTEX
8
OBJECT__11
10
116.024002
20
1.530000
30
54.412998
70
192
0
VERTEX
8
OBJECT__11
10
114.237999
20
7.727000
30
54.029999
70
192
0
VERTEX
8
OBJECT__11
10
116.593002
20
1.679000
30
55.473000
70
192
0
VERTEX
8
OBJECT__11
10
109.468002
20
11.322000
30
51.108002
70
192
0
VERTEX
8
OBJECT__11
10
113.877998
20
7.040000
30
53.098999
70
192
0
VERTEX
8
OBJECT__11
10
103.799004
20
11.322000
30
47.634998
70
192
0
VERTEX
8
OBJECT__11
10
109.532997
20
10.315000
30
50.437000
70
192
0
VERTEX
8
OBJECT__11
10
99.028999
20
7.727000
30
44.714001
70
192
0
VERTEX
8
OBJECT__11
10
104.366997
20
10.315000
30
47.272999
70
192
0
VERTEX
8
OBJECT__11
10
96.674004
20
1.679000
30
43.271000
70
192
0
VERTEX
8
OBJECT__11
10
100.022003
20
7.040000
30
44.611000
70
192
0
VERTEX
8
OBJECT__11
10
97.480003
20
-4.902000
30
43.764999
70
192
0
VERTEX
8
OBJECT__11
10
97.875999
20
1.530000
30
43.297001
70
192
0
VERTEX
8
OBJECT__11
10
98.612000
20
-4.466000
30
43.747002
70
192
0
VERTEX
8
OBJECT__11
10
101.994003
20
-9.043000
30
45.819000
70
192
0
VERTEX
8
OBJECT__11
10
101.193001
20
-9.927000
30
46.039001
70
192
0
VERTEX
8
OBJECT__11
10
0
20
0
30
0
70
128
71
1
72
2
73
3
0
VERTEX
8
OBJECT__11
10
0
20
0
30
0
70
128
71
4
72
3
73
5
0
VERTEX
8
OBJECT__11
10
0
20
0
30
0
70
128
71
6
72
5
73
7
0
VERTEX
8
OBJECT__11
10
0
20
0
30
0
70
128
71
8
72
9
73
7
0
VERTEX
8
OBJECT__11
10
0
20
0
30
0
70
128
71
10
72
8
73
11
0
VERTEX
8
OBJECT__11
10
0
20
0
30
0
70
128
71
12
72
10
73
13
0
VERTEX
8
OBJECT__11
10
0
20
0
30
0
70
128
71
14
72
12
73
15
0
VERTEX
8
OBJECT__11
10
0
20
0
30
0
70
128
71
16
72
14
73
17
0
VERTEX
8
OBJECT__11
10
0
20
0
30
0
70
128
71
18
72
16
73
19
0
VERTEX
8
OBJECT__11
10
0
20
0
30
0
70
128
71
18
72
20
73
21
0
VERTEX
8
OBJECT__11
10
0
20
0
30
0
70
128
71
22
72
21
73
2
0
VERTEX
8
OBJECT__11
10
0
20
0
30
0
70
128
71
2
72
1
73
22
0
VERTEX
8
OBJECT__11
10
0
20
0
30
0
70
128
71
21
72
22
73
18
0
VERTEX
8
OBJECT__11
10
0
20
0
30
0
70
128
71
19
72
20
73
18
0
VERTEX
8
OBJECT__11
10
0
20
0
30
0
70
128
71
17
72
19
73
16
0
VERTEX
8
OBJECT__11
10
0
20
0
30
0
70
128
71
15
72
17
73
14
0
VERTEX
8
OBJECT__11
10
0
20
0
30
0
70
128
71
13
72
15
73
12
0
VERTEX
8
OBJECT__11
10
0
20
0
30
0
70
128
71
11
72
13
73
10
0
VERTEX
8
OBJECT__11
10
0
20
0
30
0
70
128
71
7
72
11
73
8
0
VERTEX
8
OBJECT__11
10
0
20
0
30
0
70
128
71
7
72
9
73
6
0
VERTEX
8
OBJECT__11
10
0
20
0
30
0
70
128
71
5
72
6
73
4
0
VERTEX
8
OBJECT__11
10
0
20
0
30
0
70
128
71
3
72
4
73
1
0
SEQEND
8
OBJECT__11
0
POLYLINE
8
OBJECT__13
66
1
70
64
71
11
72
9
62
253
0
VERTEX
8
OBJECT__13
10
116.024002
20
1.530000
30
54.412998
70
192
0
VERTEX
8
OBJECT__13
10
104.366997
20
10.315000
30
47.272999
70
192
0
VERTEX
8
OBJECT__13
10
109.532997
20
10.315000
30
50.437000
70
192
0
VERTEX
8
OBJECT__13
10
111.905998
20
-9.043000
30
51.890999
70
192
0
VERTEX
8
OBJECT__13
10
98.612000
20
-4.466000
30
43.747002
70
192
0
VERTEX
8
OBJECT__13
10
97.875999
20
1.530000
30
43.297001
70
192
0
VERTEX
8
OBJECT__13
10
106.949997
20
-10.750000
30
48.855000
70
192
0
VERTEX
8
OBJECT__13
10
100.022003
20
7.040000
30
44.611000
70
192
0
VERTEX
8
OBJECT__13
10
115.289001
20
-4.466000
30
53.963001
70
192
0
VERTEX
8
OBJECT__13
10
101.994003
20
-9.043000
30
45.819000
70
192
0
VERTEX
8
OBJECT__13
10
113.877998
20
7.040000
30
53.098999
70
192
0
VERTEX
8
OBJECT__13
10
0
20
0
30
0
70
128
71
1
72
2
73
3
0
VERTEX
8
OBJECT__13
10
0
20
0
30
0
70
128
71
4
72
5
73
6
0
VERTEX
8
OBJECT__13
10
0
20
0
30
0
70
128
71
5
72
4
73
7
0
VERTEX
8
OBJECT__13
10
0
20
0
30
0
70
128
71
8
72
1
73
9
0
VERTEX
8
OBJECT__13
10
0
20
0
30
0
70
128
71
1
72
8
73
2
0
VERTEX
8
OBJECT__13
10
0
20
0
30
0
70
128
71
7
72
10
73
5
0
VERTEX
8
OBJECT__13
10
0
20
0
30
0
70
128
71
3
72
11
73
1
0
VERTEX
8
OBJECT__13
10
0
20
0
30
0
70
128
71
9
72
4
73
8
0
VERTEX
8
OBJECT__13
10
0
20
0
30
0
70
128
71
6
72
8
73
4
0
SEQEND
8
OBJECT__13
0
POLYLINE
8
OBJECT__14
66
1
70
64
71
62
72
60
62
253
0
VERTEX
8
OBJECT__14
10
-8.242000
20
23.596001
30
0.000000
70
192
0
VERTEX
8
OBJECT__14
10
-7.439000
20
23.902000
30
0.000000
70
192
0
VERTEX
8
OBJECT__14
10
-3.500000
20
24.761000
30
0.000000
70
192
0
VERTEX
8
OBJECT__14
10
3.081000
20
24.815001
30
0.000000
70
192
0
VERTEX
8
OBJECT__14
10
-14.451000
20
20.552999
30
0.001000
70
192
0
VERTEX
8
OBJECT__14
10
-10.885000
20
22.586000
30
0.000000
70
192
0
VERTEX
8
OBJECT__14
10
8.203000
20
-23.615999
30
0.000000
70
192
0
VERTEX
8
OBJECT__14
10
4.120000
20
-24.667999
30
0.000000
70
192
0
VERTEX
8
OBJECT__14
10
0.623000
20
-24.993000
30
0.000000
70
192
0
VERTEX
8
OBJECT__14
10
0.029000
20
-24.964001
30
0.000000
70
192
0
VERTEX
8
OBJECT__14
10
24.563000
20
6.311000
30
0.000000
70
192
0
VERTEX
8
OBJECT__14
10
25.259001
20
2.489000
30
0.000000
70
192
0
VERTEX
8
OBJECT__14
10
18.653999
20
16.878000
30
0.000000
70
192
0
VERTEX
8
OBJECT__14
10
19.316999
20
16.221001
30
0.000000
70
192
0
VERTEX
8
OBJECT__14
10
-0.030000
20
25.000999
30
0.000000
70
192
0
VERTEX
8
OBJECT__14
10
-15.575000
20
19.663000
30
0.000000
70
192
0
VERTEX
8
OBJECT__14
10
-21.202999
20
13.618000
30
0.000000
70
192
0
VERTEX
8
OBJECT__14
10
-19.826000
20
15.613000
30
0.000000
70
192
0
VERTEX
8
OBJECT__14
10
-24.568001
20
-6.293000
30
0.000000
70
192
0
VERTEX
8
OBJECT__14
10
-25.261999
20
-2.460000
30
0.000000
70
192
0
VERTEX
8
OBJECT__14
10
-10.210000
20
-22.889000
30
0.000000
70
192
0
VERTEX
8
OBJECT__14
10
-13.498000
20
-21.172001
30
0.001000
70
192
0
VERTEX
8
OBJECT__14
10
7.657000
20
-23.836000
30
0.000000
70
192
0
VERTEX
8
OBJECT__14
10
14.925000
20
-20.222000
30
-0.001000
70
192
0
VERTEX
8
OBJECT__14
10
11.493000
20
-22.291000
30
0.000000
70
192
0
VERTEX
8
OBJECT__14
10
23.412001
20
9.668000
30
0.000000
70
192
0
VERTEX
8
OBJECT__14
10
21.700001
20
12.972000
30
0.000000
70
192
0
VERTEX
8
OBJECT__14
10
15.402000
20
19.784000
30
0.000000
70
192
0
VERTEX
8
OBJECT__14
10
16.621000
20
18.896999
30
0.000000
70
192
0
VERTEX
8
OBJECT__14
10
-17.299999
20
18.296000
30
0.000000
70
192
0
VERTEX
8
OBJECT__14
10
-24.556000
20
6.102000
30
0.000000
70
192
0
VERTEX
8
OBJECT__14
10
-23.690001
20
8.985000
30
0.000000
70
192
0
VERTEX
8
OBJECT__14
10
-25.350000
20
1.327000
30
0.000000
70
192
0
VERTEX
8
OBJECT__14
10
-24.837999
20
5.161000
30
0.000000
70
192
0
VERTEX
8
OBJECT__14
10
-23.410999
20
-9.668000
30
0.000000
70
192
0
VERTEX
8
OBJECT__14
10
-15.502000
20
-19.711000
30
0.000000
70
192
0
VERTEX
8
OBJECT__14
10
-16.631001
20
-18.888000
30
0.000000
70
192
0
VERTEX
8
OBJECT__14
10
-8.193000
20
-23.594999
30
0.000000
70
192
0
VERTEX
8
OBJECT__14
10
-3.094000
20
-24.813000
30
0.000000
70
192
0
VERTEX
8
OBJECT__14
10
0.037000
20
-24.965000
30
0.000000
70
192
0
VERTEX
8
OBJECT__14
10
15.551000
20
-19.702000
30
0.000000
70
192
0
VERTEX
8
OBJECT__14
10
21.177999
20
-13.654000
30
0.000000
70
192
0
VERTEX
8
OBJECT__14
10
20.191000
20
-15.152000
30
0.000000
70
192
0
VERTEX
8
OBJECT__14
10
24.539000
20
-6.142000
30
0.000000
70
192
0
VERTEX
8
OBJECT__14
10
23.879999
20
-8.482000
30
0.000000
70
192
0
VERTEX
8
OBJECT__14
10
25.364000
20
-1.040000
30
0.000000
70
192
0
VERTEX
8
OBJECT__14
10
24.903000
20
-4.846000
30
0.000000
70
192
0
VERTEX
8
OBJECT__14
10
23.237000
20
10.005000
30
0.000000
70
192
0
VERTEX
8
OBJECT__14
10
10.196000
20
22.896000
30
0.000000
70
192
0
VERTEX
8
OBJECT__14
10
13.484000
20
21.181000
30
-0.001000
70
192
0
VERTEX
8
OBJECT__14
10
-22.037001
20
12.409000
30
0.000000
70
192
0
VERTEX
8
OBJECT__14
10
-25.271000
20
-2.079000
30
0.000000
70
192
0
VERTEX
8
OBJECT__14
10
-23.218000
20
-10.042000
30
0.000000
70
192
0
VERTEX
8
OBJECT__14
10
-18.625000
20
-16.907000
30
0.000000
70
192
0
VERTEX
8
OBJECT__14
10
-19.326000
20
-16.209999
30
0.000000
70
192
0
VERTEX
8
OBJECT__14
10
-6.755000
20
-24.098000
30
0.000000
70
192
0
VERTEX
8
OBJECT__14
10
17.719999
20
-17.903000
30
0.000000
70
192
0
VERTEX
8
OBJECT__14
10
22.283001
20
-11.975000
30
0.000000
70
192
0
VERTEX
8
OBJECT__14
10
25.273001
20
2.038000
30
0.000000
70
192
0
VERTEX
8
OBJECT__14
10
8.074000
20
23.636999
30
0.000000
70
192
0
VERTEX
8
OBJECT__14
10
-21.707001
20
-12.960000
30
0.000000
70
192
0
VERTEX
8
OBJECT__14
10
6.742000
20
24.101999
30
0.000000
70
192
0
VERTEX
8
OBJECT__14
10
0
20
0
30
0
70
128
71
1
72
2
73
3
0
VERTEX
8
OBJECT__14
10
0
20
0
30
0
70
128
71
4
72
5
73
6
0
VERTEX
8
OBJECT__14
10
0
20
0
30
0
70
128
71
7
72
8
73
9
0
VERTEX
8
OBJECT__14
10
0
20
0
30
0
70
128
71
10
72
11
73
12
0
VERTEX
8
OBJECT__14
10
0
20
0
30
0
70
128
71
10
72
13
73
14
0
VERTEX
8
OBJECT__14
10
0
20
0
30
0
70
128
71
3
72
15
73
1
0
VERTEX
8
OBJECT__14
10
0
20
0
30
0
70
128
71
4
72
16
73
5
0
VERTEX
8
OBJECT__14
10
0
20
0
30
0
70
128
71
4
72
17
73
18
0
VERTEX
8
OBJECT__14
10
0
20
0
30
0
70
128
71
4
72
19
73
20
0
VERTEX
8
OBJECT__14
10
0
20
0
30
0
70
128
71
4
72
21
73
22
0
VERTEX
8
OBJECT__14
10
0
20
0
30
0
70
128
71
7
72
23
73
8
0
VERTEX
8
OBJECT__14
10
0
20
0
30
0
70
128
71
10
72
24
73
25
0
VERTEX
8
OBJECT__14
10
0
20
0
30
0
70
128
71
10
72
26
73
11
0
VERTEX
8
OBJECT__14
10
0
20
0
30
0
70
128
71
14
72
27
73
10
0
VERTEX
8
OBJECT__14
10
0
20
0
30
0
70
128
71
10
72
28
73
29
0
VERTEX
8
OBJECT__14
10
0
20
0
30
0
70
128
71
6
72
1
73
4
0
VERTEX
8
OBJECT__14
10
0
20
0
30
0
70
128
71
18
72
30
73
4
0
VERTEX
8
OBJECT__14
10
0
20
0
30
0
70
128
71
4
72
31
73
32
0
VERTEX
8
OBJECT__14
10
0
20
0
30
0
70
128
71
4
72
33
73
34
0
VERTEX
8
OBJECT__14
10
0
20
0
30
0
70
128
71
4
72
35
73
19
0
VERTEX
8
OBJECT__14
10
0
20
0
30
0
70
128
71
4
72
36
73
37
0
VERTEX
8
OBJECT__14
10
0
20
0
30
0
70
128
71
4
72
38
73
21
0
VERTEX
8
OBJECT__14
10
0
20
0
30
0
70
128
71
4
72
10
73
39
0
VERTEX
8
OBJECT__14
10
0
20
0
30
0
70
128
71
9
72
40
73
7
0
VERTEX
8
OBJECT__14
10
0
20
0
30
0
70
128
71
10
72
41
73
24
0
VERTEX
8
OBJECT__14
10
0
20
0
30
0
70
128
71
10
72
42
73
43
0
VERTEX
8
OBJECT__14
10
0
20
0
30
0
70
128
71
10
72
44
73
45
0
VERTEX
8
OBJECT__14
10
0
20
0
30
0
70
128
71
10
72
46
73
47
0
VERTEX
8
OBJECT__14
10
0
20
0
30
0
70
128
71
10
72
48
73
26
0
VERTEX
8
OBJECT__14
10
0
20
0
30
0
70
128
71
29
72
13
73
10
0
VERTEX
8
OBJECT__14
10
0
20
0
30
0
70
128
71
10
72
49
73
50
0
VERTEX
8
OBJECT__14
10
0
20
0
30
0
70
128
71
30
72
16
73
4
0
VERTEX
8
OBJECT__14
10
0
20
0
30
0
70
128
71
32
72
51
73
4
0
VERTEX
8
OBJECT__14
10
0
20
0
30
0
70
128
71
4
72
52
73
33
0
VERTEX
8
OBJECT__14
10
0
20
0
30
0
70
128
71
4
72
53
73
35
0
VERTEX
8
OBJECT__14
10
0
20
0
30
0
70
128
71
4
72
54
73
55
0
VERTEX
8
OBJECT__14
10
0
20
0
30
0
70
128
71
22
72
36
73
4
0
VERTEX
8
OBJECT__14
10
0
20
0
30
0
70
128
71
39
72
56
73
4
0
VERTEX
8
OBJECT__14
10
0
20
0
30
0
70
128
71
25
72
7
73
10
0
VERTEX
8
OBJECT__14
10
0
20
0
30
0
70
128
71
43
72
57
73
10
0
VERTEX
8
OBJECT__14
10
0
20
0
30
0
70
128
71
45
72
58
73
10
0
VERTEX
8
OBJECT__14
10
0
20
0
30
0
70
128
71
10
72
59
73
46
0
VERTEX
8
OBJECT__14
10
0
20
0
30
0
70
128
71
27
72
48
73
10
0
VERTEX
8
OBJECT__14
10
0
20
0
30
0
70
128
71
10
72
60
73
49
0
VERTEX
8
OBJECT__14
10
0
20
0
30
0
70
128
71
51
72
17
73
4
0
VERTEX
8
OBJECT__14
10
0
20
0
30
0
70
128
71
20
72
52
73
4
0
VERTEX
8
OBJECT__14
10
0
20
0
30
0
70
128
71
55
72
61
73
4
0
VERTEX
8
OBJECT__14
10
0
20
0
30
0
70
128
71
56
72
38
73
4
0
VERTEX
8
OBJECT__14
10
0
20
0
30
0
70
128
71
57
72
41
73
10
0
VERTEX
8
OBJECT__14
10
0
20
0
30
0
70
128
71
47
72
44
73
10
0
VERTEX
8
OBJECT__14
10
0
20
0
30
0
70
128
71
50
72
28
73
10
0
VERTEX
8
OBJECT__14
10
0
20
0
30
0
70
128
71
10
72
4
73
62
0
VERTEX
8
OBJECT__14
10
0
20
0
30
0
70
128
71
34
72
31
73
4
0
VERTEX
8
OBJECT__14
10
0
20
0
30
0
70
128
71
37
72
54
73
4
0
VERTEX
8
OBJECT__14
10
0
20
0
30
0
70
128
71
58
72
42
73
10
0
VERTEX
8
OBJECT__14
10
0
20
0
30
0
70
128
71
62
72
60
73
10
0
VERTEX
8
OBJECT__14
10
0
20
0
30
0
70
128
71
61
72
53
73
4
0
VERTEX
8
OBJECT__14
10
0
20
0
30
0
70
128
71
12
72
59
73
10
0
VERTEX
8
OBJECT__14
10
0
20
0
30
0
70
128
71
40
72
10
73
7
0
VERTEX
8
OBJECT__14
10
0
20
0
30
0
70
128
71
15
72
4
73
1
0
SEQEND
8
OBJECT__14
0
POLYLINE
8
OBJECT__15
66
1
70
64
71
190
72
192
62
253
0
VERTEX
8
OBJECT__15
10
25.042000
20
23.695000
30
96.106003
70
192
0
VERTEX
8
OBJECT__15
10
24.709000
20
22.958000
30
83.129997
70
192
0
VERTEX
8
OBJECT__15
10
23.940001
20
23.215000
30
82.787003
70
192
0
VERTEX
8
OBJECT__15
10
27.704000
20
21.521999
30
84.120003
70
192
0
VERTEX
8
OBJECT__15
10
25.146999
20
23.659000
30
96.087997
70
192
0
VERTEX
8
OBJECT__15
10
28.041000
20
21.360001
30
84.231003
70
192
0
VERTEX
8
OBJECT__15
10
32.168999
20
19.841000
30
94.849998
70
192
0
VERTEX
8
OBJECT__15
10
30.378000
20
19.797001
30
84.876999
70
192
0
VERTEX
8
OBJECT__15
10
25.160999
20
-23.653999
30
96.084999
70
192
0
VERTEX
8
OBJECT__15
10
30.285000
20
-19.933001
30
84.862000
70
192
0
VERTEX
8
OBJECT__15
10
30.554001
20
-19.733000
30
84.932999
70
192
0
VERTEX
8
OBJECT__15
10
27.077000
20
-21.882000
30
83.939003
70
192
0
VERTEX
8
OBJECT__15
10
27.695999
20
-21.506001
30
84.116997
70
192
0
VERTEX
8
OBJECT__15
10
23.837000
20
-23.285999
30
82.783997
70
192
0
VERTEX
8
OBJECT__15
10
23.937000
20
-23.243000
30
82.820000
70
192
0
VERTEX
8
OBJECT__15
10
22.707001
20
-23.624001
30
82.222000
70
192
0
VERTEX
8
OBJECT__15
10
37.787998
20
-13.693000
30
93.859001
70
192
0
VERTEX
8
OBJECT__15
10
32.300999
20
-19.737000
30
94.825996
70
192
0
VERTEX
8
OBJECT__15
10
34.993999
20
-15.539000
30
86.209000
70
192
0
VERTEX
8
OBJECT__15
10
34.007999
20
-16.733000
30
85.897003
70
192
0
VERTEX
8
OBJECT__15
10
31.246000
20
-19.218000
30
85.117996
70
192
0
VERTEX
8
OBJECT__15
10
38.389000
20
-10.604000
30
87.333000
70
192
0
VERTEX
8
OBJECT__15
10
39.750999
20
-7.349000
30
87.829002
70
192
0
VERTEX
8
OBJECT__15
10
36.550999
20
-13.655000
30
86.700996
70
192
0
VERTEX
8
OBJECT__15
10
38.165001
20
-10.976000
30
87.255997
70
192
0
VERTEX
8
OBJECT__15
10
36.521999
20
-13.691000
30
86.692001
70
192
0
VERTEX
8
OBJECT__15
10
41.050999
20
-6.159000
30
93.282997
70
192
0
VERTEX
8
OBJECT__15
10
40.646000
20
-3.735000
30
88.166000
70
192
0
VERTEX
8
OBJECT__15
10
40.952999
20
-0.121000
30
88.285004
70
192
0
VERTEX
8
OBJECT__15
10
40.049000
20
-6.146000
30
87.941002
70
192
0
VERTEX
8
OBJECT__15
10
40.161999
20
-5.687000
30
87.984001
70
192
0
VERTEX
8
OBJECT__15
10
41.729000
20
2.039000
30
93.164001
70
192
0
VERTEX
8
OBJECT__15
10
40.692001
20
3.448000
30
88.184998
70
192
0
VERTEX
8
OBJECT__15
10
40.172001
20
5.690000
30
87.986000
70
192
0
VERTEX
8
OBJECT__15
10
39.749001
20
10.017000
30
93.513000
70
192
0
VERTEX
8
OBJECT__15
10
39.882999
20
6.939000
30
87.875999
70
192
0
VERTEX
8
OBJECT__15
10
40.794998
20
2.035000
30
88.224998
70
192
0
VERTEX
8
OBJECT__15
10
35.319000
20
16.916000
30
94.293999
70
192
0
VERTEX
8
OBJECT__15
10
36.535000
20
13.679000
30
86.698997
70
192
0
VERTEX
8
OBJECT__15
10
34.998001
20
15.543000
30
86.210999
70
192
0
VERTEX
8
OBJECT__15
10
34.076000
20
16.662001
30
85.917999
70
192
0
VERTEX
8
OBJECT__15
10
38.150002
20
10.976000
30
87.251999
70
192
0
VERTEX
8
OBJECT__15
10
38.478001
20
10.426000
30
87.364998
70
192
0
VERTEX
8
OBJECT__15
10
38.646999
20
10.007000
30
87.426003
70
192
0
VERTEX
8
OBJECT__15
10
33.813000
20
16.899000
30
85.844002
70
192
0
VERTEX
8
OBJECT__15
10
31.242001
20
19.219000
30
85.115997
70
192
0
VERTEX
8
OBJECT__15
10
9.180000
20
23.639999
30
98.903000
70
192
0
VERTEX
8
OBJECT__15
10
-3.500000
20
24.761000
30
0.000000
70
192
0
VERTEX
8
OBJECT__15
10
-7.439000
20
23.902000
30
0.000000
70
192
0
VERTEX
8
OBJECT__15
10
17.162001
20
25.000999
30
97.496002
70
192
0
VERTEX
8
OBJECT__15
10
-0.030000
20
25.000999
30
0.000000
70
192
0
VERTEX
8
OBJECT__15
10
2.046000
20
19.711000
30
100.161003
70
192
0
VERTEX
8
OBJECT__15
10
-8.242000
20
23.596001
30
0.000000
70
192
0
VERTEX
8
OBJECT__15
10
-10.885000
20
22.586000
30
0.000000
70
192
0
VERTEX
8
OBJECT__15
10
-14.451000
20
20.552999
30
0.001000
70
192
0
VERTEX
8
OBJECT__15
10
-3.430000
20
13.658000
30
101.126999
70
192
0
VERTEX
8
OBJECT__15
10
-17.299999
20
18.296000
30
0.000000
70
192
0
VERTEX
8
OBJECT__15
10
-19.826000
20
15.613000
30
0.000000
70
192
0
VERTEX
8
OBJECT__15
10
-15.575000
20
19.663000
30
0.000000
70
192
0
VERTEX
8
OBJECT__15
10
-6.681000
20
6.119000
30
101.699997
70
192
0
VERTEX
8
OBJECT__15
10
-22.037001
20
12.409000
30
0.000000
70
192
0
VERTEX
8
OBJECT__15
10
-23.690001
20
8.985000
30
0.000000
70
192
0
VERTEX
8
OBJECT__15
10
-21.202999
20
13.618000
30
0.000000
70
192
0
VERTEX
8
OBJECT__15
10
-7.345000
20
-2.080000
30
101.817001
70
192
0
VERTEX
8
OBJECT__15
10
-24.556000
20
6.102000
30
0.000000
70
192
0
VERTEX
8
OBJECT__15
10
-24.837999
20
5.161000
30
0.000000
70
192
0
VERTEX
8
OBJECT__15
10
-25.350000
20
1.327000
30
0.000000
70
192
0
VERTEX
8
OBJECT__15
10
-23.410999
20
-9.668000
30
0.000000
70
192
0
VERTEX
8
OBJECT__15
10
-23.218000
20
-10.042000
30
0.000000
70
192
0
VERTEX
8
OBJECT__15
10
-24.568001
20
-6.293000
30
0.000000
70
192
0
VERTEX
8
OBJECT__15
10
-25.271000
20
-2.079000
30
0.000000
70
192
0
VERTEX
8
OBJECT__15
10
-25.261999
20
-2.460000
30
0.000000
70
192
0
VERTEX
8
OBJECT__15
10
-5.352000
20
-10.055000
30
101.464996
70
192
0
VERTEX
8
OBJECT__15
10
-19.326000
20
-16.209999
30
0.000000
70
192
0
VERTEX
8
OBJECT__15
10
-18.625000
20
-16.907000
30
0.000000
70
192
0
VERTEX
8
OBJECT__15
10
-21.707001
20
-12.960000
30
0.000000
70
192
0
VERTEX
8
OBJECT__15
10
-0.911000
20
-16.945999
30
100.682999
70
192
0
VERTEX
8
OBJECT__15
10
-16.631001
20
-18.888000
30
0.000000
70
192
0
VERTEX
8
OBJECT__15
10
-15.502000
20
-19.711000
30
0.000000
70
192
0
VERTEX
8
OBJECT__15
10
2.116000
20
-19.766001
30
100.149002
70
192
0
VERTEX
8
OBJECT__15
10
-10.210000
20
-22.889000
30
0.000000
70
192
0
VERTEX
8
OBJECT__15
10
-8.193000
20
-23.594999
30
0.000000
70
192
0
VERTEX
8
OBJECT__15
10
-13.498000
20
-21.172001
30
0.001000
70
192
0
VERTEX
8
OBJECT__15
10
9.223000
20
-23.655001
30
98.896004
70
192
0
VERTEX
8
OBJECT__15
10
-3.094000
20
-24.813000
30
0.000000
70
192
0
VERTEX
8
OBJECT__15
10
0.029000
20
-24.964001
30
0.000000
70
192
0
VERTEX
8
OBJECT__15
10
-6.755000
20
-24.098000
30
0.000000
70
192
0
VERTEX
8
OBJECT__15
10
17.216999
20
-25.000999
30
97.486000
70
192
0
VERTEX
8
OBJECT__15
10
0.037000
20
-24.965000
30
0.000000
70
192
0
VERTEX
8
OBJECT__15
10
25.146999
20
-23.659000
30
96.087997
70
192
0
VERTEX
8
OBJECT__15
10
21.179001
20
-24.082001
30
81.462997
70
192
0
VERTEX
8
OBJECT__15
10
17.224001
20
-25.000999
30
97.485001
70
192
0
VERTEX
8
OBJECT__15
10
19.478001
20
-24.438999
30
80.167999
70
192
0
VERTEX
8
OBJECT__15
10
20.257999
20
-24.275000
30
80.762001
70
192
0
VERTEX
8
OBJECT__15
10
18.415001
20
-24.598000
30
78.752998
70
192
0
VERTEX
8
OBJECT__15
10
18.768999
20
-24.545000
30
79.223999
70
192
0
VERTEX
8
OBJECT__15
10
17.900000
20
-24.598000
30
75.842003
70
192
0
VERTEX
8
OBJECT__15
10
17.990000
20
-24.627001
30
77.267998
70
192
0
VERTEX
8
OBJECT__15
10
17.952999
20
-24.431000
30
71.304001
70
192
0
VERTEX
8
OBJECT__15
10
18.313999
20
-24.169001
30
67.074997
70
192
0
VERTEX
8
OBJECT__15
10
18.084999
20
-24.334999
30
69.755997
70
192
0
VERTEX
8
OBJECT__15
10
7.657000
20
-23.836000
30
0.000000
70
192
0
VERTEX
8
OBJECT__15
10
8.203000
20
-23.615999
30
0.000000
70
192
0
VERTEX
8
OBJECT__15
10
19.063000
20
-23.639000
30
61.526001
70
192
0
VERTEX
8
OBJECT__15
10
19.034000
20
-23.660000
30
61.743000
70
192
0
VERTEX
8
OBJECT__15
10
0.623000
20
-24.993000
30
0.000000
70
192
0
VERTEX
8
OBJECT__15
10
4.120000
20
-24.667999
30
0.000000
70
192
0
VERTEX
8
OBJECT__15
10
20.664000
20
-22.296000
30
52.061001
70
192
0
VERTEX
8
OBJECT__15
10
20.358000
20
-22.556999
30
53.810001
70
192
0
VERTEX
8
OBJECT__15
10
19.245001
20
-23.510000
30
60.179001
70
192
0
VERTEX
8
OBJECT__15
10
22.142000
20
-20.722000
30
45.037998
70
192
0
VERTEX
8
OBJECT__15
10
21.955999
20
-20.920000
30
45.921001
70
192
0
VERTEX
8
OBJECT__15
10
14.925000
20
-20.222000
30
-0.001000
70
192
0
VERTEX
8
OBJECT__15
10
15.551000
20
-19.702000
30
0.000000
70
192
0
VERTEX
8
OBJECT__15
10
22.922001
20
-19.698999
30
41.798000
70
192
0
VERTEX
8
OBJECT__15
10
11.493000
20
-22.291000
30
0.000000
70
192
0
VERTEX
8
OBJECT__15
10
24.872000
20
-16.756001
30
34.207001
70
192
0
VERTEX
8
OBJECT__15
10
23.826000
20
-18.440001
30
38.139999
70
192
0
VERTEX
8
OBJECT__15
10
23.577999
20
-18.837999
30
39.070000
70
192
0
VERTEX
8
OBJECT__15
10
26.038000
20
-14.458000
30
30.219000
70
192
0
VERTEX
8
OBJECT__15
10
25.917999
20
-14.694000
30
30.628000
70
192
0
VERTEX
8
OBJECT__15
10
20.191000
20
-15.152000
30
0.000000
70
192
0
VERTEX
8
OBJECT__15
10
21.177999
20
-13.654000
30
0.000000
70
192
0
VERTEX
8
OBJECT__15
10
26.361000
20
-13.677000
30
29.198000
70
192
0
VERTEX
8
OBJECT__15
10
17.719999
20
-17.903000
30
0.000000
70
192
0
VERTEX
8
OBJECT__15
10
27.767000
20
-9.746000
30
24.893000
70
192
0
VERTEX
8
OBJECT__15
10
27.007000
20
-12.068000
30
27.171000
70
192
0
VERTEX
8
OBJECT__15
10
26.931999
20
-12.299000
30
27.396999
70
192
0
VERTEX
8
OBJECT__15
10
28.403000
20
-7.118000
30
23.075001
70
192
0
VERTEX
8
OBJECT__15
10
28.013000
20
-8.732000
30
24.191999
70
192
0
VERTEX
8
OBJECT__15
10
23.879999
20
-8.482000
30
0.000000
70
192
0
VERTEX
8
OBJECT__15
10
24.539000
20
-6.142000
30
0.000000
70
192
0
VERTEX
8
OBJECT__15
10
28.559999
20
-6.151000
30
22.645000
70
192
0
VERTEX
8
OBJECT__15
10
22.283001
20
-11.975000
30
0.000000
70
192
0
VERTEX
8
OBJECT__15
10
28.844999
20
-4.393000
30
21.863001
70
192
0
VERTEX
8
OBJECT__15
10
28.799999
20
-4.668000
30
21.985001
70
192
0
VERTEX
8
OBJECT__15
10
24.903000
20
-4.846000
30
0.000000
70
192
0
VERTEX
8
OBJECT__15
10
29.068001
20
-1.823000
30
21.268000
70
192
0
VERTEX
8
OBJECT__15
10
25.364000
20
-1.040000
30
0.000000
70
192
0
VERTEX
8
OBJECT__15
10
25.273001
20
2.038000
30
0.000000
70
192
0
VERTEX
8
OBJECT__15
10
29.101999
20
0.960000
30
21.177999
70
192
0
VERTEX
8
OBJECT__15
10
29.090000
20
0.002000
30
21.209000
70
192
0
VERTEX
8
OBJECT__15
10
29.031000
20
2.035000
30
21.367001
70
192
0
VERTEX
8
OBJECT__15
10
24.563000
20
6.311000
30
0.000000
70
192
0
VERTEX
8
OBJECT__15
10
28.917000
20
3.759000
30
21.669001
70
192
0
VERTEX
8
OBJECT__15
10
25.259001
20
2.489000
30
0.000000
70
192
0
VERTEX
8
OBJECT__15
10
28.788000
20
4.653000
30
22.021999
70
192
0
VERTEX
8
OBJECT__15
10
23.412001
20
9.668000
30
0.000000
70
192
0
VERTEX
8
OBJECT__15
10
23.237000
20
10.005000
30
0.000000
70
192
0
VERTEX
8
OBJECT__15
10
28.513000
20
6.552000
30
22.770000
70
192
0
VERTEX
8
OBJECT__15
10
27.905001
20
9.246000
30
24.492001
70
192
0
VERTEX
8
OBJECT__15
10
28.017000
20
8.748000
30
24.174000
70
192
0
VERTEX
8
OBJECT__15
10
27.669001
20
10.002000
30
25.194000
70
192
0
VERTEX
8
OBJECT__15
10
21.700001
20
12.972000
30
0.000000
70
192
0
VERTEX
8
OBJECT__15
10
27.066999
20
11.929000
30
26.983000
70
192
0
VERTEX
8
OBJECT__15
10
19.316999
20
16.221001
30
0.000000
70
192
0
VERTEX
8
OBJECT__15
10
18.653999
20
16.878000
30
0.000000
70
192
0
VERTEX
8
OBJECT__15
10
26.038000
20
14.458000
30
30.219000
70
192
0
VERTEX
8
OBJECT__15
10
27.009001
20
12.071000
30
27.165001
70
192
0
VERTEX
8
OBJECT__15
10
24.912001
20
16.684999
30
34.063000
70
192
0
VERTEX
8
OBJECT__15
10
25.917999
20
14.694000
30
30.628000
70
192
0
VERTEX
8
OBJECT__15
10
24.775999
20
16.903000
30
34.573002
70
192
0
VERTEX
8
OBJECT__15
10
16.621000
20
18.896999
30
0.000000
70
192
0
VERTEX
8
OBJECT__15
10
23.826000
20
18.436001
30
38.141998
70
192
0
VERTEX
8
OBJECT__15
10
23.558001
20
18.867001
30
39.147999
70
192
0
VERTEX
8
OBJECT__15
10
15.402000
20
19.784000
30
0.000000
70
192
0
VERTEX
8
OBJECT__15
10
22.841999
20
19.801001
30
42.132000
70
192
0
VERTEX
8
OBJECT__15
10
13.484000
20
21.181000
30
-0.001000
70
192
0
VERTEX
8
OBJECT__15
10
22.093000
20
20.778999
30
45.254002
70
192
0
VERTEX
8
OBJECT__15
10
10.196000
20
22.896000
30
0.000000
70
192
0
VERTEX
8
OBJECT__15
10
8.074000
20
23.636999
30
0.000000
70
192
0
VERTEX
8
OBJECT__15
10
20.617001
20
22.340000
30
52.300999
70
192
0
VERTEX
8
OBJECT__15
10
21.954000
20
20.926001
30
45.918999
70
192
0
VERTEX
8
OBJECT__15
10
19.386999
20
23.400999
30
59.278999
70
192
0
VERTEX
8
OBJECT__15
10
20.351999
20
22.569000
30
53.806999
70
192
0
VERTEX
8
OBJECT__15
10
19.016001
20
23.667000
30
61.985001
70
192
0
VERTEX
8
OBJECT__15
10
19.048000
20
23.643999
30
61.747002
70
192
0
VERTEX
8
OBJECT__15
10
18.301001
20
24.177999
30
67.195999
70
192
0
VERTEX
8
OBJECT__15
10
6.742000
20
24.101999
30
0.000000
70
192
0
VERTEX
8
OBJECT__15
10
3.081000
20
24.815001
30
0.000000
70
192
0
VERTEX
8
OBJECT__15
10
17.882000
20
24.507000
30
72.973999
70
192
0
VERTEX
8
OBJECT__15
10
18.115000
20
24.323999
30
69.758003
70
192
0
VERTEX
8
OBJECT__15
10
17.990000
20
24.627001
30
77.267998
70
192
0
VERTEX
8
OBJECT__15
10
18.101000
20
24.627001
30
77.924004
70
192
0
VERTEX
8
OBJECT__15
10
18.653000
20
24.568001
30
79.167999
70
192
0
VERTEX
8
OBJECT__15
10
19.854000
20
24.370001
30
80.512001
70
192
0
VERTEX
8
OBJECT__15
10
18.729000
20
24.556000
30
79.252998
70
192
0
VERTEX
8
OBJECT__15
10
21.921000
20
23.889000
30
81.888000
70
192
0
VERTEX
8
OBJECT__15
10
20.245001
20
24.278999
30
80.772003
70
192
0
VERTEX
8
OBJECT__15
10
22.577000
20
23.670000
30
82.180000
70
192
0
VERTEX
8
OBJECT__15
10
0
20
0
30
0
70
128
71
1
72
2
73
3
0
VERTEX
8
OBJECT__15
10
0
20
0
30
0
70
128
71
4
72
1
73
5
0
VERTEX
8
OBJECT__15
10
0
20
0
30
0
70
128
71
5
72
6
73
4
0
VERTEX
8
OBJECT__15
10
0
20
0
30
0
70
128
71
5
72
7
73
8
0
VERTEX
8
OBJECT__15
10
0
20
0
30
0
70
128
71
8
72
6
73
5
0
VERTEX
8
OBJECT__15
10
0
20
0
30
0
70
128
71
4
72
2
73
1
0
VERTEX
8
OBJECT__15
10
0
20
0
30
0
70
128
71
9
72
10
73
11
0
VERTEX
8
OBJECT__15
10
0
20
0
30
0
70
128
71
9
72
12
73
13
0
VERTEX
8
OBJECT__15
10
0
20
0
30
0
70
128
71
13
72
10
73
9
0
VERTEX
8
OBJECT__15
10
0
20
0
30
0
70
128
71
9
72
14
73
15
0
VERTEX
8
OBJECT__15
10
0
20
0
30
0
70
128
71
15
72
12
73
9
0
VERTEX
8
OBJECT__15
10
0
20
0
30
0
70
128
71
9
72
16
73
14
0
VERTEX
8
OBJECT__15
10
0
20
0
30
0
70
128
71
17
72
18
73
19
0
VERTEX
8
OBJECT__15
10
0
20
0
30
0
70
128
71
18
72
20
73
19
0
VERTEX
8
OBJECT__15
10
0
20
0
30
0
70
128
71
18
72
11
73
21
0
VERTEX
8
OBJECT__15
10
0
20
0
30
0
70
128
71
21
72
20
73
18
0
VERTEX
8
OBJECT__15
10
0
20
0
30
0
70
128
71
17
72
22
73
23
0
VERTEX
8
OBJECT__15
10
0
20
0
30
0
70
128
71
17
72
24
73
25
0
VERTEX
8
OBJECT__15
10
0
20
0
30
0
70
128
71
17
72
26
73
24
0
VERTEX
8
OBJECT__15
10
0
20
0
30
0
70
128
71
25
72
22
73
17
0
VERTEX
8
OBJECT__15
10
0
20
0
30
0
70
128
71
23
72
27
73
17
0
VERTEX
8
OBJECT__15
10
0
20
0
30
0
70
128
71
27
72
28
73
29
0
VERTEX
8
OBJECT__15
10
0
20
0
30
0
70
128
71
27
72
30
73
31
0
VERTEX
8
OBJECT__15
10
0
20
0
30
0
70
128
71
31
72
28
73
27
0
VERTEX
8
OBJECT__15
10
0
20
0
30
0
70
128
71
29
72
32
73
27
0
VERTEX
8
OBJECT__15
10
0
20
0
30
0
70
128
71
32
72
33
73
34
0
VERTEX
8
OBJECT__15
10
0
20
0
30
0
70
128
71
34
72
35
73
32
0
VERTEX
8
OBJECT__15
10
0
20
0
30
0
70
128
71
34
72
36
73
35
0
VERTEX
8
OBJECT__15
10
0
20
0
30
0
70
128
71
32
72
37
73
33
0
VERTEX
8
OBJECT__15
10
0
20
0
30
0
70
128
71
38
72
39
73
40
0
VERTEX
8
OBJECT__15
10
0
20
0
30
0
70
128
71
40
72
41
73
38
0
VERTEX
8
OBJECT__15
10
0
20
0
30
0
70
128
71
38
72
35
73
42
0
VERTEX
8
OBJECT__15
10
0
20
0
30
0
70
128
71
35
72
43
73
42
0
VERTEX
8
OBJECT__15
10
0
20
0
30
0
70
128
71
42
72
39
73
38
0
VERTEX
8
OBJECT__15
10
0
20
0
30
0
70
128
71
35
72
44
73
43
0
VERTEX
8
OBJECT__15
10
0
20
0
30
0
70
128
71
7
72
38
73
45
0
VERTEX
8
OBJECT__15
10
0
20
0
30
0
70
128
71
45
72
46
73
7
0
VERTEX
8
OBJECT__15
10
0
20
0
30
0
70
128
71
47
72
48
73
49
0
VERTEX
8
OBJECT__15
10
0
20
0
30
0
70
128
71
47
72
50
73
51
0
VERTEX
8
OBJECT__15
10
0
20
0
30
0
70
128
71
51
72
48
73
47
0
VERTEX
8
OBJECT__15
10
0
20
0
30
0
70
128
71
52
72
47
73
53
0
VERTEX
8
OBJECT__15
10
0
20
0
30
0
70
128
71
53
72
54
73
52
0
VERTEX
8
OBJECT__15
10
0
20
0
30
0
70
128
71
54
72
55
73
52
0
VERTEX
8
OBJECT__15
10
0
20
0
30
0
70
128
71
56
72
57
73
58
0
VERTEX
8
OBJECT__15
10
0
20
0
30
0
70
128
71
56
72
52
73
59
0
VERTEX
8
OBJECT__15
10
0
20
0
30
0
70
128
71
59
72
57
73
56
0
VERTEX
8
OBJECT__15
10
0
20
0
30
0
70
128
71
60
72
61
73
62
0
VERTEX
8
OBJECT__15
10
0
20
0
30
0
70
128
71
60
72
56
73
63
0
VERTEX
8
OBJECT__15
10
0
20
0
30
0
70
128
71
63
72
61
73
60
0
VERTEX
8
OBJECT__15
10
0
20
0
30
0
70
128
71
64
72
60
73
65
0
VERTEX
8
OBJECT__15
10
0
20
0
30
0
70
128
71
65
72
66
73
64
0
VERTEX
8
OBJECT__15
10
0
20
0
30
0
70
128
71
66
72
67
73
64
0
VERTEX
8
OBJECT__15
10
0
20
0
30
0
70
128
71
64
72
68
73
69
0
VERTEX
8
OBJECT__15
10
0
20
0
30
0
70
128
71
64
72
70
73
68
0
VERTEX
8
OBJECT__15
10
0
20
0
30
0
70
128
71
64
72
71
73
72
0
VERTEX
8
OBJECT__15
10
0
20
0
30
0
70
128
71
72
72
70
73
64
0
VERTEX
8
OBJECT__15
10
0
20
0
30
0
70
128
71
73
72
74
73
75
0
VERTEX
8
OBJECT__15
10
0
20
0
30
0
70
128
71
73
72
76
73
74
0
VERTEX
8
OBJECT__15
10
0
20
0
30
0
70
128
71
73
72
69
73
76
0
VERTEX
8
OBJECT__15
10
0
20
0
30
0
70
128
71
77
72
78
73
79
0
VERTEX
8
OBJECT__15
10
0
20
0
30
0
70
128
71
77
72
75
73
78
0
VERTEX
8
OBJECT__15
10
0
20
0
30
0
70
128
71
80
72
81
73
82
0
VERTEX
8
OBJECT__15
10
0
20
0
30
0
70
128
71
80
72
83
73
81
0
VERTEX
8
OBJECT__15
10
0
20
0
30
0
70
128
71
80
72
79
73
83
0
VERTEX
8
OBJECT__15
10
0
20
0
30
0
70
128
71
84
72
85
73
86
0
VERTEX
8
OBJECT__15
10
0
20
0
30
0
70
128
71
84
72
82
73
87
0
VERTEX
8
OBJECT__15
10
0
20
0
30
0
70
128
71
87
72
85
73
84
0
VERTEX
8
OBJECT__15
10
0
20
0
30
0
70
128
71
88
72
86
73
89
0
VERTEX
8
OBJECT__15
10
0
20
0
30
0
70
128
71
90
72
91
73
16
0
VERTEX
8
OBJECT__15
10
0
20
0
30
0
70
128
71
16
72
9
73
90
0
VERTEX
8
OBJECT__15
10
0
20
0
30
0
70
128
71
90
72
92
73
91
0
VERTEX
8
OBJECT__15
10
0
20
0
30
0
70
128
71
92
72
93
73
94
0
VERTEX
8
OBJECT__15
10
0
20
0
30
0
70
128
71
94
72
91
73
92
0
VERTEX
8
OBJECT__15
10
0
20
0
30
0
70
128
71
92
72
95
73
96
0
VERTEX
8
OBJECT__15
10
0
20
0
30
0
70
128
71
96
72
93
73
92
0
VERTEX
8
OBJECT__15
10
0
20
0
30
0
70
128
71
89
72
97
73
98
0
VERTEX
8
OBJECT__15
10
0
20
0
30
0
70
128
71
89
72
99
73
97
0
VERTEX
8
OBJECT__15
10
0
20
0
30
0
70
128
71
89
72
100
73
101
0
VERTEX
8
OBJECT__15
10
0
20
0
30
0
70
128
71
102
72
103
73
104
0
VERTEX
8
OBJECT__15
10
0
20
0
30
0
70
128
71
104
72
105
73
102
0
VERTEX
8
OBJECT__15
10
0
20
0
30
0
70
128
71
100
72
106
73
107
0
VERTEX
8
OBJECT__15
10
0
20
0
30
0
70
128
71
100
72
89
73
106
0
VERTEX
8
OBJECT__15
10
0
20
0
30
0
70
128
71
107
72
102
73
100
0
VERTEX
8
OBJECT__15
10
0
20
0
30
0
70
128
71
105
72
100
73
102
0
VERTEX
8
OBJECT__15
10
0
20
0
30
0
70
128
71
101
72
99
73
89
0
VERTEX
8
OBJECT__15
10
0
20
0
30
0
70
128
71
98
72
92
73
89
0
VERTEX
8
OBJECT__15
10
0
20
0
30
0
70
128
71
98
72
95
73
92
0
VERTEX
8
OBJECT__15
10
0
20
0
30
0
70
128
71
103
72
108
73
109
0
VERTEX
8
OBJECT__15
10
0
20
0
30
0
70
128
71
109
72
110
73
103
0
VERTEX
8
OBJECT__15
10
0
20
0
30
0
70
128
71
103
72
111
73
112
0
VERTEX
8
OBJECT__15
10
0
20
0
30
0
70
128
71
113
72
114
73
115
0
VERTEX
8
OBJECT__15
10
0
20
0
30
0
70
128
71
111
72
116
73
113
0
VERTEX
8
OBJECT__15
10
0
20
0
30
0
70
128
71
111
72
103
73
116
0
VERTEX
8
OBJECT__15
10
0
20
0
30
0
70
128
71
115
72
111
73
113
0
VERTEX
8
OBJECT__15
10
0
20
0
30
0
70
128
71
112
72
108
73
103
0
VERTEX
8
OBJECT__15
10
0
20
0
30
0
70
128
71
114
72
117
73
118
0
VERTEX
8
OBJECT__15
10
0
20
0
30
0
70
128
71
118
72
119
73
114
0
VERTEX
8
OBJECT__15
10
0
20
0
30
0
70
128
71
114
72
120
73
121
0
VERTEX
8
OBJECT__15
10
0
20
0
30
0
70
128
71
121
72
117
73
114
0
VERTEX
8
OBJECT__15
10
0
20
0
30
0
70
128
71
122
72
123
73
124
0
VERTEX
8
OBJECT__15
10
0
20
0
30
0
70
128
71
120
72
114
73
125
0
VERTEX
8
OBJECT__15
10
0
20
0
30
0
70
128
71
125
72
122
73
120
0
VERTEX
8
OBJECT__15
10
0
20
0
30
0
70
128
71
124
72
120
73
122
0
VERTEX
8
OBJECT__15
10
0
20
0
30
0
70
128
71
123
72
126
73
127
0
VERTEX
8
OBJECT__15
10
0
20
0
30
0
70
128
71
127
72
128
73
123
0
VERTEX
8
OBJECT__15
10
0
20
0
30
0
70
128
71
123
72
129
73
130
0
VERTEX
8
OBJECT__15
10
0
20
0
30
0
70
128
71
130
72
126
73
123
0
VERTEX
8
OBJECT__15
10
0
20
0
30
0
70
128
71
131
72
132
73
133
0
VERTEX
8
OBJECT__15
10
0
20
0
30
0
70
128
71
129
72
134
73
131
0
VERTEX
8
OBJECT__15
10
0
20
0
30
0
70
128
71
129
72
123
73
134
0
VERTEX
8
OBJECT__15
10
0
20
0
30
0
70
128
71
133
72
129
73
131
0
VERTEX
8
OBJECT__15
10
0
20
0
30
0
70
128
71
132
72
135
73
136
0
VERTEX
8
OBJECT__15
10
0
20
0
30
0
70
128
71
135
72
132
73
137
0
VERTEX
8
OBJECT__15
10
0
20
0
30
0
70
128
71
137
72
138
73
135
0
VERTEX
8
OBJECT__15
10
0
20
0
30
0
70
128
71
139
72
140
73
141
0
VERTEX
8
OBJECT__15
10
0
20
0
30
0
70
128
71
141
72
142
73
139
0
VERTEX
8
OBJECT__15
10
0
20
0
30
0
70
128
71
138
72
137
73
139
0
VERTEX
8
OBJECT__15
10
0
20
0
30
0
70
128
71
142
72
138
73
139
0
VERTEX
8
OBJECT__15
10
0
20
0
30
0
70
128
71
140
72
143
73
141
0
VERTEX
8
OBJECT__15
10
0
20
0
30
0
70
128
71
144
72
145
73
143
0
VERTEX
8
OBJECT__15
10
0
20
0
30
0
70
128
71
143
72
146
73
144
0
VERTEX
8
OBJECT__15
10
0
20
0
30
0
70
128
71
143
72
140
73
146
0
VERTEX
8
OBJECT__15
10
0
20
0
30
0
70
128
71
147
72
145
73
148
0
VERTEX
8
OBJECT__15
10
0
20
0
30
0
70
128
71
149
72
150
73
147
0
VERTEX
8
OBJECT__15
10
0
20
0
30
0
70
128
71
149
72
151
73
152
0
VERTEX
8
OBJECT__15
10
0
20
0
30
0
70
128
71
149
72
153
73
151
0
VERTEX
8
OBJECT__15
10
0
20
0
30
0
70
128
71
152
72
150
73
149
0
VERTEX
8
OBJECT__15
10
0
20
0
30
0
70
128
71
148
72
149
73
147
0
VERTEX
8
OBJECT__15
10
0
20
0
30
0
70
128
71
154
72
155
73
153
0
VERTEX
8
OBJECT__15
10
0
20
0
30
0
70
128
71
153
72
149
73
154
0
VERTEX
8
OBJECT__15
10
0
20
0
30
0
70
128
71
154
72
156
73
155
0
VERTEX
8
OBJECT__15
10
0
20
0
30
0
70
128
71
157
72
158
73
159
0
VERTEX
8
OBJECT__15
10
0
20
0
30
0
70
128
71
157
72
160
73
161
0
VERTEX
8
OBJECT__15
10
0
20
0
30
0
70
128
71
157
72
162
73
160
0
VERTEX
8
OBJECT__15
10
0
20
0
30
0
70
128
71
161
72
158
73
157
0
VERTEX
8
OBJECT__15
10
0
20
0
30
0
70
128
71
159
72
155
73
157
0
VERTEX
8
OBJECT__15
10
0
20
0
30
0
70
128
71
163
72
164
73
162
0
VERTEX
8
OBJECT__15
10
0
20
0
30
0
70
128
71
163
72
165
73
164
0
VERTEX
8
OBJECT__15
10
0
20
0
30
0
70
128
71
162
72
157
73
163
0
VERTEX
8
OBJECT__15
10
0
20
0
30
0
70
128
71
166
72
167
73
165
0
VERTEX
8
OBJECT__15
10
0
20
0
30
0
70
128
71
168
72
169
73
167
0
VERTEX
8
OBJECT__15
10
0
20
0
30
0
70
128
71
167
72
166
73
168
0
VERTEX
8
OBJECT__15
10
0
20
0
30
0
70
128
71
168
72
170
73
169
0
VERTEX
8
OBJECT__15
10
0
20
0
30
0
70
128
71
171
72
172
73
173
0
VERTEX
8
OBJECT__15
10
0
20
0
30
0
70
128
71
171
72
174
73
175
0
VERTEX
8
OBJECT__15
10
0
20
0
30
0
70
128
71
175
72
172
73
171
0
VERTEX
8
OBJECT__15
10
0
20
0
30
0
70
128
71
171
72
176
73
177
0
VERTEX
8
OBJECT__15
10
0
20
0
30
0
70
128
71
177
72
174
73
171
0
VERTEX
8
OBJECT__15
10
0
20
0
30
0
70
128
71
173
72
169
73
171
0
VERTEX
8
OBJECT__15
10
0
20
0
30
0
70
128
71
178
72
179
73
180
0
VERTEX
8
OBJECT__15
10
0
20
0
30
0
70
128
71
179
72
178
73
176
0
VERTEX
8
OBJECT__15
10
0
20
0
30
0
70
128
71
176
72
171
73
179
0
VERTEX
8
OBJECT__15
10
0
20
0
30
0
70
128
71
51
72
181
73
182
0
VERTEX
8
OBJECT__15
10
0
20
0
30
0
70
128
71
182
72
178
73
51
0
VERTEX
8
OBJECT__15
10
0
20
0
30
0
70
128
71
51
72
50
73
183
0
VERTEX
8
OBJECT__15
10
0
20
0
30
0
70
128
71
183
72
181
73
51
0
VERTEX
8
OBJECT__15
10
0
20
0
30
0
70
128
71
50
72
184
73
183
0
VERTEX
8
OBJECT__15
10
0
20
0
30
0
70
128
71
50
72
185
73
184
0
VERTEX
8
OBJECT__15
10
0
20
0
30
0
70
128
71
50
72
186
73
187
0
VERTEX
8
OBJECT__15
10
0
20
0
30
0
70
128
71
50
72
188
73
189
0
VERTEX
8
OBJECT__15
10
0
20
0
30
0
70
128
71
50
72
1
73
190
0
VERTEX
8
OBJECT__15
10
0
20
0
30
0
70
128
71
190
72
188
73
50
0
VERTEX
8
OBJECT__15
10
0
20
0
30
0
70
128
71
189
72
186
73
50
0
VERTEX
8
OBJECT__15
10
0
20
0
30
0
70
128
71
187
72
185
73
50
0
VERTEX
8
OBJECT__15
10
0
20
0
30
0
70
128
71
180
72
51
73
178
0
VERTEX
8
OBJECT__15
10
0
20
0
30
0
70
128
71
170
72
171
73
169
0
VERTEX
8
OBJECT__15
10
0
20
0
30
0
70
128
71
163
72
166
73
165
0
VERTEX
8
OBJECT__15
10
0
20
0
30
0
70
128
71
156
72
157
73
155
0
VERTEX
8
OBJECT__15
10
0
20
0
30
0
70
128
71
144
72
148
73
145
0
VERTEX
8
OBJECT__15
10
0
20
0
30
0
70
128
71
136
72
133
73
132
0
VERTEX
8
OBJECT__15
10
0
20
0
30
0
70
128
71
128
72
124
73
123
0
VERTEX
8
OBJECT__15
10
0
20
0
30
0
70
128
71
119
72
115
73
114
0
VERTEX
8
OBJECT__15
10
0
20
0
30
0
70
128
71
110
72
104
73
103
0
VERTEX
8
OBJECT__15
10
0
20
0
30
0
70
128
71
89
72
92
73
88
0
VERTEX
8
OBJECT__15
10
0
20
0
30
0
70
128
71
86
72
88
73
84
0
VERTEX
8
OBJECT__15
10
0
20
0
30
0
70
128
71
82
72
84
73
80
0
VERTEX
8
OBJECT__15
10
0
20
0
30
0
70
128
71
79
72
80
73
77
0
VERTEX
8
OBJECT__15
10
0
20
0
30
0
70
128
71
75
72
77
73
73
0
VERTEX
8
OBJECT__15
10
0
20
0
30
0
70
128
71
69
72
73
73
64
0
VERTEX
8
OBJECT__15
10
0
20
0
30
0
70
128
71
67
72
71
73
64
0
VERTEX
8
OBJECT__15
10
0
20
0
30
0
70
128
71
62
72
65
73
60
0
VERTEX
8
OBJECT__15
10
0
20
0
30
0
70
128
71
58
72
63
73
56
0
VERTEX
8
OBJECT__15
10
0
20
0
30
0
70
128
71
55
72
59
73
52
0
VERTEX
8
OBJECT__15
10
0
20
0
30
0
70
128
71
49
72
53
73
47
0
VERTEX
8
OBJECT__15
10
0
20
0
30
0
70
128
71
46
72
8
73
7
0
VERTEX
8
OBJECT__15
10
0
20
0
30
0
70
128
71
41
72
45
73
38
0
VERTEX
8
OBJECT__15
10
0
20
0
30
0
70
128
71
36
72
44
73
35
0
VERTEX
8
OBJECT__15
10
0
20
0
30
0
70
128
71
29
72
37
73
32
0
VERTEX
8
OBJECT__15
10
0
20
0
30
0
70
128
71
23
72
30
73
27
0
VERTEX
8
OBJECT__15
10
0
20
0
30
0
70
128
71
19
72
26
73
17
0
VERTEX
8
OBJECT__15
10
0
20
0
30
0
70
128
71
11
72
18
73
9
0
VERTEX
8
OBJECT__15
10
0
20
0
30
0
70
128
71
3
72
190
73
1
0
SEQEND
8
OBJECT__15
0
POLYLINE
8
OBJECT__17
66
1
70
64
71
37
72
39
62
253
0
VERTEX
8
OBJECT__17
10
21.796000
20
-23.934999
30
78.871002
70
192
0
VERTEX
8
OBJECT__17
10
25.416000
20
-22.983999
30
79.864998
70
192
0
VERTEX
8
OBJECT__17
10
22.707001
20
-23.624001
30
82.222000
70
192
0
VERTEX
8
OBJECT__17
10
21.179001
20
-24.082001
30
81.462997
70
192
0
VERTEX
8
OBJECT__17
10
23.937000
20
-23.243000
30
82.820000
70
192
0
VERTEX
8
OBJECT__17
10
23.837000
20
-23.285999
30
82.783997
70
192
0
VERTEX
8
OBJECT__17
10
31.379000
20
-19.077999
30
84.082001
70
192
0
VERTEX
8
OBJECT__17
10
30.554001
20
-19.733000
30
84.932999
70
192
0
VERTEX
8
OBJECT__17
10
30.285000
20
-19.933001
30
84.862000
70
192
0
VERTEX
8
OBJECT__17
10
31.246000
20
-19.218000
30
85.117996
70
192
0
VERTEX
8
OBJECT__17
10
27.695999
20
-21.506001
30
84.116997
70
192
0
VERTEX
8
OBJECT__17
10
29.025000
20
-21.559000
30
80.620003
70
192
0
VERTEX
8
OBJECT__17
10
31.659000
20
-19.122000
30
83.054001
70
192
0
VERTEX
8
OBJECT__17
10
31.799999
20
-19.145000
30
82.536003
70
192
0
VERTEX
8
OBJECT__17
10
32.455002
20
-19.551001
30
81.204002
70
192
0
VERTEX
8
OBJECT__17
10
32.449001
20
-19.547001
30
81.217003
70
192
0
VERTEX
8
OBJECT__17
10
23.691000
20
-24.065001
30
77.401001
70
192
0
VERTEX
8
OBJECT__17
10
31.302000
20
-22.976999
30
78.288002
70
192
0
VERTEX
8
OBJECT__17
10
33.558998
20
-20.445000
30
79.750000
70
192
0
VERTEX
8
OBJECT__17
10
33.687000
20
-20.554001
30
79.597000
70
192
0
VERTEX
8
OBJECT__17
10
32.612999
20
-19.649000
30
80.882004
70
192
0
VERTEX
8
OBJECT__17
10
32.308998
20
-22.766001
30
78.450996
70
192
0
VERTEX
8
OBJECT__17
10
34.922001
20
-21.761999
30
78.806999
70
192
0
VERTEX
8
OBJECT__17
10
19.478001
20
-24.438999
30
80.167999
70
192
0
VERTEX
8
OBJECT__17
10
18.768999
20
-24.545000
30
79.223999
70
192
0
VERTEX
8
OBJECT__17
10
20.157000
20
-24.266001
30
78.141998
70
192
0
VERTEX
8
OBJECT__17
10
20.257999
20
-24.275000
30
80.762001
70
192
0
VERTEX
8
OBJECT__17
10
18.922001
20
-24.510000
30
77.223000
70
192
0
VERTEX
8
OBJECT__17
10
18.924999
20
-24.509001
30
77.223000
70
192
0
VERTEX
8
OBJECT__17
10
18.415001
20
-24.598000
30
78.752998
70
192
0
VERTEX
8
OBJECT__17
10
17.990000
20
-24.627001
30
77.267998
70
192
0
VERTEX
8
OBJECT__17
10
27.077000
20
-21.882000
30
83.939003
70
192
0
VERTEX
8
OBJECT__17
10
27.542000
20
-23.674999
30
77.741997
70
192
0
VERTEX
8
OBJECT__17
10
28.396000
20
-23.589001
30
77.818001
70
192
0
VERTEX
8
OBJECT__17
10
30.587000
20
-23.128000
30
78.171997
70
192
0
VERTEX
8
OBJECT__17
10
22.469999
20
-24.188999
30
77.292999
70
192
0
VERTEX
8
OBJECT__17
10
19.856001
20
-24.392000
30
77.178001
70
192
0
VERTEX
8
OBJECT__17
10
0
20
0
30
0
70
128
71
1
72
2
73
3
0
VERTEX
8
OBJECT__17
10
0
20
0
30
0
70
128
71
3
72
4
73
1
0
VERTEX
8
OBJECT__17
10
0
20
0
30
0
70
128
71
2
72
5
73
6
0
VERTEX
8
OBJECT__17
10
0
20
0
30
0
70
128
71
6
72
3
73
2
0
VERTEX
8
OBJECT__17
10
0
20
0
30
0
70
128
71
7
72
8
73
9
0
VERTEX
8
OBJECT__17
10
0
20
0
30
0
70
128
71
7
72
10
73
8
0
VERTEX
8
OBJECT__17
10
0
20
0
30
0
70
128
71
11
72
12
73
13
0
VERTEX
8
OBJECT__17
10
0
20
0
30
0
70
128
71
12
72
14
73
13
0
VERTEX
8
OBJECT__17
10
0
20
0
30
0
70
128
71
13
72
7
73
11
0
VERTEX
8
OBJECT__17
10
0
20
0
30
0
70
128
71
12
72
15
73
16
0
VERTEX
8
OBJECT__17
10
0
20
0
30
0
70
128
71
16
72
14
73
12
0
VERTEX
8
OBJECT__17
10
0
20
0
30
0
70
128
71
2
72
1
73
17
0
VERTEX
8
OBJECT__17
10
0
20
0
30
0
70
128
71
12
72
18
73
19
0
VERTEX
8
OBJECT__17
10
0
20
0
30
0
70
128
71
18
72
20
73
19
0
VERTEX
8
OBJECT__17
10
0
20
0
30
0
70
128
71
19
72
21
73
12
0
VERTEX
8
OBJECT__17
10
0
20
0
30
0
70
128
71
20
72
18
73
22
0
VERTEX
8
OBJECT__17
10
0
20
0
30
0
70
128
71
22
72
23
73
20
0
VERTEX
8
OBJECT__17
10
0
20
0
30
0
70
128
71
24
72
25
73
26
0
VERTEX
8
OBJECT__17
10
0
20
0
30
0
70
128
71
1
72
27
73
24
0
VERTEX
8
OBJECT__17
10
0
20
0
30
0
70
128
71
25
72
28
73
29
0
VERTEX
8
OBJECT__17
10
0
20
0
30
0
70
128
71
28
72
25
73
30
0
VERTEX
8
OBJECT__17
10
0
20
0
30
0
70
128
71
30
72
31
73
28
0
VERTEX
8
OBJECT__17
10
0
20
0
30
0
70
128
71
32
72
5
73
2
0
VERTEX
8
OBJECT__17
10
0
20
0
30
0
70
128
71
12
72
11
73
32
0
VERTEX
8
OBJECT__17
10
0
20
0
30
0
70
128
71
12
72
2
73
33
0
VERTEX
8
OBJECT__17
10
0
20
0
30
0
70
128
71
33
72
34
73
12
0
VERTEX
8
OBJECT__17
10
0
20
0
30
0
70
128
71
34
72
35
73
12
0
VERTEX
8
OBJECT__17
10
0
20
0
30
0
70
128
71
36
72
1
73
26
0
VERTEX
8
OBJECT__17
10
0
20
0
30
0
70
128
71
26
72
29
73
37
0
VERTEX
8
OBJECT__17
10
0
20
0
30
0
70
128
71
26
72
37
73
36
0
VERTEX
8
OBJECT__17
10
0
20
0
30
0
70
128
71
36
72
17
73
1
0
VERTEX
8
OBJECT__17
10
0
20
0
30
0
70
128
71
35
72
18
73
12
0
VERTEX
8
OBJECT__17
10
0
20
0
30
0
70
128
71
2
72
12
73
32
0
VERTEX
8
OBJECT__17
10
0
20
0
30
0
70
128
71
29
72
26
73
25
0
VERTEX
8
OBJECT__17
10
0
20
0
30
0
70
128
71
26
72
1
73
24
0
VERTEX
8
OBJECT__17
10
0
20
0
30
0
70
128
71
21
72
15
73
12
0
VERTEX
8
OBJECT__17
10
0
20
0
30
0
70
128
71
17
72
33
73
2
0
VERTEX
8
OBJECT__17
10
0
20
0
30
0
70
128
71
9
72
11
73
7
0
VERTEX
8
OBJECT__17
10
0
20
0
30
0
70
128
71
4
72
27
73
1
0
SEQEND
8
OBJECT__17
0
POLYLINE
8
OBJECT__18
66
1
70
64
71
139
72
156
62
253
0
VERTEX
8
OBJECT__18
10
31.591999
20
3.685000
30
28.705999
70
192
0
VERTEX
8
OBJECT__18
10
31.778999
20
0.000000
30
28.153999
70
192
0
VERTEX
8
OBJECT__18
10
29.031000
20
2.035000
30
21.367001
70
192
0
VERTEX
8
OBJECT__18
10
28.917000
20
3.759000
30
21.669001
70
192
0
VERTEX
8
OBJECT__18
10
29.090000
20
0.002000
30
21.209000
70
192
0
VERTEX
8
OBJECT__18
10
29.101999
20
0.960000
30
21.177999
70
192
0
VERTEX
8
OBJECT__18
10
36.828999
20
0.620000
30
33.703999
70
192
0
VERTEX
8
OBJECT__18
10
36.811001
20
0.003000
30
33.737000
70
192
0
VERTEX
8
OBJECT__18
10
36.623001
20
3.317000
30
34.070999
70
192
0
VERTEX
8
OBJECT__18
10
25.145000
20
19.643000
30
48.091000
70
192
0
VERTEX
8
OBJECT__18
10
21.954000
20
20.926001
30
45.918999
70
192
0
VERTEX
8
OBJECT__18
10
20.617001
20
22.340000
30
52.300999
70
192
0
VERTEX
8
OBJECT__18
10
22.983000
20
21.756001
30
55.226002
70
192
0
VERTEX
8
OBJECT__18
10
27.351000
20
16.688000
30
41.301998
70
192
0
VERTEX
8
OBJECT__18
10
29.422001
20
12.623000
30
35.123001
70
192
0
VERTEX
8
OBJECT__18
10
24.775999
20
16.903000
30
34.573002
70
192
0
VERTEX
8
OBJECT__18
10
25.917999
20
14.694000
30
30.628000
70
192
0
VERTEX
8
OBJECT__18
10
24.912001
20
16.684999
30
34.063000
70
192
0
VERTEX
8
OBJECT__18
10
31.082001
20
7.079000
30
30.228001
70
192
0
VERTEX
8
OBJECT__18
10
27.066999
20
11.929000
30
26.983000
70
192
0
VERTEX
8
OBJECT__18
10
27.009001
20
12.071000
30
27.165001
70
192
0
VERTEX
8
OBJECT__18
10
27.669001
20
10.002000
30
25.194000
70
192
0
VERTEX
8
OBJECT__18
10
28.017000
20
8.748000
30
24.174000
70
192
0
VERTEX
8
OBJECT__18
10
27.905001
20
9.246000
30
24.492001
70
192
0
VERTEX
8
OBJECT__18
10
28.513000
20
6.552000
30
22.770000
70
192
0
VERTEX
8
OBJECT__18
10
28.788000
20
4.653000
30
22.021999
70
192
0
VERTEX
8
OBJECT__18
10
30.333000
20
10.058000
30
32.445999
70
192
0
VERTEX
8
OBJECT__18
10
26.038000
20
14.458000
30
30.219000
70
192
0
VERTEX
8
OBJECT__18
10
22.841999
20
19.801001
30
42.132000
70
192
0
VERTEX
8
OBJECT__18
10
22.093000
20
20.778999
30
45.254002
70
192
0
VERTEX
8
OBJECT__18
10
23.826000
20
18.436001
30
38.141998
70
192
0
VERTEX
8
OBJECT__18
10
23.558001
20
18.867001
30
39.147999
70
192
0
VERTEX
8
OBJECT__18
10
20.990999
20
23.205999
30
62.584999
70
192
0
VERTEX
8
OBJECT__18
10
19.016001
20
23.667000
30
61.985001
70
192
0
VERTEX
8
OBJECT__18
10
18.301001
20
24.177999
30
67.195999
70
192
0
VERTEX
8
OBJECT__18
10
19.386000
20
24.108999
30
70.132004
70
192
0
VERTEX
8
OBJECT__18
10
19.048000
20
23.643999
30
61.747002
70
192
0
VERTEX
8
OBJECT__18
10
20.351999
20
22.569000
30
53.806999
70
192
0
VERTEX
8
OBJECT__18
10
19.386999
20
23.400999
30
59.278999
70
192
0
VERTEX
8
OBJECT__18
10
27.351000
20
-16.688000
30
41.301998
70
192
0
VERTEX
8
OBJECT__18
10
22.922001
20
-19.698999
30
41.798000
70
192
0
VERTEX
8
OBJECT__18
10
23.577999
20
-18.837999
30
39.070000
70
192
0
VERTEX
8
OBJECT__18
10
25.145000
20
-19.643000
30
48.091000
70
192
0
VERTEX
8
OBJECT__18
10
22.142000
20
-20.722000
30
45.037998
70
192
0
VERTEX
8
OBJECT__18
10
21.955999
20
-20.920000
30
45.921001
70
192
0
VERTEX
8
OBJECT__18
10
22.983000
20
-21.756001
30
55.226002
70
192
0
VERTEX
8
OBJECT__18
10
20.990999
20
-23.205999
30
62.584999
70
192
0
VERTEX
8
OBJECT__18
10
19.245001
20
-23.510000
30
60.179001
70
192
0
VERTEX
8
OBJECT__18
10
19.063000
20
-23.639000
30
61.526001
70
192
0
VERTEX
8
OBJECT__18
10
19.034000
20
-23.660000
30
61.743000
70
192
0
VERTEX
8
OBJECT__18
10
19.386000
20
-24.108999
30
70.132004
70
192
0
VERTEX
8
OBJECT__18
10
18.313999
20
-24.169001
30
67.074997
70
192
0
VERTEX
8
OBJECT__18
10
18.084999
20
-24.334999
30
69.755997
70
192
0
VERTEX
8
OBJECT__18
10
20.664000
20
-22.296000
30
52.061001
70
192
0
VERTEX
8
OBJECT__18
10
20.358000
20
-22.556999
30
53.810001
70
192
0
VERTEX
8
OBJECT__18
10
30.333000
20
-10.058000
30
32.445999
70
192
0
VERTEX
8
OBJECT__18
10
26.361000
20
-13.677000
30
29.198000
70
192
0
VERTEX
8
OBJECT__18
10
26.931999
20
-12.299000
30
27.396999
70
192
0
VERTEX
8
OBJECT__18
10
29.422001
20
-12.623000
30
35.123001
70
192
0
VERTEX
8
OBJECT__18
10
25.917999
20
-14.694000
30
30.628000
70
192
0
VERTEX
8
OBJECT__18
10
26.038000
20
-14.458000
30
30.219000
70
192
0
VERTEX
8
OBJECT__18
10
23.826000
20
-18.440001
30
38.139999
70
192
0
VERTEX
8
OBJECT__18
10
24.872000
20
-16.756001
30
34.207001
70
192
0
VERTEX
8
OBJECT__18
10
31.591999
20
-3.685000
30
28.705999
70
192
0
VERTEX
8
OBJECT__18
10
31.082001
20
-7.079000
30
30.228001
70
192
0
VERTEX
8
OBJECT__18
10
28.013000
20
-8.732000
30
24.191999
70
192
0
VERTEX
8
OBJECT__18
10
28.403000
20
-7.118000
30
23.075001
70
192
0
VERTEX
8
OBJECT__18
10
28.559999
20
-6.151000
30
22.645000
70
192
0
VERTEX
8
OBJECT__18
10
27.007000
20
-12.068000
30
27.171000
70
192
0
VERTEX
8
OBJECT__18
10
27.767000
20
-9.746000
30
24.893000
70
192
0
VERTEX
8
OBJECT__18
10
28.844999
20
-4.393000
30
21.863001
70
192
0
VERTEX
8
OBJECT__18
10
29.068001
20
-1.823000
30
21.268000
70
192
0
VERTEX
8
OBJECT__18
10
28.799999
20
-4.668000
30
21.985001
70
192
0
VERTEX
8
OBJECT__18
10
29.620001
20
-18.153000
30
48.047001
70
192
0
VERTEX
8
OBJECT__18
10
28.879999
20
-18.825001
30
49.653999
70
192
0
VERTEX
8
OBJECT__18
10
31.504999
20
-15.944000
30
44.136002
70
192
0
VERTEX
8
OBJECT__18
10
25.002001
20
-21.868000
30
58.410999
70
192
0
VERTEX
8
OBJECT__18
10
25.783001
20
-21.318001
30
56.602001
70
192
0
VERTEX
8
OBJECT__18
10
25.568001
20
-21.469999
30
57.101002
70
192
0
VERTEX
8
OBJECT__18
10
22.011999
20
-23.423000
30
66.387001
70
192
0
VERTEX
8
OBJECT__18
10
22.546000
20
-23.194000
30
64.719002
70
192
0
VERTEX
8
OBJECT__18
10
23.049999
20
-22.922001
30
63.424999
70
192
0
VERTEX
8
OBJECT__18
10
20.888000
20
-23.903000
30
69.893997
70
192
0
VERTEX
8
OBJECT__18
10
27.343000
20
-20.219999
30
52.990002
70
192
0
VERTEX
8
OBJECT__18
10
28.660999
20
-19.024000
30
50.129002
70
192
0
VERTEX
8
OBJECT__18
10
35.502998
20
-8.223000
30
36.175999
70
192
0
VERTEX
8
OBJECT__18
10
34.680000
20
-10.491000
30
37.764999
70
192
0
VERTEX
8
OBJECT__18
10
35.680000
20
-7.736000
30
35.834999
70
192
0
VERTEX
8
OBJECT__18
10
36.000999
20
-6.422000
30
35.230000
70
192
0
VERTEX
8
OBJECT__18
10
33.328999
20
-13.217000
30
40.439999
70
192
0
VERTEX
8
OBJECT__18
10
31.695000
20
-15.711000
30
43.743999
70
192
0
VERTEX
8
OBJECT__18
10
31.663000
20
-15.759000
30
43.806999
70
192
0
VERTEX
8
OBJECT__18
10
34.055000
20
-11.753000
30
39.002998
70
192
0
VERTEX
8
OBJECT__18
10
33.894001
20
-12.078000
30
39.321999
70
192
0
VERTEX
8
OBJECT__18
10
36.473999
20
-4.158000
30
34.345001
70
192
0
VERTEX
8
OBJECT__18
10
36.373001
20
-4.899000
30
34.528999
70
192
0
VERTEX
8
OBJECT__18
10
36.589001
20
-3.313000
30
34.136002
70
192
0
VERTEX
8
OBJECT__18
10
36.744999
20
-2.171000
30
33.852001
70
192
0
VERTEX
8
OBJECT__18
10
26.681999
20
20.729000
30
54.480999
70
192
0
VERTEX
8
OBJECT__18
10
25.789000
20
21.308001
30
56.605000
70
192
0
VERTEX
8
OBJECT__18
10
32.889999
20
13.955000
30
41.320000
70
192
0
VERTEX
8
OBJECT__18
10
33.900002
20
12.092000
30
39.306999
70
192
0
VERTEX
8
OBJECT__18
10
31.683001
20
15.661000
30
43.775002
70
192
0
VERTEX
8
OBJECT__18
10
31.499001
20
15.922000
30
44.151001
70
192
0
VERTEX
8
OBJECT__18
10
35.500999
20
8.227000
30
36.178001
70
192
0
VERTEX
8
OBJECT__18
10
35.348000
20
8.760000
30
36.471001
70
192
0
VERTEX
8
OBJECT__18
10
34.067001
20
11.784000
30
38.974998
70
192
0
VERTEX
8
OBJECT__18
10
34.261002
20
11.425000
30
38.587002
70
192
0
VERTEX
8
OBJECT__18
10
36.138000
20
6.015000
30
34.966000
70
192
0
VERTEX
8
OBJECT__18
10
36.473000
20
4.152000
30
34.348000
70
192
0
VERTEX
8
OBJECT__18
10
36.016998
20
6.437000
30
35.198002
70
192
0
VERTEX
8
OBJECT__18
10
29.061001
20
18.711000
30
49.236000
70
192
0
VERTEX
8
OBJECT__18
10
31.108000
20
16.473000
30
44.945000
70
192
0
VERTEX
8
OBJECT__18
10
28.660999
20
19.049999
30
50.117001
70
192
0
VERTEX
8
OBJECT__18
10
28.879999
20
18.864000
30
49.634998
70
192
0
VERTEX
8
OBJECT__18
10
20.731001
20
23.964001
30
70.507004
70
192
0
VERTEX
8
OBJECT__18
10
21.979000
20
23.448999
30
66.365997
70
192
0
VERTEX
8
OBJECT__18
10
22.032000
20
23.427000
30
66.189003
70
192
0
VERTEX
8
OBJECT__18
10
24.162001
20
22.364000
30
60.474998
70
192
0
VERTEX
8
OBJECT__18
10
25.576000
20
21.447001
30
57.112000
70
192
0
VERTEX
8
OBJECT__18
10
23.061001
20
22.914000
30
63.430000
70
192
0
VERTEX
8
OBJECT__18
10
18.924999
20
-24.509001
30
77.223000
70
192
0
VERTEX
8
OBJECT__18
10
20.025000
20
-24.250000
30
73.966003
70
192
0
VERTEX
8
OBJECT__18
10
19.874001
20
-24.377001
30
76.831001
70
192
0
VERTEX
8
OBJECT__18
10
19.856001
20
-24.392000
30
77.178001
70
192
0
VERTEX
8
OBJECT__18
10
20.757000
20
-23.955999
30
70.512001
70
192
0
VERTEX
8
OBJECT__18
10
18.922001
20
-24.510000
30
77.223000
70
192
0
VERTEX
8
OBJECT__18
10
17.900000
20
-24.598000
30
75.842003
70
192
0
VERTEX
8
OBJECT__18
10
17.990000
20
-24.627001
30
77.267998
70
192
0
VERTEX
8
OBJECT__18
10
17.952999
20
-24.431000
30
71.304001
70
192
0
VERTEX
8
OBJECT__18
10
18.922001
20
24.510000
30
77.223000
70
192
0
VERTEX
8
OBJECT__18
10
17.882000
20
24.507000
30
72.973999
70
192
0
VERTEX
8
OBJECT__18
10
18.115000
20
24.323999
30
69.758003
70
192
0
VERTEX
8
OBJECT__18
10
19.997000
20
24.263000
30
74.178001
70
192
0
VERTEX
8
OBJECT__18
10
20.695000
20
23.979000
30
70.626999
70
192
0
VERTEX
8
OBJECT__18
10
18.924000
20
24.509001
30
77.223000
70
192
0
VERTEX
8
OBJECT__18
10
19.871000
20
24.378000
30
76.835999
70
192
0
VERTEX
8
OBJECT__18
10
19.855000
20
24.392000
30
77.178001
70
192
0
VERTEX
8
OBJECT__18
10
17.990000
20
24.627001
30
77.267998
70
192
0
VERTEX
8
OBJECT__18
10
0
20
0
30
0
70
128
71
1
72
2
73
3
0
VERTEX
8
OBJECT__18
10
0
20
0
30
0
70
128
71
3
72
4
73
1
0
VERTEX
8
OBJECT__18
10
0
20
0
30
0
70
128
71
2
72
5
73
6
0
VERTEX
8
OBJECT__18
10
0
20
0
30
0
70
128
71
6
72
3
73
2
0
VERTEX
8
OBJECT__18
10
0
20
0
30
0
70
128
71
2
72
7
73
8
0
VERTEX
8
OBJECT__18
10
0
20
0
30
0
70
128
71
1
72
9
73
7
0
VERTEX
8
OBJECT__18
10
0
20
0
30
0
70
128
71
7
72
2
73
1
0
VERTEX
8
OBJECT__18
10
0
20
0
30
0
70
128
71
10
72
11
73
12
0
VERTEX
8
OBJECT__18
10
0
20
0
30
0
70
128
71
12
72
13
73
10
0
VERTEX
8
OBJECT__18
10
0
20
0
30
0
70
128
71
14
72
15
73
16
0
VERTEX
8
OBJECT__18
10
0
20
0
30
0
70
128
71
15
72
17
73
18
0
VERTEX
8
OBJECT__18
10
0
20
0
30
0
70
128
71
18
72
16
73
15
0
VERTEX
8
OBJECT__18
10
0
20
0
30
0
70
128
71
19
72
20
73
21
0
VERTEX
8
OBJECT__18
10
0
20
0
30
0
70
128
71
19
72
22
73
20
0
VERTEX
8
OBJECT__18
10
0
20
0
30
0
70
128
71
19
72
23
73
24
0
VERTEX
8
OBJECT__18
10
0
20
0
30
0
70
128
71
24
72
22
73
19
0
VERTEX
8
OBJECT__18
10
0
20
0
30
0
70
128
71
1
72
25
73
23
0
VERTEX
8
OBJECT__18
10
0
20
0
30
0
70
128
71
1
72
26
73
25
0
VERTEX
8
OBJECT__18
10
0
20
0
30
0
70
128
71
27
72
28
73
17
0
VERTEX
8
OBJECT__18
10
0
20
0
30
0
70
128
71
27
72
21
73
28
0
VERTEX
8
OBJECT__18
10
0
20
0
30
0
70
128
71
10
72
14
73
29
0
VERTEX
8
OBJECT__18
10
0
20
0
30
0
70
128
71
29
72
30
73
10
0
VERTEX
8
OBJECT__18
10
0
20
0
30
0
70
128
71
14
72
31
73
32
0
VERTEX
8
OBJECT__18
10
0
20
0
30
0
70
128
71
32
72
29
73
14
0
VERTEX
8
OBJECT__18
10
0
20
0
30
0
70
128
71
33
72
34
73
35
0
VERTEX
8
OBJECT__18
10
0
20
0
30
0
70
128
71
35
72
36
73
33
0
VERTEX
8
OBJECT__18
10
0
20
0
30
0
70
128
71
33
72
37
73
34
0
VERTEX
8
OBJECT__18
10
0
20
0
30
0
70
128
71
13
72
38
73
39
0
VERTEX
8
OBJECT__18
10
0
20
0
30
0
70
128
71
39
72
33
73
13
0
VERTEX
8
OBJECT__18
10
0
20
0
30
0
70
128
71
40
72
41
73
42
0
VERTEX
8
OBJECT__18
10
0
20
0
30
0
70
128
71
43
72
44
73
41
0
VERTEX
8
OBJECT__18
10
0
20
0
30
0
70
128
71
43
72
45
73
44
0
VERTEX
8
OBJECT__18
10
0
20
0
30
0
70
128
71
41
72
40
73
43
0
VERTEX
8
OBJECT__18
10
0
20
0
30
0
70
128
71
46
72
47
73
48
0
VERTEX
8
OBJECT__18
10
0
20
0
30
0
70
128
71
47
72
49
73
48
0
VERTEX
8
OBJECT__18
10
0
20
0
30
0
70
128
71
47
72
50
73
49
0
VERTEX
8
OBJECT__18
10
0
20
0
30
0
70
128
71
47
72
51
73
52
0
VERTEX
8
OBJECT__18
10
0
20
0
30
0
70
128
71
51
72
53
73
52
0
VERTEX
8
OBJECT__18
10
0
20
0
30
0
70
128
71
43
72
46
73
54
0
VERTEX
8
OBJECT__18
10
0
20
0
30
0
70
128
71
46
72
55
73
54
0
VERTEX
8
OBJECT__18
10
0
20
0
30
0
70
128
71
56
72
57
73
58
0
VERTEX
8
OBJECT__18
10
0
20
0
30
0
70
128
71
56
72
59
73
60
0
VERTEX
8
OBJECT__18
10
0
20
0
30
0
70
128
71
60
72
61
73
56
0
VERTEX
8
OBJECT__18
10
0
20
0
30
0
70
128
71
61
72
57
73
56
0
VERTEX
8
OBJECT__18
10
0
20
0
30
0
70
128
71
40
72
62
73
63
0
VERTEX
8
OBJECT__18
10
0
20
0
30
0
70
128
71
63
72
59
73
40
0
VERTEX
8
OBJECT__18
10
0
20
0
30
0
70
128
71
64
72
65
73
66
0
VERTEX
8
OBJECT__18
10
0
20
0
30
0
70
128
71
66
72
67
73
64
0
VERTEX
8
OBJECT__18
10
0
20
0
30
0
70
128
71
67
72
68
73
64
0
VERTEX
8
OBJECT__18
10
0
20
0
30
0
70
128
71
65
72
56
73
69
0
VERTEX
8
OBJECT__18
10
0
20
0
30
0
70
128
71
69
72
70
73
65
0
VERTEX
8
OBJECT__18
10
0
20
0
30
0
70
128
71
2
72
64
73
71
0
VERTEX
8
OBJECT__18
10
0
20
0
30
0
70
128
71
71
72
72
73
2
0
VERTEX
8
OBJECT__18
10
0
20
0
30
0
70
128
71
64
72
73
73
71
0
VERTEX
8
OBJECT__18
10
0
20
0
30
0
70
128
71
43
72
74
73
75
0
VERTEX
8
OBJECT__18
10
0
20
0
30
0
70
128
71
40
72
76
73
74
0
VERTEX
8
OBJECT__18
10
0
20
0
30
0
70
128
71
74
72
43
73
40
0
VERTEX
8
OBJECT__18
10
0
20
0
30
0
70
128
71
47
72
46
73
77
0
VERTEX
8
OBJECT__18
10
0
20
0
30
0
70
128
71
46
72
78
73
79
0
VERTEX
8
OBJECT__18
10
0
20
0
30
0
70
128
71
79
72
77
73
46
0
VERTEX
8
OBJECT__18
10
0
20
0
30
0
70
128
71
51
72
47
73
80
0
VERTEX
8
OBJECT__18
10
0
20
0
30
0
70
128
71
47
72
81
73
80
0
VERTEX
8
OBJECT__18
10
0
20
0
30
0
70
128
71
47
72
82
73
81
0
VERTEX
8
OBJECT__18
10
0
20
0
30
0
70
128
71
80
72
83
73
51
0
VERTEX
8
OBJECT__18
10
0
20
0
30
0
70
128
71
46
72
43
73
84
0
VERTEX
8
OBJECT__18
10
0
20
0
30
0
70
128
71
43
72
85
73
84
0
VERTEX
8
OBJECT__18
10
0
20
0
30
0
70
128
71
56
72
86
73
87
0
VERTEX
8
OBJECT__18
10
0
20
0
30
0
70
128
71
56
72
88
73
86
0
VERTEX
8
OBJECT__18
10
0
20
0
30
0
70
128
71
87
72
59
73
56
0
VERTEX
8
OBJECT__18
10
0
20
0
30
0
70
128
71
65
72
89
73
88
0
VERTEX
8
OBJECT__18
10
0
20
0
30
0
70
128
71
88
72
56
73
65
0
VERTEX
8
OBJECT__18
10
0
20
0
30
0
70
128
71
40
72
59
73
90
0
VERTEX
8
OBJECT__18
10
0
20
0
30
0
70
128
71
90
72
91
73
40
0
VERTEX
8
OBJECT__18
10
0
20
0
30
0
70
128
71
91
72
92
73
40
0
VERTEX
8
OBJECT__18
10
0
20
0
30
0
70
128
71
59
72
93
73
94
0
VERTEX
8
OBJECT__18
10
0
20
0
30
0
70
128
71
94
72
90
73
59
0
VERTEX
8
OBJECT__18
10
0
20
0
30
0
70
128
71
64
72
95
73
96
0
VERTEX
8
OBJECT__18
10
0
20
0
30
0
70
128
71
64
72
97
73
95
0
VERTEX
8
OBJECT__18
10
0
20
0
30
0
70
128
71
96
72
65
73
64
0
VERTEX
8
OBJECT__18
10
0
20
0
30
0
70
128
71
2
72
8
73
98
0
VERTEX
8
OBJECT__18
10
0
20
0
30
0
70
128
71
98
72
64
73
2
0
VERTEX
8
OBJECT__18
10
0
20
0
30
0
70
128
71
10
72
13
73
99
0
VERTEX
8
OBJECT__18
10
0
20
0
30
0
70
128
71
13
72
100
73
99
0
VERTEX
8
OBJECT__18
10
0
20
0
30
0
70
128
71
15
72
101
73
102
0
VERTEX
8
OBJECT__18
10
0
20
0
30
0
70
128
71
14
72
103
73
101
0
VERTEX
8
OBJECT__18
10
0
20
0
30
0
70
128
71
14
72
104
73
103
0
VERTEX
8
OBJECT__18
10
0
20
0
30
0
70
128
71
101
72
15
73
14
0
VERTEX
8
OBJECT__18
10
0
20
0
30
0
70
128
71
19
72
27
73
105
0
VERTEX
8
OBJECT__18
10
0
20
0
30
0
70
128
71
27
72
106
73
105
0
VERTEX
8
OBJECT__18
10
0
20
0
30
0
70
128
71
106
72
27
73
15
0
VERTEX
8
OBJECT__18
10
0
20
0
30
0
70
128
71
15
72
107
73
108
0
VERTEX
8
OBJECT__18
10
0
20
0
30
0
70
128
71
15
72
108
73
106
0
VERTEX
8
OBJECT__18
10
0
20
0
30
0
70
128
71
19
72
109
73
110
0
VERTEX
8
OBJECT__18
10
0
20
0
30
0
70
128
71
110
72
1
73
19
0
VERTEX
8
OBJECT__18
10
0
20
0
30
0
70
128
71
19
72
111
73
109
0
VERTEX
8
OBJECT__18
10
0
20
0
30
0
70
128
71
10
72
112
73
113
0
VERTEX
8
OBJECT__18
10
0
20
0
30
0
70
128
71
113
72
14
73
10
0
VERTEX
8
OBJECT__18
10
0
20
0
30
0
70
128
71
10
72
114
73
115
0
VERTEX
8
OBJECT__18
10
0
20
0
30
0
70
128
71
115
72
112
73
10
0
VERTEX
8
OBJECT__18
10
0
20
0
30
0
70
128
71
36
72
116
73
117
0
VERTEX
8
OBJECT__18
10
0
20
0
30
0
70
128
71
117
72
33
73
36
0
VERTEX
8
OBJECT__18
10
0
20
0
30
0
70
128
71
117
72
118
73
33
0
VERTEX
8
OBJECT__18
10
0
20
0
30
0
70
128
71
13
72
119
73
120
0
VERTEX
8
OBJECT__18
10
0
20
0
30
0
70
128
71
33
72
121
73
119
0
VERTEX
8
OBJECT__18
10
0
20
0
30
0
70
128
71
119
72
13
73
33
0
VERTEX
8
OBJECT__18
10
0
20
0
30
0
70
128
71
122
72
51
73
123
0
VERTEX
8
OBJECT__18
10
0
20
0
30
0
70
128
71
123
72
124
73
122
0
VERTEX
8
OBJECT__18
10
0
20
0
30
0
70
128
71
124
72
125
73
122
0
VERTEX
8
OBJECT__18
10
0
20
0
30
0
70
128
71
51
72
126
73
123
0
VERTEX
8
OBJECT__18
10
0
20
0
30
0
70
128
71
51
72
127
73
128
0
VERTEX
8
OBJECT__18
10
0
20
0
30
0
70
128
71
127
72
129
73
128
0
VERTEX
8
OBJECT__18
10
0
20
0
30
0
70
128
71
128
72
130
73
51
0
VERTEX
8
OBJECT__18
10
0
20
0
30
0
70
128
71
131
72
36
73
132
0
VERTEX
8
OBJECT__18
10
0
20
0
30
0
70
128
71
36
72
133
73
132
0
VERTEX
8
OBJECT__18
10
0
20
0
30
0
70
128
71
36
72
134
73
135
0
VERTEX
8
OBJECT__18
10
0
20
0
30
0
70
128
71
134
72
131
73
136
0
VERTEX
8
OBJECT__18
10
0
20
0
30
0
70
128
71
136
72
137
73
134
0
VERTEX
8
OBJECT__18
10
0
20
0
30
0
70
128
71
134
72
36
73
131
0
VERTEX
8
OBJECT__18
10
0
20
0
30
0
70
128
71
136
72
138
73
137
0
VERTEX
8
OBJECT__18
10
0
20
0
30
0
70
128
71
135
72
116
73
36
0
VERTEX
8
OBJECT__18
10
0
20
0
30
0
70
128
71
132
72
139
73
131
0
VERTEX
8
OBJECT__18
10
0
20
0
30
0
70
128
71
130
72
53
73
51
0
VERTEX
8
OBJECT__18
10
0
20
0
30
0
70
128
71
122
72
127
73
51
0
VERTEX
8
OBJECT__18
10
0
20
0
30
0
70
128
71
120
72
100
73
13
0
VERTEX
8
OBJECT__18
10
0
20
0
30
0
70
128
71
118
72
121
73
33
0
VERTEX
8
OBJECT__18
10
0
20
0
30
0
70
128
71
113
72
104
73
14
0
VERTEX
8
OBJECT__18
10
0
20
0
30
0
70
128
71
110
72
9
73
1
0
VERTEX
8
OBJECT__18
10
0
20
0
30
0
70
128
71
105
72
111
73
19
0
VERTEX
8
OBJECT__18
10
0
20
0
30
0
70
128
71
102
72
107
73
15
0
VERTEX
8
OBJECT__18
10
0
20
0
30
0
70
128
71
99
72
114
73
10
0
VERTEX
8
OBJECT__18
10
0
20
0
30
0
70
128
71
98
72
97
73
64
0
VERTEX
8
OBJECT__18
10
0
20
0
30
0
70
128
71
96
72
89
73
65
0
VERTEX
8
OBJECT__18
10
0
20
0
30
0
70
128
71
92
72
76
73
40
0
VERTEX
8
OBJECT__18
10
0
20
0
30
0
70
128
71
87
72
93
73
59
0
VERTEX
8
OBJECT__18
10
0
20
0
30
0
70
128
71
84
72
78
73
46
0
VERTEX
8
OBJECT__18
10
0
20
0
30
0
70
128
71
83
72
126
73
51
0
VERTEX
8
OBJECT__18
10
0
20
0
30
0
70
128
71
77
72
82
73
47
0
VERTEX
8
OBJECT__18
10
0
20
0
30
0
70
128
71
75
72
85
73
43
0
VERTEX
8
OBJECT__18
10
0
20
0
30
0
70
128
71
72
72
5
73
2
0
VERTEX
8
OBJECT__18
10
0
20
0
30
0
70
128
71
70
72
66
73
65
0
VERTEX
8
OBJECT__18
10
0
20
0
30
0
70
128
71
68
72
73
73
64
0
VERTEX
8
OBJECT__18
10
0
20
0
30
0
70
128
71
63
72
60
73
59
0
VERTEX
8
OBJECT__18
10
0
20
0
30
0
70
128
71
58
72
69
73
56
0
VERTEX
8
OBJECT__18
10
0
20
0
30
0
70
128
71
54
72
45
73
43
0
VERTEX
8
OBJECT__18
10
0
20
0
30
0
70
128
71
52
72
50
73
47
0
VERTEX
8
OBJECT__18
10
0
20
0
30
0
70
128
71
48
72
55
73
46
0
VERTEX
8
OBJECT__18
10
0
20
0
30
0
70
128
71
42
72
62
73
40
0
VERTEX
8
OBJECT__18
10
0
20
0
30
0
70
128
71
39
72
37
73
33
0
VERTEX
8
OBJECT__18
10
0
20
0
30
0
70
128
71
35
72
133
73
36
0
VERTEX
8
OBJECT__18
10
0
20
0
30
0
70
128
71
30
72
11
73
10
0
VERTEX
8
OBJECT__18
10
0
20
0
30
0
70
128
71
17
72
15
73
27
0
VERTEX
8
OBJECT__18
10
0
20
0
30
0
70
128
71
23
72
19
73
1
0
VERTEX
8
OBJECT__18
10
0
20
0
30
0
70
128
71
21
72
27
73
19
0
VERTEX
8
OBJECT__18
10
0
20
0
30
0
70
128
71
16
72
31
73
14
0
VERTEX
8
OBJECT__18
10
0
20
0
30
0
70
128
71
12
72
38
73
13
0
VERTEX
8
OBJECT__18
10
0
20
0
30
0
70
128
71
4
72
26
73
1
0
SEQEND
8
OBJECT__18
0
POLYLINE
8
OBJECT__19
66
1
70
64
71
83
72
102
62
253
0
VERTEX
8
OBJECT__19
10
42.069000
20
0.003000
30
83.635002
70
192
0
VERTEX
8
OBJECT__19
10
41.036999
20
0.003000
30
85.797997
70
192
0
VERTEX
8
OBJECT__19
10
40.356998
20
-5.566000
30
85.560997
70
192
0
VERTEX
8
OBJECT__19
10
43.102001
20
-5.994000
30
81.844002
70
192
0
VERTEX
8
OBJECT__19
10
45.386002
20
-6.448000
30
81.057999
70
192
0
VERTEX
8
OBJECT__19
10
46.089001
20
-2.631000
30
81.239998
70
192
0
VERTEX
8
OBJECT__19
10
43.862000
20
0.004000
30
82.044998
70
192
0
VERTEX
8
OBJECT__19
10
46.167000
20
0.001000
30
81.260002
70
192
0
VERTEX
8
OBJECT__19
10
40.952999
20
-0.121000
30
88.285004
70
192
0
VERTEX
8
OBJECT__19
10
40.646000
20
-3.735000
30
88.166000
70
192
0
VERTEX
8
OBJECT__19
10
39.362000
20
-11.011000
30
82.851997
70
192
0
VERTEX
8
OBJECT__19
10
38.400002
20
-10.787000
30
84.914001
70
192
0
VERTEX
8
OBJECT__19
10
35.342999
20
-15.413000
30
84.000000
70
192
0
VERTEX
8
OBJECT__19
10
41.373001
20
-5.671000
30
83.426003
70
192
0
VERTEX
8
OBJECT__19
10
38.165001
20
-10.976000
30
87.255997
70
192
0
VERTEX
8
OBJECT__19
10
36.550999
20
-13.655000
30
86.700996
70
192
0
VERTEX
8
OBJECT__19
10
36.521999
20
-13.691000
30
86.692001
70
192
0
VERTEX
8
OBJECT__19
10
39.750999
20
-7.349000
30
87.829002
70
192
0
VERTEX
8
OBJECT__19
10
40.049000
20
-6.146000
30
87.941002
70
192
0
VERTEX
8
OBJECT__19
10
38.389000
20
-10.604000
30
87.333000
70
192
0
VERTEX
8
OBJECT__19
10
40.161999
20
-5.687000
30
87.984001
70
192
0
VERTEX
8
OBJECT__19
10
41.370998
20
5.672000
30
83.425003
70
192
0
VERTEX
8
OBJECT__19
10
39.360001
20
11.017000
30
82.851997
70
192
0
VERTEX
8
OBJECT__19
10
38.398998
20
10.794000
30
84.914001
70
192
0
VERTEX
8
OBJECT__19
10
36.206001
20
15.770000
30
82.036003
70
192
0
VERTEX
8
OBJECT__19
10
35.342999
20
15.415000
30
84.000000
70
192
0
VERTEX
8
OBJECT__19
10
36.535000
20
13.679000
30
86.698997
70
192
0
VERTEX
8
OBJECT__19
10
34.998001
20
15.543000
30
86.210999
70
192
0
VERTEX
8
OBJECT__19
10
40.355999
20
5.567000
30
85.559998
70
192
0
VERTEX
8
OBJECT__19
10
38.646999
20
10.007000
30
87.426003
70
192
0
VERTEX
8
OBJECT__19
10
39.882999
20
6.939000
30
87.875999
70
192
0
VERTEX
8
OBJECT__19
10
38.150002
20
10.976000
30
87.251999
70
192
0
VERTEX
8
OBJECT__19
10
38.478001
20
10.426000
30
87.364998
70
192
0
VERTEX
8
OBJECT__19
10
40.692001
20
3.448000
30
88.184998
70
192
0
VERTEX
8
OBJECT__19
10
40.172001
20
5.690000
30
87.986000
70
192
0
VERTEX
8
OBJECT__19
10
40.794998
20
2.035000
30
88.224998
70
192
0
VERTEX
8
OBJECT__19
10
40.918999
20
11.620000
30
81.292999
70
192
0
VERTEX
8
OBJECT__19
10
43.101002
20
5.995000
30
81.843002
70
192
0
VERTEX
8
OBJECT__19
10
44.641998
20
8.797000
30
80.871002
70
192
0
VERTEX
8
OBJECT__19
10
45.300999
20
6.486000
30
81.038002
70
192
0
VERTEX
8
OBJECT__19
10
43.638000
20
11.009000
30
80.625999
70
192
0
VERTEX
8
OBJECT__19
10
43.001999
20
12.413000
30
80.470001
70
192
0
VERTEX
8
OBJECT__19
10
40.812000
20
15.821000
30
79.967003
70
192
0
VERTEX
8
OBJECT__19
10
37.522999
20
16.591000
30
80.514000
70
192
0
VERTEX
8
OBJECT__19
10
46.202000
20
1.198000
30
81.267998
70
192
0
VERTEX
8
OBJECT__19
10
45.721001
20
5.016000
30
81.143997
70
192
0
VERTEX
8
OBJECT__19
10
46.167000
20
0.007000
30
81.260002
70
192
0
VERTEX
8
OBJECT__19
10
40.921001
20
-11.613000
30
81.292999
70
192
0
VERTEX
8
OBJECT__19
10
37.522999
20
-16.589001
30
80.513000
70
192
0
VERTEX
8
OBJECT__19
10
40.042999
20
-16.799000
30
79.801003
70
192
0
VERTEX
8
OBJECT__19
10
39.126999
20
-17.767000
30
79.615997
70
192
0
VERTEX
8
OBJECT__19
10
42.155998
20
-13.852000
30
80.273003
70
192
0
VERTEX
8
OBJECT__19
10
44.074001
20
-10.225000
30
80.728996
70
192
0
VERTEX
8
OBJECT__19
10
43.659000
20
-11.009000
30
80.629997
70
192
0
VERTEX
8
OBJECT__19
10
42.866001
20
-12.510000
30
80.441002
70
192
0
VERTEX
8
OBJECT__19
10
36.206001
20
-15.768000
30
82.036003
70
192
0
VERTEX
8
OBJECT__19
10
31.379000
20
-19.077999
30
84.082001
70
192
0
VERTEX
8
OBJECT__19
10
34.007999
20
-16.733000
30
85.897003
70
192
0
VERTEX
8
OBJECT__19
10
34.993999
20
-15.539000
30
86.209000
70
192
0
VERTEX
8
OBJECT__19
10
31.246000
20
-19.218000
30
85.117996
70
192
0
VERTEX
8
OBJECT__19
10
31.799999
20
-19.145000
30
82.536003
70
192
0
VERTEX
8
OBJECT__19
10
31.659000
20
-19.122000
30
83.054001
70
192
0
VERTEX
8
OBJECT__19
10
32.612999
20
-19.649000
30
80.882004
70
192
0
VERTEX
8
OBJECT__19
10
32.449001
20
-19.547001
30
81.217003
70
192
0
VERTEX
8
OBJECT__19
10
32.455002
20
-19.551001
30
81.204002
70
192
0
VERTEX
8
OBJECT__19
10
33.687000
20
-20.554001
30
79.597000
70
192
0
VERTEX
8
OBJECT__19
10
34.922001
20
-21.761999
30
78.806999
70
192
0
VERTEX
8
OBJECT__19
10
36.980000
20
-20.035000
30
79.181000
70
192
0
VERTEX
8
OBJECT__19
10
33.558998
20
-20.445000
30
79.750000
70
192
0
VERTEX
8
OBJECT__19
10
33.688999
20
20.562000
30
79.588997
70
192
0
VERTEX
8
OBJECT__19
10
38.176998
20
18.881001
30
79.414001
70
192
0
VERTEX
8
OBJECT__19
10
39.130001
20
17.774000
30
79.613998
70
192
0
VERTEX
8
OBJECT__19
10
34.916000
20
21.761999
30
78.806000
70
192
0
VERTEX
8
OBJECT__19
10
32.617001
20
19.657000
30
80.867996
70
192
0
VERTEX
8
OBJECT__19
10
32.451000
20
19.552999
30
81.204002
70
192
0
VERTEX
8
OBJECT__19
10
33.554001
20
20.448000
30
79.750000
70
192
0
VERTEX
8
OBJECT__19
10
32.445000
20
19.549999
30
81.217003
70
192
0
VERTEX
8
OBJECT__19
10
31.801001
20
19.149000
30
82.519997
70
192
0
VERTEX
8
OBJECT__19
10
31.326000
20
19.104000
30
84.369003
70
192
0
VERTEX
8
OBJECT__19
10
33.813000
20
16.899000
30
85.844002
70
192
0
VERTEX
8
OBJECT__19
10
34.076000
20
16.662001
30
85.917999
70
192
0
VERTEX
8
OBJECT__19
10
31.242001
20
19.219000
30
85.115997
70
192
0
VERTEX
8
OBJECT__19
10
31.664000
20
19.136000
30
83.054001
70
192
0
VERTEX
8
OBJECT__19
10
0
20
0
30
0
70
128
71
1
72
2
73
3
0
VERTEX
8
OBJECT__19
10
0
20
0
30
0
70
128
71
4
72
5
73
6
0
VERTEX
8
OBJECT__19
10
0
20
0
30
0
70
128
71
6
72
7
73
4
0
VERTEX
8
OBJECT__19
10
0
20
0
30
0
70
128
71
6
72
8
73
7
0
VERTEX
8
OBJECT__19
10
0
20
0
30
0
70
128
71
2
72
9
73
10
0
VERTEX
8
OBJECT__19
10
0
20
0
30
0
70
128
71
10
72
3
73
2
0
VERTEX
8
OBJECT__19
10
0
20
0
30
0
70
128
71
11
72
12
73
13
0
VERTEX
8
OBJECT__19
10
0
20
0
30
0
70
128
71
14
72
3
73
12
0
VERTEX
8
OBJECT__19
10
0
20
0
30
0
70
128
71
12
72
15
73
16
0
VERTEX
8
OBJECT__19
10
0
20
0
30
0
70
128
71
16
72
13
73
12
0
VERTEX
8
OBJECT__19
10
0
20
0
30
0
70
128
71
16
72
17
73
13
0
VERTEX
8
OBJECT__19
10
0
20
0
30
0
70
128
71
12
72
3
73
18
0
VERTEX
8
OBJECT__19
10
0
20
0
30
0
70
128
71
3
72
19
73
18
0
VERTEX
8
OBJECT__19
10
0
20
0
30
0
70
128
71
18
72
20
73
12
0
VERTEX
8
OBJECT__19
10
0
20
0
30
0
70
128
71
3
72
21
73
19
0
VERTEX
8
OBJECT__19
10
0
20
0
30
0
70
128
71
22
72
23
73
24
0
VERTEX
8
OBJECT__19
10
0
20
0
30
0
70
128
71
23
72
25
73
26
0
VERTEX
8
OBJECT__19
10
0
20
0
30
0
70
128
71
24
72
26
73
27
0
VERTEX
8
OBJECT__19
10
0
20
0
30
0
70
128
71
26
72
28
73
27
0
VERTEX
8
OBJECT__19
10
0
20
0
30
0
70
128
71
29
72
24
73
30
0
VERTEX
8
OBJECT__19
10
0
20
0
30
0
70
128
71
30
72
31
73
29
0
VERTEX
8
OBJECT__19
10
0
20
0
30
0
70
128
71
24
72
32
73
33
0
VERTEX
8
OBJECT__19
10
0
20
0
30
0
70
128
71
33
72
30
73
24
0
VERTEX
8
OBJECT__19
10
0
20
0
30
0
70
128
71
1
72
22
73
29
0
VERTEX
8
OBJECT__19
10
0
20
0
30
0
70
128
71
2
72
29
73
34
0
VERTEX
8
OBJECT__19
10
0
20
0
30
0
70
128
71
29
72
35
73
34
0
VERTEX
8
OBJECT__19
10
0
20
0
30
0
70
128
71
34
72
36
73
2
0
VERTEX
8
OBJECT__19
10
0
20
0
30
0
70
128
71
37
72
38
73
39
0
VERTEX
8
OBJECT__19
10
0
20
0
30
0
70
128
71
38
72
40
73
39
0
VERTEX
8
OBJECT__19
10
0
20
0
30
0
70
128
71
39
72
41
73
37
0
VERTEX
8
OBJECT__19
10
0
20
0
30
0
70
128
71
37
72
42
73
43
0
VERTEX
8
OBJECT__19
10
0
20
0
30
0
70
128
71
43
72
44
73
37
0
VERTEX
8
OBJECT__19
10
0
20
0
30
0
70
128
71
7
72
45
73
46
0
VERTEX
8
OBJECT__19
10
0
20
0
30
0
70
128
71
7
72
47
73
45
0
VERTEX
8
OBJECT__19
10
0
20
0
30
0
70
128
71
46
72
38
73
7
0
VERTEX
8
OBJECT__19
10
0
20
0
30
0
70
128
71
38
72
37
73
23
0
VERTEX
8
OBJECT__19
10
0
20
0
30
0
70
128
71
37
72
44
73
25
0
VERTEX
8
OBJECT__19
10
0
20
0
30
0
70
128
71
7
72
38
73
22
0
VERTEX
8
OBJECT__19
10
0
20
0
30
0
70
128
71
48
72
49
73
50
0
VERTEX
8
OBJECT__19
10
0
20
0
30
0
70
128
71
49
72
51
73
50
0
VERTEX
8
OBJECT__19
10
0
20
0
30
0
70
128
71
50
72
52
73
48
0
VERTEX
8
OBJECT__19
10
0
20
0
30
0
70
128
71
7
72
1
73
14
0
VERTEX
8
OBJECT__19
10
0
20
0
30
0
70
128
71
4
72
48
73
53
0
VERTEX
8
OBJECT__19
10
0
20
0
30
0
70
128
71
48
72
54
73
53
0
VERTEX
8
OBJECT__19
10
0
20
0
30
0
70
128
71
48
72
55
73
54
0
VERTEX
8
OBJECT__19
10
0
20
0
30
0
70
128
71
4
72
14
73
11
0
VERTEX
8
OBJECT__19
10
0
20
0
30
0
70
128
71
48
72
11
73
56
0
VERTEX
8
OBJECT__19
10
0
20
0
30
0
70
128
71
57
72
13
73
58
0
VERTEX
8
OBJECT__19
10
0
20
0
30
0
70
128
71
13
72
59
73
58
0
VERTEX
8
OBJECT__19
10
0
20
0
30
0
70
128
71
58
72
60
73
57
0
VERTEX
8
OBJECT__19
10
0
20
0
30
0
70
128
71
56
72
13
73
61
0
VERTEX
8
OBJECT__19
10
0
20
0
30
0
70
128
71
13
72
62
73
61
0
VERTEX
8
OBJECT__19
10
0
20
0
30
0
70
128
71
49
72
56
73
63
0
VERTEX
8
OBJECT__19
10
0
20
0
30
0
70
128
71
56
72
64
73
65
0
VERTEX
8
OBJECT__19
10
0
20
0
30
0
70
128
71
65
72
63
73
56
0
VERTEX
8
OBJECT__19
10
0
20
0
30
0
70
128
71
66
72
67
73
68
0
VERTEX
8
OBJECT__19
10
0
20
0
30
0
70
128
71
68
72
49
73
66
0
VERTEX
8
OBJECT__19
10
0
20
0
30
0
70
128
71
49
72
69
73
66
0
VERTEX
8
OBJECT__19
10
0
20
0
30
0
70
128
71
70
72
44
73
71
0
VERTEX
8
OBJECT__19
10
0
20
0
30
0
70
128
71
44
72
72
73
71
0
VERTEX
8
OBJECT__19
10
0
20
0
30
0
70
128
71
71
72
73
73
70
0
VERTEX
8
OBJECT__19
10
0
20
0
30
0
70
128
71
25
72
74
73
75
0
VERTEX
8
OBJECT__19
10
0
20
0
30
0
70
128
71
44
72
76
73
74
0
VERTEX
8
OBJECT__19
10
0
20
0
30
0
70
128
71
74
72
25
73
44
0
VERTEX
8
OBJECT__19
10
0
20
0
30
0
70
128
71
25
72
77
73
78
0
VERTEX
8
OBJECT__19
10
0
20
0
30
0
70
128
71
78
72
26
73
25
0
VERTEX
8
OBJECT__19
10
0
20
0
30
0
70
128
71
79
72
80
73
81
0
VERTEX
8
OBJECT__19
10
0
20
0
30
0
70
128
71
79
72
82
73
80
0
VERTEX
8
OBJECT__19
10
0
20
0
30
0
70
128
71
26
72
83
73
79
0
VERTEX
8
OBJECT__19
10
0
20
0
30
0
70
128
71
79
72
28
73
26
0
VERTEX
8
OBJECT__19
10
0
20
0
30
0
70
128
71
81
72
28
73
79
0
VERTEX
8
OBJECT__19
10
0
20
0
30
0
70
128
71
78
72
83
73
26
0
VERTEX
8
OBJECT__19
10
0
20
0
30
0
70
128
71
75
72
77
73
25
0
VERTEX
8
OBJECT__19
10
0
20
0
30
0
70
128
71
70
72
76
73
44
0
VERTEX
8
OBJECT__19
10
0
20
0
30
0
70
128
71
68
72
51
73
49
0
VERTEX
8
OBJECT__19
10
0
20
0
30
0
70
128
71
63
72
69
73
49
0
VERTEX
8
OBJECT__19
10
0
20
0
30
0
70
128
71
61
72
64
73
56
0
VERTEX
8
OBJECT__19
10
0
20
0
30
0
70
128
71
57
72
62
73
13
0
VERTEX
8
OBJECT__19
10
0
20
0
30
0
70
128
71
56
72
49
73
48
0
VERTEX
8
OBJECT__19
10
0
20
0
30
0
70
128
71
11
72
48
73
4
0
VERTEX
8
OBJECT__19
10
0
20
0
30
0
70
128
71
53
72
5
73
4
0
VERTEX
8
OBJECT__19
10
0
20
0
30
0
70
128
71
14
72
4
73
7
0
VERTEX
8
OBJECT__19
10
0
20
0
30
0
70
128
71
52
72
55
73
48
0
VERTEX
8
OBJECT__19
10
0
20
0
30
0
70
128
71
22
72
1
73
7
0
VERTEX
8
OBJECT__19
10
0
20
0
30
0
70
128
71
25
72
23
73
37
0
VERTEX
8
OBJECT__19
10
0
20
0
30
0
70
128
71
23
72
22
73
38
0
VERTEX
8
OBJECT__19
10
0
20
0
30
0
70
128
71
46
72
40
73
38
0
VERTEX
8
OBJECT__19
10
0
20
0
30
0
70
128
71
43
72
72
73
44
0
VERTEX
8
OBJECT__19
10
0
20
0
30
0
70
128
71
41
72
42
73
37
0
VERTEX
8
OBJECT__19
10
0
20
0
30
0
70
128
71
36
72
9
73
2
0
VERTEX
8
OBJECT__19
10
0
20
0
30
0
70
128
71
29
72
2
73
1
0
VERTEX
8
OBJECT__19
10
0
20
0
30
0
70
128
71
31
72
35
73
29
0
VERTEX
8
OBJECT__19
10
0
20
0
30
0
70
128
71
27
72
32
73
24
0
VERTEX
8
OBJECT__19
10
0
20
0
30
0
70
128
71
26
72
24
73
23
0
VERTEX
8
OBJECT__19
10
0
20
0
30
0
70
128
71
24
72
29
73
22
0
VERTEX
8
OBJECT__19
10
0
20
0
30
0
70
128
71
20
72
15
73
12
0
VERTEX
8
OBJECT__19
10
0
20
0
30
0
70
128
71
17
72
59
73
13
0
VERTEX
8
OBJECT__19
10
0
20
0
30
0
70
128
71
12
72
11
73
14
0
VERTEX
8
OBJECT__19
10
0
20
0
30
0
70
128
71
13
72
56
73
11
0
VERTEX
8
OBJECT__19
10
0
20
0
30
0
70
128
71
10
72
21
73
3
0
VERTEX
8
OBJECT__19
10
0
20
0
30
0
70
128
71
8
72
47
73
7
0
VERTEX
8
OBJECT__19
10
0
20
0
30
0
70
128
71
3
72
14
73
1
0
SEQEND
8
OBJECT__19
0
POLYLINE
8
OBJECT__20
66
1
70
64
71
45
72
46
62
253
0
VERTEX
8
OBJECT__20
10
89.250000
20
-17.761000
30
70.991997
70
192
0
VERTEX
8
OBJECT__20
10
81.931000
20
-18.719000
30
71.097000
70
192
0
VERTEX
8
OBJECT__20
10
87.764000
20
-18.224001
30
69.825996
70
192
0
VERTEX
8
OBJECT__20
10
66.153999
20
-19.871000
30
75.136002
70
192
0
VERTEX
8
OBJECT__20
10
75.722000
20
-19.296000
30
72.171997
70
192
0
VERTEX
8
OBJECT__20
10
74.407997
20
-19.417999
30
72.400002
70
192
0
VERTEX
8
OBJECT__20
10
67.906998
20
-20.023001
30
73.526001
70
192
0
VERTEX
8
OBJECT__20
10
65.994003
20
-20.208000
30
73.771004
70
192
0
VERTEX
8
OBJECT__20
10
89.325996
20
-16.597000
30
71.793999
70
192
0
VERTEX
8
OBJECT__20
10
75.941002
20
-17.815001
30
74.407997
70
192
0
VERTEX
8
OBJECT__20
10
75.216003
20
-17.886000
30
74.516998
70
192
0
VERTEX
8
OBJECT__20
10
42.827000
20
-22.087999
30
77.587997
70
192
0
VERTEX
8
OBJECT__20
10
53.456001
20
-21.420000
30
75.376999
70
192
0
VERTEX
8
OBJECT__20
10
63.237000
20
-20.475000
30
74.124001
70
192
0
VERTEX
8
OBJECT__20
10
42.769001
20
-22.429001
30
76.282997
70
192
0
VERTEX
8
OBJECT__20
10
43.834000
20
-22.327999
30
76.193001
70
192
0
VERTEX
8
OBJECT__20
10
49.980000
20
-21.747999
30
75.671997
70
192
0
VERTEX
8
OBJECT__20
10
54.785000
20
-19.871000
30
77.271004
70
192
0
VERTEX
8
OBJECT__20
10
48.768002
20
-20.462000
30
77.912003
70
192
0
VERTEX
8
OBJECT__20
10
66.152000
20
-18.761999
30
75.877998
70
192
0
VERTEX
8
OBJECT__20
10
61.972000
20
-19.166000
30
76.505997
70
192
0
VERTEX
8
OBJECT__20
10
99.656998
20
-17.240999
30
67.092003
70
192
0
VERTEX
8
OBJECT__20
10
111.052002
20
-16.363001
30
64.108002
70
192
0
VERTEX
8
OBJECT__20
10
111.366997
20
-16.323999
30
64.556999
70
192
0
VERTEX
8
OBJECT__20
10
111.402000
20
-15.977000
30
65.412003
70
192
0
VERTEX
8
OBJECT__20
10
96.408997
20
-17.490999
30
67.943001
70
192
0
VERTEX
8
OBJECT__20
10
88.969002
20
-18.122000
30
69.563004
70
192
0
VERTEX
8
OBJECT__20
10
111.336998
20
-15.448000
30
65.953003
70
192
0
VERTEX
8
OBJECT__20
10
95.674004
20
-16.069000
30
70.283997
70
192
0
VERTEX
8
OBJECT__20
10
89.454002
20
-16.584999
30
71.768997
70
192
0
VERTEX
8
OBJECT__20
10
111.528999
20
-14.800000
30
66.167999
70
192
0
VERTEX
8
OBJECT__20
10
102.323997
20
-15.518000
30
68.695999
70
192
0
VERTEX
8
OBJECT__20
10
32.308998
20
-22.766001
30
78.450996
70
192
0
VERTEX
8
OBJECT__20
10
31.302000
20
-22.976999
30
78.288002
70
192
0
VERTEX
8
OBJECT__20
10
42.777000
20
-21.024000
30
78.299004
70
192
0
VERTEX
8
OBJECT__20
10
34.922001
20
-21.761999
30
78.806999
70
192
0
VERTEX
8
OBJECT__20
10
27.041000
20
-23.820000
30
77.081001
70
192
0
VERTEX
8
OBJECT__20
10
27.542000
20
-23.674999
30
77.741997
70
192
0
VERTEX
8
OBJECT__20
10
23.691000
20
-24.065001
30
77.401001
70
192
0
VERTEX
8
OBJECT__20
10
28.396000
20
-23.589001
30
77.818001
70
192
0
VERTEX
8
OBJECT__20
10
22.469999
20
-24.188999
30
77.292999
70
192
0
VERTEX
8
OBJECT__20
10
30.587000
20
-23.128000
30
78.171997
70
192
0
VERTEX
8
OBJECT__20
10
35.556000
20
-23.077000
30
76.705002
70
192
0
VERTEX
8
OBJECT__20
10
40.223999
20
-22.669001
30
76.499001
70
192
0
VERTEX
8
OBJECT__20
10
19.856001
20
-24.392000
30
77.178001
70
192
0
VERTEX
8
OBJECT__20
10
0
20
0
30
0
70
128
71
1
72
2
73
3
0
VERTEX
8
OBJECT__20
10
0
20
0
30
0
70
128
71
1
72
4
73
5
0
VERTEX
8
OBJECT__20
10
0
20
0
30
0
70
128
71
4
72
6
73
5
0
VERTEX
8
OBJECT__20
10
0
20
0
30
0
70
128
71
4
72
7
73
6
0
VERTEX
8
OBJECT__20
10
0
20
0
30
0
70
128
71
5
72
2
73
1
0
VERTEX
8
OBJECT__20
10
0
20
0
30
0
70
128
71
4
72
8
73
7
0
VERTEX
8
OBJECT__20
10
0
20
0
30
0
70
128
71
1
72
9
73
10
0
VERTEX
8
OBJECT__20
10
0
20
0
30
0
70
128
71
10
72
4
73
1
0
VERTEX
8
OBJECT__20
10
0
20
0
30
0
70
128
71
10
72
11
73
4
0
VERTEX
8
OBJECT__20
10
0
20
0
30
0
70
128
71
4
72
12
73
13
0
VERTEX
8
OBJECT__20
10
0
20
0
30
0
70
128
71
13
72
14
73
4
0
VERTEX
8
OBJECT__20
10
0
20
0
30
0
70
128
71
12
72
15
73
16
0
VERTEX
8
OBJECT__20
10
0
20
0
30
0
70
128
71
16
72
17
73
12
0
VERTEX
8
OBJECT__20
10
0
20
0
30
0
70
128
71
17
72
13
73
12
0
VERTEX
8
OBJECT__20
10
0
20
0
30
0
70
128
71
12
72
4
73
18
0
VERTEX
8
OBJECT__20
10
0
20
0
30
0
70
128
71
18
72
19
73
12
0
VERTEX
8
OBJECT__20
10
0
20
0
30
0
70
128
71
4
72
20
73
21
0
VERTEX
8
OBJECT__20
10
0
20
0
30
0
70
128
71
21
72
18
73
4
0
VERTEX
8
OBJECT__20
10
0
20
0
30
0
70
128
71
22
72
23
73
24
0
VERTEX
8
OBJECT__20
10
0
20
0
30
0
70
128
71
24
72
25
73
22
0
VERTEX
8
OBJECT__20
10
0
20
0
30
0
70
128
71
1
72
26
73
22
0
VERTEX
8
OBJECT__20
10
0
20
0
30
0
70
128
71
22
72
25
73
1
0
VERTEX
8
OBJECT__20
10
0
20
0
30
0
70
128
71
1
72
27
73
26
0
VERTEX
8
OBJECT__20
10
0
20
0
30
0
70
128
71
28
72
29
73
30
0
VERTEX
8
OBJECT__20
10
0
20
0
30
0
70
128
71
28
72
31
73
32
0
VERTEX
8
OBJECT__20
10
0
20
0
30
0
70
128
71
32
72
29
73
28
0
VERTEX
8
OBJECT__20
10
0
20
0
30
0
70
128
71
1
72
25
73
28
0
VERTEX
8
OBJECT__20
10
0
20
0
30
0
70
128
71
28
72
9
73
1
0
VERTEX
8
OBJECT__20
10
0
20
0
30
0
70
128
71
12
72
33
73
34
0
VERTEX
8
OBJECT__20
10
0
20
0
30
0
70
128
71
12
72
35
73
36
0
VERTEX
8
OBJECT__20
10
0
20
0
30
0
70
128
71
36
72
33
73
12
0
VERTEX
8
OBJECT__20
10
0
20
0
30
0
70
128
71
37
72
38
73
39
0
VERTEX
8
OBJECT__20
10
0
20
0
30
0
70
128
71
37
72
40
73
38
0
VERTEX
8
OBJECT__20
10
0
20
0
30
0
70
128
71
39
72
41
73
37
0
VERTEX
8
OBJECT__20
10
0
20
0
30
0
70
128
71
12
72
42
73
43
0
VERTEX
8
OBJECT__20
10
0
20
0
30
0
70
128
71
43
72
42
73
40
0
VERTEX
8
OBJECT__20
10
0
20
0
30
0
70
128
71
40
72
37
73
43
0
VERTEX
8
OBJECT__20
10
0
20
0
30
0
70
128
71
43
72
44
73
12
0
VERTEX
8
OBJECT__20
10
0
20
0
30
0
70
128
71
44
72
15
73
12
0
VERTEX
8
OBJECT__20
10
0
20
0
30
0
70
128
71
41
72
45
73
37
0
VERTEX
8
OBJECT__20
10
0
20
0
30
0
70
128
71
34
72
42
73
12
0
VERTEX
8
OBJECT__20
10
0
20
0
30
0
70
128
71
30
72
9
73
28
0
VERTEX
8
OBJECT__20
10
0
20
0
30
0
70
128
71
19
72
35
73
12
0
VERTEX
8
OBJECT__20
10
0
20
0
30
0
70
128
71
14
72
8
73
4
0
VERTEX
8
OBJECT__20
10
0
20
0
30
0
70
128
71
11
72
20
73
4
0
VERTEX
8
OBJECT__20
10
0
20
0
30
0
70
128
71
3
72
27
73
1
0
SEQEND
8
OBJECT__20
0
POLYLINE
8
OBJECT__21
66
1
70
64
71
37
72
39
62
253
0
VERTEX
8
OBJECT__21
10
21.795000
20
23.936001
30
78.871002
70
192
0
VERTEX
8
OBJECT__21
10
21.921000
20
23.889000
30
81.888000
70
192
0
VERTEX
8
OBJECT__21
10
22.577000
20
23.670000
30
82.180000
70
192
0
VERTEX
8
OBJECT__21
10
20.245001
20
24.278999
30
80.772003
70
192
0
VERTEX
8
OBJECT__21
10
25.413000
20
22.983999
30
79.864998
70
192
0
VERTEX
8
OBJECT__21
10
26.922001
20
23.777000
30
77.634003
70
192
0
VERTEX
8
OBJECT__21
10
23.688000
20
24.058001
30
77.425003
70
192
0
VERTEX
8
OBJECT__21
10
27.538000
20
23.674999
30
77.723999
70
192
0
VERTEX
8
OBJECT__21
10
29.021000
20
21.559999
30
80.620003
70
192
0
VERTEX
8
OBJECT__21
10
31.801001
20
19.149000
30
82.519997
70
192
0
VERTEX
8
OBJECT__21
10
32.445000
20
19.549999
30
81.217003
70
192
0
VERTEX
8
OBJECT__21
10
27.704000
20
21.521999
30
84.120003
70
192
0
VERTEX
8
OBJECT__21
10
31.326000
20
19.104000
30
84.369003
70
192
0
VERTEX
8
OBJECT__21
10
31.664000
20
19.136000
30
83.054001
70
192
0
VERTEX
8
OBJECT__21
10
28.041000
20
21.360001
30
84.231003
70
192
0
VERTEX
8
OBJECT__21
10
30.378000
20
19.797001
30
84.876999
70
192
0
VERTEX
8
OBJECT__21
10
31.242001
20
19.219000
30
85.115997
70
192
0
VERTEX
8
OBJECT__21
10
33.688999
20
20.562000
30
79.588997
70
192
0
VERTEX
8
OBJECT__21
10
34.916000
20
21.761999
30
78.806000
70
192
0
VERTEX
8
OBJECT__21
10
34.037998
20
22.153000
30
78.713997
70
192
0
VERTEX
8
OBJECT__21
10
32.617001
20
19.657000
30
80.867996
70
192
0
VERTEX
8
OBJECT__21
10
33.554001
20
20.448000
30
79.750000
70
192
0
VERTEX
8
OBJECT__21
10
31.308001
20
23.025000
30
78.278999
70
192
0
VERTEX
8
OBJECT__21
10
32.451000
20
19.552999
30
81.204002
70
192
0
VERTEX
8
OBJECT__21
10
19.854000
20
24.370001
30
80.512001
70
192
0
VERTEX
8
OBJECT__21
10
20.156000
20
24.267000
30
78.141998
70
192
0
VERTEX
8
OBJECT__21
10
18.729000
20
24.556000
30
79.252998
70
192
0
VERTEX
8
OBJECT__21
10
18.922001
20
24.510000
30
77.223000
70
192
0
VERTEX
8
OBJECT__21
10
18.101000
20
24.627001
30
77.924004
70
192
0
VERTEX
8
OBJECT__21
10
18.653000
20
24.568001
30
79.167999
70
192
0
VERTEX
8
OBJECT__21
10
17.990000
20
24.627001
30
77.267998
70
192
0
VERTEX
8
OBJECT__21
10
18.924000
20
24.509001
30
77.223000
70
192
0
VERTEX
8
OBJECT__21
10
19.855000
20
24.392000
30
77.178001
70
192
0
VERTEX
8
OBJECT__21
10
30.722000
20
23.146999
30
78.191002
70
192
0
VERTEX
8
OBJECT__21
10
31.146999
20
23.076000
30
78.252998
70
192
0
VERTEX
8
OBJECT__21
10
24.709000
20
22.958000
30
83.129997
70
192
0
VERTEX
8
OBJECT__21
10
23.940001
20
23.215000
30
82.787003
70
192
0
VERTEX
8
OBJECT__21
10
0
20
0
30
0
70
128
71
1
72
2
73
3
0
VERTEX
8
OBJECT__21
10
0
20
0
30
0
70
128
71
1
72
4
73
2
0
VERTEX
8
OBJECT__21
10
0
20
0
30
0
70
128
71
3
72
5
73
1
0
VERTEX
8
OBJECT__21
10
0
20
0
30
0
70
128
71
5
72
6
73
7
0
VERTEX
8
OBJECT__21
10
0
20
0
30
0
70
128
71
5
72
8
73
6
0
VERTEX
8
OBJECT__21
10
0
20
0
30
0
70
128
71
9
72
10
73
11
0
VERTEX
8
OBJECT__21
10
0
20
0
30
0
70
128
71
12
72
13
73
14
0
VERTEX
8
OBJECT__21
10
0
20
0
30
0
70
128
71
14
72
9
73
12
0
VERTEX
8
OBJECT__21
10
0
20
0
30
0
70
128
71
13
72
12
73
15
0
VERTEX
8
OBJECT__21
10
0
20
0
30
0
70
128
71
15
72
16
73
13
0
VERTEX
8
OBJECT__21
10
0
20
0
30
0
70
128
71
16
72
17
73
13
0
VERTEX
8
OBJECT__21
10
0
20
0
30
0
70
128
71
14
72
10
73
9
0
VERTEX
8
OBJECT__21
10
0
20
0
30
0
70
128
71
18
72
19
73
20
0
VERTEX
8
OBJECT__21
10
0
20
0
30
0
70
128
71
9
72
21
73
22
0
VERTEX
8
OBJECT__21
10
0
20
0
30
0
70
128
71
22
72
23
73
9
0
VERTEX
8
OBJECT__21
10
0
20
0
30
0
70
128
71
9
72
24
73
21
0
VERTEX
8
OBJECT__21
10
0
20
0
30
0
70
128
71
22
72
18
73
23
0
VERTEX
8
OBJECT__21
10
0
20
0
30
0
70
128
71
25
72
1
73
26
0
VERTEX
8
OBJECT__21
10
0
20
0
30
0
70
128
71
26
72
27
73
25
0
VERTEX
8
OBJECT__21
10
0
20
0
30
0
70
128
71
28
72
29
73
30
0
VERTEX
8
OBJECT__21
10
0
20
0
30
0
70
128
71
28
72
31
73
29
0
VERTEX
8
OBJECT__21
10
0
20
0
30
0
70
128
71
27
72
26
73
32
0
VERTEX
8
OBJECT__21
10
0
20
0
30
0
70
128
71
32
72
28
73
27
0
VERTEX
8
OBJECT__21
10
0
20
0
30
0
70
128
71
7
72
33
73
26
0
VERTEX
8
OBJECT__21
10
0
20
0
30
0
70
128
71
26
72
1
73
7
0
VERTEX
8
OBJECT__21
10
0
20
0
30
0
70
128
71
9
72
34
73
8
0
VERTEX
8
OBJECT__21
10
0
20
0
30
0
70
128
71
9
72
23
73
35
0
VERTEX
8
OBJECT__21
10
0
20
0
30
0
70
128
71
35
72
34
73
9
0
VERTEX
8
OBJECT__21
10
0
20
0
30
0
70
128
71
9
72
5
73
36
0
VERTEX
8
OBJECT__21
10
0
20
0
30
0
70
128
71
5
72
37
73
36
0
VERTEX
8
OBJECT__21
10
0
20
0
30
0
70
128
71
36
72
12
73
9
0
VERTEX
8
OBJECT__21
10
0
20
0
30
0
70
128
71
8
72
5
73
9
0
VERTEX
8
OBJECT__21
10
0
20
0
30
0
70
128
71
33
72
32
73
26
0
VERTEX
8
OBJECT__21
10
0
20
0
30
0
70
128
71
30
72
27
73
28
0
VERTEX
8
OBJECT__21
10
0
20
0
30
0
70
128
71
25
72
4
73
1
0
VERTEX
8
OBJECT__21
10
0
20
0
30
0
70
128
71
20
72
23
73
18
0
VERTEX
8
OBJECT__21
10
0
20
0
30
0
70
128
71
11
72
24
73
9
0
VERTEX
8
OBJECT__21
10
0
20
0
30
0
70
128
71
7
72
1
73
5
0
VERTEX
8
OBJECT__21
10
0
20
0
30
0
70
128
71
3
72
37
73
5
0
SEQEND
8
OBJECT__21
0
POLYLINE
8
OBJECT__22
66
1
70
64
71
219
72
299
62
253
0
VERTEX
8
OBJECT__22
10
77.142998
20
-4.234000
30
47.688999
70
192
0
VERTEX
8
OBJECT__22
10
68.083000
20
-4.244000
30
47.063999
70
192
0
VERTEX
8
OBJECT__22
10
68.195999
20
0.000000
30
46.403000
70
192
0
VERTEX
8
OBJECT__22
10
76.235001
20
-17.704000
30
64.587997
70
192
0
VERTEX
8
OBJECT__22
10
65.216003
20
-18.125000
30
63.480999
70
192
0
VERTEX
8
OBJECT__22
10
66.328003
20
-15.429000
30
57.200001
70
192
0
VERTEX
8
OBJECT__22
10
76.867996
20
-12.009000
30
53.205002
70
192
0
VERTEX
8
OBJECT__22
10
67.163002
20
-12.113000
30
52.417999
70
192
0
VERTEX
8
OBJECT__22
10
67.741997
20
-8.333000
30
49.057999
70
192
0
VERTEX
8
OBJECT__22
10
86.621002
20
-4.211000
30
47.257999
70
192
0
VERTEX
8
OBJECT__22
10
77.176003
20
0.000000
30
47.007999
70
192
0
VERTEX
8
OBJECT__22
10
77.042999
20
-8.295000
30
49.743999
70
192
0
VERTEX
8
OBJECT__22
10
86.748001
20
-8.229000
30
49.355000
70
192
0
VERTEX
8
OBJECT__22
10
86.952003
20
-11.860000
30
52.886002
70
192
0
VERTEX
8
OBJECT__22
10
76.603996
20
-15.203000
30
58.126999
70
192
0
VERTEX
8
OBJECT__22
10
87.225998
20
-14.913000
30
57.903000
70
192
0
VERTEX
8
OBJECT__22
10
99.116997
20
-16.591999
30
63.139999
70
192
0
VERTEX
8
OBJECT__22
10
87.556000
20
-17.193001
30
64.480003
70
192
0
VERTEX
8
OBJECT__22
10
59.443001
20
-4.242000
30
45.381001
70
192
0
VERTEX
8
OBJECT__22
10
51.226002
20
-4.228000
30
42.639000
70
192
0
VERTEX
8
OBJECT__22
10
51.502998
20
0.000000
30
42.033001
70
192
0
VERTEX
8
OBJECT__22
10
43.432999
20
-4.204000
30
38.835999
70
192
0
VERTEX
8
OBJECT__22
10
43.791000
20
0.000000
30
38.264999
70
192
0
VERTEX
8
OBJECT__22
10
48.977001
20
-12.195000
30
47.543999
70
192
0
VERTEX
8
OBJECT__22
10
40.540001
20
-12.176000
30
43.466999
70
192
0
VERTEX
8
OBJECT__22
10
42.355000
20
-8.299000
30
40.561001
70
192
0
VERTEX
8
OBJECT__22
10
50.389000
20
-8.334000
30
44.465000
70
192
0
VERTEX
8
OBJECT__22
10
46.967999
20
-15.689000
30
51.926998
70
192
0
VERTEX
8
OBJECT__22
10
37.960999
20
-15.726000
30
47.603001
70
192
0
VERTEX
8
OBJECT__22
10
44.327999
20
-18.694000
30
57.688999
70
192
0
VERTEX
8
OBJECT__22
10
34.580002
20
-18.840000
30
53.039001
70
192
0
VERTEX
8
OBJECT__22
10
36.973000
20
-22.746000
30
73.745003
70
192
0
VERTEX
8
OBJECT__22
10
25.205999
20
-23.323999
30
68.178001
70
192
0
VERTEX
8
OBJECT__22
10
30.348000
20
-21.409000
30
59.862000
70
192
0
VERTEX
8
OBJECT__22
10
41.013000
20
-21.087000
30
64.922997
70
192
0
VERTEX
8
OBJECT__22
10
54.560001
20
-18.455000
30
61.175999
70
192
0
VERTEX
8
OBJECT__22
10
59.638000
20
0.000000
30
44.744999
70
192
0
VERTEX
8
OBJECT__22
10
57.858002
20
-12.174000
30
50.528999
70
192
0
VERTEX
8
OBJECT__22
10
58.854000
20
-8.346000
30
47.298000
70
192
0
VERTEX
8
OBJECT__22
10
56.436001
20
-15.590000
30
55.129002
70
192
0
VERTEX
8
OBJECT__22
10
52.193001
20
-20.632000
30
68.765999
70
192
0
VERTEX
8
OBJECT__22
10
63.797001
20
-20.048000
30
71.362000
70
192
0
VERTEX
8
OBJECT__22
10
36.973000
20
22.746000
30
73.745003
70
192
0
VERTEX
8
OBJECT__22
10
41.013000
20
21.087000
30
64.924004
70
192
0
VERTEX
8
OBJECT__22
10
30.348000
20
21.409000
30
59.862000
70
192
0
VERTEX
8
OBJECT__22
10
44.327000
20
18.694000
30
57.688999
70
192
0
VERTEX
8
OBJECT__22
10
34.580002
20
18.840000
30
53.039001
70
192
0
VERTEX
8
OBJECT__22
10
46.967999
20
15.689000
30
51.928001
70
192
0
VERTEX
8
OBJECT__22
10
37.960999
20
15.727000
30
47.604000
70
192
0
VERTEX
8
OBJECT__22
10
52.192001
20
20.632000
30
68.765999
70
192
0
VERTEX
8
OBJECT__22
10
54.560001
20
18.455000
30
61.175999
70
192
0
VERTEX
8
OBJECT__22
10
63.797001
20
20.048000
30
71.362999
70
192
0
VERTEX
8
OBJECT__22
10
65.216003
20
18.125000
30
63.480999
70
192
0
VERTEX
8
OBJECT__22
10
56.436001
20
15.590000
30
55.130001
70
192
0
VERTEX
8
OBJECT__22
10
66.328003
20
15.429000
30
57.200001
70
192
0
VERTEX
8
OBJECT__22
10
57.858002
20
12.175000
30
50.528999
70
192
0
VERTEX
8
OBJECT__22
10
48.977001
20
12.195000
30
47.543999
70
192
0
VERTEX
8
OBJECT__22
10
40.540001
20
12.177000
30
43.466999
70
192
0
VERTEX
8
OBJECT__22
10
50.388000
20
8.334000
30
44.465000
70
192
0
VERTEX
8
OBJECT__22
10
42.355000
20
8.299000
30
40.561001
70
192
0
VERTEX
8
OBJECT__22
10
51.226002
20
4.228000
30
42.639000
70
192
0
VERTEX
8
OBJECT__22
10
43.432999
20
4.204000
30
38.835999
70
192
0
VERTEX
8
OBJECT__22
10
58.854000
20
8.346000
30
47.298000
70
192
0
VERTEX
8
OBJECT__22
10
59.443001
20
4.242000
30
45.381001
70
192
0
VERTEX
8
OBJECT__22
10
67.163002
20
12.113000
30
52.417999
70
192
0
VERTEX
8
OBJECT__22
10
67.741997
20
8.333000
30
49.057999
70
192
0
VERTEX
8
OBJECT__22
10
68.083000
20
4.244000
30
47.063999
70
192
0
VERTEX
8
OBJECT__22
10
76.603996
20
15.203000
30
58.127998
70
192
0
VERTEX
8
OBJECT__22
10
76.867996
20
12.009000
30
53.205002
70
192
0
VERTEX
8
OBJECT__22
10
76.235001
20
17.704000
30
64.588997
70
192
0
VERTEX
8
OBJECT__22
10
87.556000
20
17.193001
30
64.481003
70
192
0
VERTEX
8
OBJECT__22
10
87.225998
20
14.913000
30
57.903000
70
192
0
VERTEX
8
OBJECT__22
10
86.952003
20
11.860000
30
52.886002
70
192
0
VERTEX
8
OBJECT__22
10
77.042999
20
8.295000
30
49.743999
70
192
0
VERTEX
8
OBJECT__22
10
77.142998
20
4.234000
30
47.688999
70
192
0
VERTEX
8
OBJECT__22
10
86.748001
20
8.229000
30
49.355000
70
192
0
VERTEX
8
OBJECT__22
10
86.621002
20
4.211000
30
47.257999
70
192
0
VERTEX
8
OBJECT__22
10
86.578003
20
0.000000
30
46.562000
70
192
0
VERTEX
8
OBJECT__22
10
99.116997
20
16.591999
30
63.139999
70
192
0
VERTEX
8
OBJECT__22
10
98.153999
20
14.556000
30
56.515999
70
192
0
VERTEX
8
OBJECT__22
10
35.556000
20
23.077000
30
76.703003
70
192
0
VERTEX
8
OBJECT__22
10
39.660000
20
22.722000
30
76.533997
70
192
0
VERTEX
8
OBJECT__22
10
42.768002
20
22.427999
30
76.273003
70
192
0
VERTEX
8
OBJECT__22
10
43.859001
20
22.325001
30
76.181000
70
192
0
VERTEX
8
OBJECT__22
10
49.977001
20
21.747000
30
75.667000
70
192
0
VERTEX
8
OBJECT__22
10
53.618999
20
21.403000
30
75.360001
70
192
0
VERTEX
8
OBJECT__22
10
63.241001
20
20.474001
30
74.129997
70
192
0
VERTEX
8
OBJECT__22
10
65.994003
20
20.208000
30
73.778000
70
192
0
VERTEX
8
OBJECT__22
10
67.600998
20
20.052000
30
73.571999
70
192
0
VERTEX
8
OBJECT__22
10
74.414001
20
19.419001
30
72.398003
70
192
0
VERTEX
8
OBJECT__22
10
81.685997
20
18.743000
30
71.143997
70
192
0
VERTEX
8
OBJECT__22
10
75.722000
20
19.297001
30
72.171997
70
192
0
VERTEX
8
OBJECT__22
10
88.969002
20
18.122000
30
69.561996
70
192
0
VERTEX
8
OBJECT__22
10
96.329002
20
17.493999
30
67.961998
70
192
0
VERTEX
8
OBJECT__22
10
87.763000
20
18.225000
30
69.823997
70
192
0
VERTEX
8
OBJECT__22
10
99.655998
20
17.239000
30
67.091003
70
192
0
VERTEX
8
OBJECT__22
10
111.052002
20
16.363001
30
64.108002
70
192
0
VERTEX
8
OBJECT__22
10
107.573997
20
16.056000
30
61.407001
70
192
0
VERTEX
8
OBJECT__22
10
102.336998
20
15.015000
30
57.320999
70
192
0
VERTEX
8
OBJECT__22
10
100.738998
20
14.400000
30
56.056999
70
192
0
VERTEX
8
OBJECT__22
10
106.591003
20
15.969000
30
60.643002
70
192
0
VERTEX
8
OBJECT__22
10
104.431000
20
15.484000
30
58.956001
70
192
0
VERTEX
8
OBJECT__22
10
98.626999
20
13.586000
30
54.387001
70
192
0
VERTEX
8
OBJECT__22
10
95.472000
20
11.742000
30
51.848000
70
192
0
VERTEX
8
OBJECT__22
10
95.426003
20
11.702000
30
51.810001
70
192
0
VERTEX
8
OBJECT__22
10
97.723000
20
13.057000
30
53.659000
70
192
0
VERTEX
8
OBJECT__22
10
97.664001
20
13.023000
30
53.612000
70
192
0
VERTEX
8
OBJECT__22
10
91.781998
20
8.171000
30
48.798000
70
192
0
VERTEX
8
OBJECT__22
10
91.772003
20
8.159000
30
48.789001
70
192
0
VERTEX
8
OBJECT__22
10
93.028000
20
9.671000
30
49.840000
70
192
0
VERTEX
8
OBJECT__22
10
94.544998
20
10.956000
30
51.085999
70
192
0
VERTEX
8
OBJECT__22
10
89.936996
20
5.147000
30
47.235001
70
192
0
VERTEX
8
OBJECT__22
10
89.723999
20
4.484000
30
47.049999
70
192
0
VERTEX
8
OBJECT__22
10
91.303001
20
7.594000
30
48.396000
70
192
0
VERTEX
8
OBJECT__22
10
88.862999
20
0.274000
30
46.306000
70
192
0
VERTEX
8
OBJECT__22
10
88.883003
20
0.006000
30
46.324001
70
192
0
VERTEX
8
OBJECT__22
10
89.161003
20
2.741000
30
46.563000
70
192
0
VERTEX
8
OBJECT__22
10
89.626999
20
4.185000
30
46.966000
70
192
0
VERTEX
8
OBJECT__22
10
88.883003
20
0.002000
30
46.324001
70
192
0
VERTEX
8
OBJECT__22
10
89.040001
20
-2.131000
30
46.459999
70
192
0
VERTEX
8
OBJECT__22
10
89.685997
20
-4.520000
30
47.018002
70
192
0
VERTEX
8
OBJECT__22
10
90.810997
20
-6.837000
30
47.980999
70
192
0
VERTEX
8
OBJECT__22
10
89.598000
20
-4.194000
30
46.942001
70
192
0
VERTEX
8
OBJECT__22
10
89.682999
20
-4.509000
30
47.014999
70
192
0
VERTEX
8
OBJECT__22
10
94.473999
20
-10.984000
30
51.033001
70
192
0
VERTEX
8
OBJECT__22
10
94.514999
20
-11.012000
30
51.066002
70
192
0
VERTEX
8
OBJECT__22
10
92.367996
20
-8.960000
30
49.291000
70
192
0
VERTEX
8
OBJECT__22
10
91.778999
20
-8.157000
30
48.794998
70
192
0
VERTEX
8
OBJECT__22
10
91.787003
20
-8.168000
30
48.801998
70
192
0
VERTEX
8
OBJECT__22
10
97.651001
20
-13.050000
30
53.604000
70
192
0
VERTEX
8
OBJECT__22
10
97.723999
20
-13.084000
30
53.661999
70
192
0
VERTEX
8
OBJECT__22
10
97.171997
20
-12.824000
30
53.222000
70
192
0
VERTEX
8
OBJECT__22
10
95.464996
20
-11.660000
30
51.837002
70
192
0
VERTEX
8
OBJECT__22
10
98.153999
20
-14.556000
30
56.515999
70
192
0
VERTEX
8
OBJECT__22
10
100.457001
20
-14.373000
30
55.840000
70
192
0
VERTEX
8
OBJECT__22
10
104.334999
20
-15.542000
30
58.884998
70
192
0
VERTEX
8
OBJECT__22
10
104.418999
20
-15.555000
30
58.950001
70
192
0
VERTEX
8
OBJECT__22
10
100.709000
20
-14.449000
30
56.037998
70
192
0
VERTEX
8
OBJECT__22
10
99.656998
20
-17.240999
30
67.092003
70
192
0
VERTEX
8
OBJECT__22
10
107.579002
20
-16.049000
30
61.410000
70
192
0
VERTEX
8
OBJECT__22
10
108.700996
20
-16.225000
30
62.282001
70
192
0
VERTEX
8
OBJECT__22
10
96.408997
20
-17.490999
30
67.943001
70
192
0
VERTEX
8
OBJECT__22
10
88.969002
20
-18.122000
30
69.563004
70
192
0
VERTEX
8
OBJECT__22
10
87.764000
20
-18.224001
30
69.825996
70
192
0
VERTEX
8
OBJECT__22
10
81.931000
20
-18.719000
30
71.097000
70
192
0
VERTEX
8
OBJECT__22
10
74.407997
20
-19.417999
30
72.400002
70
192
0
VERTEX
8
OBJECT__22
10
75.722000
20
-19.296000
30
72.171997
70
192
0
VERTEX
8
OBJECT__22
10
67.906998
20
-20.023001
30
73.526001
70
192
0
VERTEX
8
OBJECT__22
10
65.994003
20
-20.208000
30
73.771004
70
192
0
VERTEX
8
OBJECT__22
10
63.237000
20
-20.475000
30
74.124001
70
192
0
VERTEX
8
OBJECT__22
10
53.456001
20
-21.420000
30
75.376999
70
192
0
VERTEX
8
OBJECT__22
10
49.980000
20
-21.747999
30
75.671997
70
192
0
VERTEX
8
OBJECT__22
10
43.834000
20
-22.327999
30
76.193001
70
192
0
VERTEX
8
OBJECT__22
10
42.769001
20
-22.429001
30
76.282997
70
192
0
VERTEX
8
OBJECT__22
10
40.223999
20
-22.669001
30
76.499001
70
192
0
VERTEX
8
OBJECT__22
10
27.041000
20
-23.820000
30
77.081001
70
192
0
VERTEX
8
OBJECT__22
10
19.856001
20
-24.392000
30
77.178001
70
192
0
VERTEX
8
OBJECT__22
10
19.874001
20
-24.377001
30
76.831001
70
192
0
VERTEX
8
OBJECT__22
10
35.556000
20
-23.077000
30
76.705002
70
192
0
VERTEX
8
OBJECT__22
10
20.757000
20
-23.955999
30
70.512001
70
192
0
VERTEX
8
OBJECT__22
10
20.888000
20
-23.903000
30
69.893997
70
192
0
VERTEX
8
OBJECT__22
10
20.025000
20
-24.250000
30
73.966003
70
192
0
VERTEX
8
OBJECT__22
10
23.049999
20
-22.922001
30
63.424999
70
192
0
VERTEX
8
OBJECT__22
10
25.002001
20
-21.868000
30
58.410999
70
192
0
VERTEX
8
OBJECT__22
10
22.011999
20
-23.423000
30
66.387001
70
192
0
VERTEX
8
OBJECT__22
10
22.546000
20
-23.194000
30
64.719002
70
192
0
VERTEX
8
OBJECT__22
10
25.783001
20
-21.318001
30
56.602001
70
192
0
VERTEX
8
OBJECT__22
10
27.343000
20
-20.219999
30
52.990002
70
192
0
VERTEX
8
OBJECT__22
10
28.660999
20
-19.024000
30
50.129002
70
192
0
VERTEX
8
OBJECT__22
10
25.568001
20
-21.469999
30
57.101002
70
192
0
VERTEX
8
OBJECT__22
10
31.504999
20
-15.944000
30
44.136002
70
192
0
VERTEX
8
OBJECT__22
10
31.663000
20
-15.759000
30
43.806999
70
192
0
VERTEX
8
OBJECT__22
10
29.620001
20
-18.153000
30
48.047001
70
192
0
VERTEX
8
OBJECT__22
10
28.879999
20
-18.825001
30
49.653999
70
192
0
VERTEX
8
OBJECT__22
10
31.695000
20
-15.711000
30
43.743999
70
192
0
VERTEX
8
OBJECT__22
10
33.328999
20
-13.217000
30
40.439999
70
192
0
VERTEX
8
OBJECT__22
10
34.055000
20
-11.753000
30
39.002998
70
192
0
VERTEX
8
OBJECT__22
10
34.680000
20
-10.491000
30
37.764999
70
192
0
VERTEX
8
OBJECT__22
10
33.894001
20
-12.078000
30
39.321999
70
192
0
VERTEX
8
OBJECT__22
10
36.000999
20
-6.422000
30
35.230000
70
192
0
VERTEX
8
OBJECT__22
10
36.373001
20
-4.899000
30
34.528999
70
192
0
VERTEX
8
OBJECT__22
10
35.680000
20
-7.736000
30
35.834999
70
192
0
VERTEX
8
OBJECT__22
10
35.502998
20
-8.223000
30
36.175999
70
192
0
VERTEX
8
OBJECT__22
10
36.589001
20
-3.313000
30
34.136002
70
192
0
VERTEX
8
OBJECT__22
10
36.744999
20
-2.171000
30
33.852001
70
192
0
VERTEX
8
OBJECT__22
10
36.473999
20
-4.158000
30
34.345001
70
192
0
VERTEX
8
OBJECT__22
10
36.811001
20
0.003000
30
33.737000
70
192
0
VERTEX
8
OBJECT__22
10
36.828999
20
0.620000
30
33.703999
70
192
0
VERTEX
8
OBJECT__22
10
36.623001
20
3.317000
30
34.070999
70
192
0
VERTEX
8
OBJECT__22
10
36.016998
20
6.437000
30
35.198002
70
192
0
VERTEX
8
OBJECT__22
10
36.473000
20
4.152000
30
34.348000
70
192
0
VERTEX
8
OBJECT__22
10
36.138000
20
6.015000
30
34.966000
70
192
0
VERTEX
8
OBJECT__22
10
35.348000
20
8.760000
30
36.471001
70
192
0
VERTEX
8
OBJECT__22
10
34.261002
20
11.425000
30
38.587002
70
192
0
VERTEX
8
OBJECT__22
10
35.500999
20
8.227000
30
36.178001
70
192
0
VERTEX
8
OBJECT__22
10
34.067001
20
11.784000
30
38.974998
70
192
0
VERTEX
8
OBJECT__22
10
32.889999
20
13.955000
30
41.320000
70
192
0
VERTEX
8
OBJECT__22
10
33.900002
20
12.092000
30
39.306999
70
192
0
VERTEX
8
OBJECT__22
10
31.108000
20
16.473000
30
44.945000
70
192
0
VERTEX
8
OBJECT__22
10
29.061001
20
18.711000
30
49.236000
70
192
0
VERTEX
8
OBJECT__22
10
31.499001
20
15.922000
30
44.151001
70
192
0
VERTEX
8
OBJECT__22
10
31.683001
20
15.661000
30
43.775002
70
192
0
VERTEX
8
OBJECT__22
10
28.660999
20
19.049999
30
50.117001
70
192
0
VERTEX
8
OBJECT__22
10
26.681999
20
20.729000
30
54.480999
70
192
0
VERTEX
8
OBJECT__22
10
28.879999
20
18.864000
30
49.634998
70
192
0
VERTEX
8
OBJECT__22
10
25.789000
20
21.308001
30
56.605000
70
192
0
VERTEX
8
OBJECT__22
10
25.205999
20
23.323999
30
68.178001
70
192
0
VERTEX
8
OBJECT__22
10
23.061001
20
22.914000
30
63.430000
70
192
0
VERTEX
8
OBJECT__22
10
22.032000
20
23.427000
30
66.189003
70
192
0
VERTEX
8
OBJECT__22
10
24.162001
20
22.364000
30
60.474998
70
192
0
VERTEX
8
OBJECT__22
10
25.576000
20
21.447001
30
57.112000
70
192
0
VERTEX
8
OBJECT__22
10
20.695000
20
23.979000
30
70.626999
70
192
0
VERTEX
8
OBJECT__22
10
19.997000
20
24.263000
30
74.178001
70
192
0
VERTEX
8
OBJECT__22
10
20.731001
20
23.964001
30
70.507004
70
192
0
VERTEX
8
OBJECT__22
10
21.979000
20
23.448999
30
66.365997
70
192
0
VERTEX
8
OBJECT__22
10
25.639999
20
23.934999
30
77.112000
70
192
0
VERTEX
8
OBJECT__22
10
19.871000
20
24.378000
30
76.835999
70
192
0
VERTEX
8
OBJECT__22
10
19.855000
20
24.392000
30
77.178001
70
192
0
VERTEX
8
OBJECT__22
10
111.052002
20
-16.363001
30
64.108002
70
192
0
VERTEX
8
OBJECT__22
10
0
20
0
30
0
70
128
71
1
72
2
73
3
0
VERTEX
8
OBJECT__22
10
0
20
0
30
0
70
128
71
4
72
5
73
6
0
VERTEX
8
OBJECT__22
10
0
20
0
30
0
70
128
71
7
72
8
73
9
0
VERTEX
8
OBJECT__22
10
0
20
0
30
0
70
128
71
10
72
1
73
11
0
VERTEX
8
OBJECT__22
10
0
20
0
30
0
70
128
71
12
72
9
73
2
0
VERTEX
8
OBJECT__22
10
0
20
0
30
0
70
128
71
13
72
12
73
1
0
VERTEX
8
OBJECT__22
10
0
20
0
30
0
70
128
71
14
72
7
73
12
0
VERTEX
8
OBJECT__22
10
0
20
0
30
0
70
128
71
15
72
6
73
8
0
VERTEX
8
OBJECT__22
10
0
20
0
30
0
70
128
71
16
72
15
73
7
0
VERTEX
8
OBJECT__22
10
0
20
0
30
0
70
128
71
17
72
18
73
16
0
VERTEX
8
OBJECT__22
10
0
20
0
30
0
70
128
71
18
72
4
73
15
0
VERTEX
8
OBJECT__22
10
0
20
0
30
0
70
128
71
19
72
20
73
21
0
VERTEX
8
OBJECT__22
10
0
20
0
30
0
70
128
71
20
72
22
73
23
0
VERTEX
8
OBJECT__22
10
0
20
0
30
0
70
128
71
24
72
25
73
26
0
VERTEX
8
OBJECT__22
10
0
20
0
30
0
70
128
71
27
72
26
73
22
0
VERTEX
8
OBJECT__22
10
0
20
0
30
0
70
128
71
28
72
29
73
25
0
VERTEX
8
OBJECT__22
10
0
20
0
30
0
70
128
71
30
72
31
73
29
0
VERTEX
8
OBJECT__22
10
0
20
0
30
0
70
128
71
32
72
33
73
34
0
VERTEX
8
OBJECT__22
10
0
20
0
30
0
70
128
71
35
72
34
73
31
0
VERTEX
8
OBJECT__22
10
0
20
0
30
0
70
128
71
36
72
30
73
28
0
VERTEX
8
OBJECT__22
10
0
20
0
30
0
70
128
71
2
72
19
73
37
0
VERTEX
8
OBJECT__22
10
0
20
0
30
0
70
128
71
38
72
24
73
27
0
VERTEX
8
OBJECT__22
10
0
20
0
30
0
70
128
71
39
72
27
73
20
0
VERTEX
8
OBJECT__22
10
0
20
0
30
0
70
128
71
40
72
28
73
24
0
VERTEX
8
OBJECT__22
10
0
20
0
30
0
70
128
71
8
72
38
73
39
0
VERTEX
8
OBJECT__22
10
0
20
0
30
0
70
128
71
9
72
39
73
19
0
VERTEX
8
OBJECT__22
10
0
20
0
30
0
70
128
71
6
72
40
73
38
0
VERTEX
8
OBJECT__22
10
0
20
0
30
0
70
128
71
5
72
36
73
40
0
VERTEX
8
OBJECT__22
10
0
20
0
30
0
70
128
71
41
72
35
73
30
0
VERTEX
8
OBJECT__22
10
0
20
0
30
0
70
128
71
42
72
41
73
36
0
VERTEX
8
OBJECT__22
10
0
20
0
30
0
70
128
71
43
72
44
73
45
0
VERTEX
8
OBJECT__22
10
0
20
0
30
0
70
128
71
44
72
46
73
47
0
VERTEX
8
OBJECT__22
10
0
20
0
30
0
70
128
71
46
72
48
73
49
0
VERTEX
8
OBJECT__22
10
0
20
0
30
0
70
128
71
50
72
51
73
46
0
VERTEX
8
OBJECT__22
10
0
20
0
30
0
70
128
71
52
72
53
73
51
0
VERTEX
8
OBJECT__22
10
0
20
0
30
0
70
128
71
51
72
54
73
48
0
VERTEX
8
OBJECT__22
10
0
20
0
30
0
70
128
71
53
72
55
73
54
0
VERTEX
8
OBJECT__22
10
0
20
0
30
0
70
128
71
54
72
56
73
57
0
VERTEX
8
OBJECT__22
10
0
20
0
30
0
70
128
71
48
72
57
73
58
0
VERTEX
8
OBJECT__22
10
0
20
0
30
0
70
128
71
57
72
59
73
60
0
VERTEX
8
OBJECT__22
10
0
20
0
30
0
70
128
71
59
72
61
73
62
0
VERTEX
8
OBJECT__22
10
0
20
0
30
0
70
128
71
61
72
21
73
23
0
VERTEX
8
OBJECT__22
10
0
20
0
30
0
70
128
71
63
72
64
73
61
0
VERTEX
8
OBJECT__22
10
0
20
0
30
0
70
128
71
55
72
65
73
56
0
VERTEX
8
OBJECT__22
10
0
20
0
30
0
70
128
71
56
72
63
73
59
0
VERTEX
8
OBJECT__22
10
0
20
0
30
0
70
128
71
65
72
66
73
63
0
VERTEX
8
OBJECT__22
10
0
20
0
30
0
70
128
71
66
72
67
73
64
0
VERTEX
8
OBJECT__22
10
0
20
0
30
0
70
128
71
64
72
37
73
21
0
VERTEX
8
OBJECT__22
10
0
20
0
30
0
70
128
71
67
72
3
73
37
0
VERTEX
8
OBJECT__22
10
0
20
0
30
0
70
128
71
68
72
69
73
65
0
VERTEX
8
OBJECT__22
10
0
20
0
30
0
70
128
71
70
72
68
73
55
0
VERTEX
8
OBJECT__22
10
0
20
0
30
0
70
128
71
71
72
72
73
68
0
VERTEX
8
OBJECT__22
10
0
20
0
30
0
70
128
71
72
72
73
73
69
0
VERTEX
8
OBJECT__22
10
0
20
0
30
0
70
128
71
74
72
75
73
67
0
VERTEX
8
OBJECT__22
10
0
20
0
30
0
70
128
71
69
72
74
73
66
0
VERTEX
8
OBJECT__22
10
0
20
0
30
0
70
128
71
75
72
11
73
3
0
VERTEX
8
OBJECT__22
10
0
20
0
30
0
70
128
71
76
72
77
73
75
0
VERTEX
8
OBJECT__22
10
0
20
0
30
0
70
128
71
73
72
76
73
74
0
VERTEX
8
OBJECT__22
10
0
20
0
30
0
70
128
71
77
72
78
73
11
0
VERTEX
8
OBJECT__22
10
0
20
0
30
0
70
128
71
79
72
80
73
72
0
VERTEX
8
OBJECT__22
10
0
20
0
30
0
70
128
71
43
72
81
73
82
0
VERTEX
8
OBJECT__22
10
0
20
0
30
0
70
128
71
82
72
83
73
43
0
VERTEX
8
OBJECT__22
10
0
20
0
30
0
70
128
71
44
72
84
73
85
0
VERTEX
8
OBJECT__22
10
0
20
0
30
0
70
128
71
44
72
43
73
84
0
VERTEX
8
OBJECT__22
10
0
20
0
30
0
70
128
71
50
72
86
73
87
0
VERTEX
8
OBJECT__22
10
0
20
0
30
0
70
128
71
50
72
85
73
86
0
VERTEX
8
OBJECT__22
10
0
20
0
30
0
70
128
71
52
72
88
73
89
0
VERTEX
8
OBJECT__22
10
0
20
0
30
0
70
128
71
52
72
87
73
88
0
VERTEX
8
OBJECT__22
10
0
20
0
30
0
70
128
71
53
72
52
73
90
0
VERTEX
8
OBJECT__22
10
0
20
0
30
0
70
128
71
90
72
70
73
53
0
VERTEX
8
OBJECT__22
10
0
20
0
30
0
70
128
71
71
72
70
73
91
0
VERTEX
8
OBJECT__22
10
0
20
0
30
0
70
128
71
70
72
92
73
91
0
VERTEX
8
OBJECT__22
10
0
20
0
30
0
70
128
71
71
72
93
73
94
0
VERTEX
8
OBJECT__22
10
0
20
0
30
0
70
128
71
94
72
79
73
71
0
VERTEX
8
OBJECT__22
10
0
20
0
30
0
70
128
71
71
72
95
73
93
0
VERTEX
8
OBJECT__22
10
0
20
0
30
0
70
128
71
96
72
97
73
98
0
VERTEX
8
OBJECT__22
10
0
20
0
30
0
70
128
71
79
72
99
73
100
0
VERTEX
8
OBJECT__22
10
0
20
0
30
0
70
128
71
79
72
101
73
102
0
VERTEX
8
OBJECT__22
10
0
20
0
30
0
70
128
71
79
72
98
73
101
0
VERTEX
8
OBJECT__22
10
0
20
0
30
0
70
128
71
102
72
99
73
79
0
VERTEX
8
OBJECT__22
10
0
20
0
30
0
70
128
71
80
72
100
73
103
0
VERTEX
8
OBJECT__22
10
0
20
0
30
0
70
128
71
72
72
104
73
105
0
VERTEX
8
OBJECT__22
10
0
20
0
30
0
70
128
71
72
72
80
73
106
0
VERTEX
8
OBJECT__22
10
0
20
0
30
0
70
128
71
106
72
107
73
72
0
VERTEX
8
OBJECT__22
10
0
20
0
30
0
70
128
71
107
72
104
73
72
0
VERTEX
8
OBJECT__22
10
0
20
0
30
0
70
128
71
73
72
108
73
109
0
VERTEX
8
OBJECT__22
10
0
20
0
30
0
70
128
71
73
72
110
73
108
0
VERTEX
8
OBJECT__22
10
0
20
0
30
0
70
128
71
73
72
105
73
111
0
VERTEX
8
OBJECT__22
10
0
20
0
30
0
70
128
71
111
72
110
73
73
0
VERTEX
8
OBJECT__22
10
0
20
0
30
0
70
128
71
77
72
76
73
112
0
VERTEX
8
OBJECT__22
10
0
20
0
30
0
70
128
71
112
72
113
73
77
0
VERTEX
8
OBJECT__22
10
0
20
0
30
0
70
128
71
76
72
109
73
114
0
VERTEX
8
OBJECT__22
10
0
20
0
30
0
70
128
71
114
72
112
73
76
0
VERTEX
8
OBJECT__22
10
0
20
0
30
0
70
128
71
78
72
115
73
116
0
VERTEX
8
OBJECT__22
10
0
20
0
30
0
70
128
71
78
72
77
73
117
0
VERTEX
8
OBJECT__22
10
0
20
0
30
0
70
128
71
77
72
118
73
117
0
VERTEX
8
OBJECT__22
10
0
20
0
30
0
70
128
71
117
72
115
73
78
0
VERTEX
8
OBJECT__22
10
0
20
0
30
0
70
128
71
78
72
119
73
120
0
VERTEX
8
OBJECT__22
10
0
20
0
30
0
70
128
71
120
72
10
73
78
0
VERTEX
8
OBJECT__22
10
0
20
0
30
0
70
128
71
13
72
10
73
121
0
VERTEX
8
OBJECT__22
10
0
20
0
30
0
70
128
71
121
72
122
73
13
0
VERTEX
8
OBJECT__22
10
0
20
0
30
0
70
128
71
10
72
123
73
124
0
VERTEX
8
OBJECT__22
10
0
20
0
30
0
70
128
71
124
72
121
73
10
0
VERTEX
8
OBJECT__22
10
0
20
0
30
0
70
128
71
14
72
125
73
126
0
VERTEX
8
OBJECT__22
10
0
20
0
30
0
70
128
71
14
72
127
73
125
0
VERTEX
8
OBJECT__22
10
0
20
0
30
0
70
128
71
14
72
13
73
128
0
VERTEX
8
OBJECT__22
10
0
20
0
30
0
70
128
71
128
72
129
73
14
0
VERTEX
8
OBJECT__22
10
0
20
0
30
0
70
128
71
129
72
127
73
14
0
VERTEX
8
OBJECT__22
10
0
20
0
30
0
70
128
71
16
72
130
73
131
0
VERTEX
8
OBJECT__22
10
0
20
0
30
0
70
128
71
16
72
132
73
130
0
VERTEX
8
OBJECT__22
10
0
20
0
30
0
70
128
71
16
72
14
73
133
0
VERTEX
8
OBJECT__22
10
0
20
0
30
0
70
128
71
133
72
132
73
16
0
VERTEX
8
OBJECT__22
10
0
20
0
30
0
70
128
71
134
72
131
73
135
0
VERTEX
8
OBJECT__22
10
0
20
0
30
0
70
128
71
17
72
136
73
137
0
VERTEX
8
OBJECT__22
10
0
20
0
30
0
70
128
71
17
72
134
73
138
0
VERTEX
8
OBJECT__22
10
0
20
0
30
0
70
128
71
138
72
136
73
17
0
VERTEX
8
OBJECT__22
10
0
20
0
30
0
70
128
71
139
72
17
73
140
0
VERTEX
8
OBJECT__22
10
0
20
0
30
0
70
128
71
140
72
141
73
139
0
VERTEX
8
OBJECT__22
10
0
20
0
30
0
70
128
71
18
72
17
73
142
0
VERTEX
8
OBJECT__22
10
0
20
0
30
0
70
128
71
17
72
139
73
142
0
VERTEX
8
OBJECT__22
10
0
20
0
30
0
70
128
71
142
72
143
73
18
0
VERTEX
8
OBJECT__22
10
0
20
0
30
0
70
128
71
18
72
144
73
145
0
VERTEX
8
OBJECT__22
10
0
20
0
30
0
70
128
71
145
72
4
73
18
0
VERTEX
8
OBJECT__22
10
0
20
0
30
0
70
128
71
5
72
4
73
146
0
VERTEX
8
OBJECT__22
10
0
20
0
30
0
70
128
71
4
72
147
73
146
0
VERTEX
8
OBJECT__22
10
0
20
0
30
0
70
128
71
42
72
146
73
148
0
VERTEX
8
OBJECT__22
10
0
20
0
30
0
70
128
71
148
72
149
73
42
0
VERTEX
8
OBJECT__22
10
0
20
0
30
0
70
128
71
41
72
42
73
150
0
VERTEX
8
OBJECT__22
10
0
20
0
30
0
70
128
71
150
72
151
73
41
0
VERTEX
8
OBJECT__22
10
0
20
0
30
0
70
128
71
35
72
41
73
152
0
VERTEX
8
OBJECT__22
10
0
20
0
30
0
70
128
71
152
72
153
73
35
0
VERTEX
8
OBJECT__22
10
0
20
0
30
0
70
128
71
32
72
154
73
155
0
VERTEX
8
OBJECT__22
10
0
20
0
30
0
70
128
71
32
72
153
73
154
0
VERTEX
8
OBJECT__22
10
0
20
0
30
0
70
128
71
156
72
157
73
158
0
VERTEX
8
OBJECT__22
10
0
20
0
30
0
70
128
71
33
72
32
73
159
0
VERTEX
8
OBJECT__22
10
0
20
0
30
0
70
128
71
159
72
156
73
33
0
VERTEX
8
OBJECT__22
10
0
20
0
30
0
70
128
71
33
72
160
73
161
0
VERTEX
8
OBJECT__22
10
0
20
0
30
0
70
128
71
33
72
158
73
162
0
VERTEX
8
OBJECT__22
10
0
20
0
30
0
70
128
71
162
72
160
73
33
0
VERTEX
8
OBJECT__22
10
0
20
0
30
0
70
128
71
34
72
33
73
163
0
VERTEX
8
OBJECT__22
10
0
20
0
30
0
70
128
71
163
72
164
73
34
0
VERTEX
8
OBJECT__22
10
0
20
0
30
0
70
128
71
33
72
165
73
166
0
VERTEX
8
OBJECT__22
10
0
20
0
30
0
70
128
71
166
72
163
73
33
0
VERTEX
8
OBJECT__22
10
0
20
0
30
0
70
128
71
34
72
167
73
168
0
VERTEX
8
OBJECT__22
10
0
20
0
30
0
70
128
71
168
72
31
73
34
0
VERTEX
8
OBJECT__22
10
0
20
0
30
0
70
128
71
168
72
169
73
31
0
VERTEX
8
OBJECT__22
10
0
20
0
30
0
70
128
71
34
72
170
73
167
0
VERTEX
8
OBJECT__22
10
0
20
0
30
0
70
128
71
29
72
171
73
172
0
VERTEX
8
OBJECT__22
10
0
20
0
30
0
70
128
71
29
72
31
73
173
0
VERTEX
8
OBJECT__22
10
0
20
0
30
0
70
128
71
31
72
174
73
173
0
VERTEX
8
OBJECT__22
10
0
20
0
30
0
70
128
71
173
72
171
73
29
0
VERTEX
8
OBJECT__22
10
0
20
0
30
0
70
128
71
29
72
175
73
176
0
VERTEX
8
OBJECT__22
10
0
20
0
30
0
70
128
71
176
72
25
73
29
0
VERTEX
8
OBJECT__22
10
0
20
0
30
0
70
128
71
25
72
177
73
178
0
VERTEX
8
OBJECT__22
10
0
20
0
30
0
70
128
71
178
72
26
73
25
0
VERTEX
8
OBJECT__22
10
0
20
0
30
0
70
128
71
25
72
179
73
177
0
VERTEX
8
OBJECT__22
10
0
20
0
30
0
70
128
71
22
72
180
73
181
0
VERTEX
8
OBJECT__22
10
0
20
0
30
0
70
128
71
26
72
182
73
180
0
VERTEX
8
OBJECT__22
10
0
20
0
30
0
70
128
71
26
72
183
73
182
0
VERTEX
8
OBJECT__22
10
0
20
0
30
0
70
128
71
180
72
22
73
26
0
VERTEX
8
OBJECT__22
10
0
20
0
30
0
70
128
71
22
72
184
73
185
0
VERTEX
8
OBJECT__22
10
0
20
0
30
0
70
128
71
185
72
23
73
22
0
VERTEX
8
OBJECT__22
10
0
20
0
30
0
70
128
71
22
72
186
73
184
0
VERTEX
8
OBJECT__22
10
0
20
0
30
0
70
128
71
185
72
187
73
23
0
VERTEX
8
OBJECT__22
10
0
20
0
30
0
70
128
71
23
72
188
73
189
0
VERTEX
8
OBJECT__22
10
0
20
0
30
0
70
128
71
189
72
62
73
23
0
VERTEX
8
OBJECT__22
10
0
20
0
30
0
70
128
71
23
72
187
73
188
0
VERTEX
8
OBJECT__22
10
0
20
0
30
0
70
128
71
60
72
62
73
190
0
VERTEX
8
OBJECT__22
10
0
20
0
30
0
70
128
71
62
72
191
73
192
0
VERTEX
8
OBJECT__22
10
0
20
0
30
0
70
128
71
192
72
190
73
62
0
VERTEX
8
OBJECT__22
10
0
20
0
30
0
70
128
71
60
72
193
73
194
0
VERTEX
8
OBJECT__22
10
0
20
0
30
0
70
128
71
60
72
195
73
193
0
VERTEX
8
OBJECT__22
10
0
20
0
30
0
70
128
71
194
72
58
73
60
0
VERTEX
8
OBJECT__22
10
0
20
0
30
0
70
128
71
194
72
196
73
58
0
VERTEX
8
OBJECT__22
10
0
20
0
30
0
70
128
71
49
72
58
73
197
0
VERTEX
8
OBJECT__22
10
0
20
0
30
0
70
128
71
58
72
198
73
197
0
VERTEX
8
OBJECT__22
10
0
20
0
30
0
70
128
71
49
72
199
73
200
0
VERTEX
8
OBJECT__22
10
0
20
0
30
0
70
128
71
200
72
47
73
49
0
VERTEX
8
OBJECT__22
10
0
20
0
30
0
70
128
71
49
72
201
73
199
0
VERTEX
8
OBJECT__22
10
0
20
0
30
0
70
128
71
49
72
202
73
201
0
VERTEX
8
OBJECT__22
10
0
20
0
30
0
70
128
71
47
72
203
73
204
0
VERTEX
8
OBJECT__22
10
0
20
0
30
0
70
128
71
204
72
45
73
47
0
VERTEX
8
OBJECT__22
10
0
20
0
30
0
70
128
71
47
72
205
73
203
0
VERTEX
8
OBJECT__22
10
0
20
0
30
0
70
128
71
204
72
206
73
45
0
VERTEX
8
OBJECT__22
10
0
20
0
30
0
70
128
71
207
72
208
73
209
0
VERTEX
8
OBJECT__22
10
0
20
0
30
0
70
128
71
45
72
210
73
208
0
VERTEX
8
OBJECT__22
10
0
20
0
30
0
70
128
71
45
72
211
73
210
0
VERTEX
8
OBJECT__22
10
0
20
0
30
0
70
128
71
208
72
207
73
45
0
VERTEX
8
OBJECT__22
10
0
20
0
30
0
70
128
71
207
72
212
73
213
0
VERTEX
8
OBJECT__22
10
0
20
0
30
0
70
128
71
207
72
214
73
212
0
VERTEX
8
OBJECT__22
10
0
20
0
30
0
70
128
71
207
72
215
73
214
0
VERTEX
8
OBJECT__22
10
0
20
0
30
0
70
128
71
207
72
216
73
81
0
VERTEX
8
OBJECT__22
10
0
20
0
30
0
70
128
71
216
72
207
73
217
0
VERTEX
8
OBJECT__22
10
0
20
0
30
0
70
128
71
217
72
218
73
216
0
VERTEX
8
OBJECT__22
10
0
20
0
30
0
70
128
71
81
72
43
73
207
0
VERTEX
8
OBJECT__22
10
0
20
0
30
0
70
128
71
213
72
217
73
207
0
VERTEX
8
OBJECT__22
10
0
20
0
30
0
70
128
71
209
72
215
73
207
0
VERTEX
8
OBJECT__22
10
0
20
0
30
0
70
128
71
206
72
211
73
45
0
VERTEX
8
OBJECT__22
10
0
20
0
30
0
70
128
71
200
72
205
73
47
0
VERTEX
8
OBJECT__22
10
0
20
0
30
0
70
128
71
197
72
202
73
49
0
VERTEX
8
OBJECT__22
10
0
20
0
30
0
70
128
71
196
72
198
73
58
0
VERTEX
8
OBJECT__22
10
0
20
0
30
0
70
128
71
190
72
195
73
60
0
VERTEX
8
OBJECT__22
10
0
20
0
30
0
70
128
71
189
72
191
73
62
0
VERTEX
8
OBJECT__22
10
0
20
0
30
0
70
128
71
181
72
186
73
22
0
VERTEX
8
OBJECT__22
10
0
20
0
30
0
70
128
71
178
72
183
73
26
0
VERTEX
8
OBJECT__22
10
0
20
0
30
0
70
128
71
176
72
179
73
25
0
VERTEX
8
OBJECT__22
10
0
20
0
30
0
70
128
71
172
72
175
73
29
0
VERTEX
8
OBJECT__22
10
0
20
0
30
0
70
128
71
169
72
174
73
31
0
VERTEX
8
OBJECT__22
10
0
20
0
30
0
70
128
71
164
72
170
73
34
0
VERTEX
8
OBJECT__22
10
0
20
0
30
0
70
128
71
161
72
165
73
33
0
VERTEX
8
OBJECT__22
10
0
20
0
30
0
70
128
71
158
72
33
73
156
0
VERTEX
8
OBJECT__22
10
0
20
0
30
0
70
128
71
155
72
159
73
32
0
VERTEX
8
OBJECT__22
10
0
20
0
30
0
70
128
71
153
72
32
73
35
0
VERTEX
8
OBJECT__22
10
0
20
0
30
0
70
128
71
151
72
152
73
41
0
VERTEX
8
OBJECT__22
10
0
20
0
30
0
70
128
71
149
72
150
73
42
0
VERTEX
8
OBJECT__22
10
0
20
0
30
0
70
128
71
146
72
42
73
5
0
VERTEX
8
OBJECT__22
10
0
20
0
30
0
70
128
71
145
72
147
73
4
0
VERTEX
8
OBJECT__22
10
0
20
0
30
0
70
128
71
143
72
144
73
18
0
VERTEX
8
OBJECT__22
10
0
20
0
30
0
70
128
71
141
72
219
73
139
0
VERTEX
8
OBJECT__22
10
0
20
0
30
0
70
128
71
137
72
140
73
17
0
VERTEX
8
OBJECT__22
10
0
20
0
30
0
70
128
71
135
72
138
73
134
0
VERTEX
8
OBJECT__22
10
0
20
0
30
0
70
128
71
131
72
134
73
16
0
VERTEX
8
OBJECT__22
10
0
20
0
30
0
70
128
71
126
72
133
73
14
0
VERTEX
8
OBJECT__22
10
0
20
0
30
0
70
128
71
122
72
128
73
13
0
VERTEX
8
OBJECT__22
10
0
20
0
30
0
70
128
71
120
72
123
73
10
0
VERTEX
8
OBJECT__22
10
0
20
0
30
0
70
128
71
116
72
119
73
78
0
VERTEX
8
OBJECT__22
10
0
20
0
30
0
70
128
71
113
72
118
73
77
0
VERTEX
8
OBJECT__22
10
0
20
0
30
0
70
128
71
109
72
76
73
73
0
VERTEX
8
OBJECT__22
10
0
20
0
30
0
70
128
71
105
72
73
73
72
0
VERTEX
8
OBJECT__22
10
0
20
0
30
0
70
128
71
103
72
106
73
80
0
VERTEX
8
OBJECT__22
10
0
20
0
30
0
70
128
71
100
72
80
73
79
0
VERTEX
8
OBJECT__22
10
0
20
0
30
0
70
128
71
98
72
79
73
96
0
VERTEX
8
OBJECT__22
10
0
20
0
30
0
70
128
71
94
72
96
73
79
0
VERTEX
8
OBJECT__22
10
0
20
0
30
0
70
128
71
91
72
95
73
71
0
VERTEX
8
OBJECT__22
10
0
20
0
30
0
70
128
71
90
72
92
73
70
0
VERTEX
8
OBJECT__22
10
0
20
0
30
0
70
128
71
89
72
90
73
52
0
VERTEX
8
OBJECT__22
10
0
20
0
30
0
70
128
71
87
72
52
73
50
0
VERTEX
8
OBJECT__22
10
0
20
0
30
0
70
128
71
85
72
50
73
44
0
VERTEX
8
OBJECT__22
10
0
20
0
30
0
70
128
71
83
72
84
73
43
0
VERTEX
8
OBJECT__22
10
0
20
0
30
0
70
128
71
72
72
71
73
79
0
VERTEX
8
OBJECT__22
10
0
20
0
30
0
70
128
71
11
72
75
73
77
0
VERTEX
8
OBJECT__22
10
0
20
0
30
0
70
128
71
74
72
69
73
73
0
VERTEX
8
OBJECT__22
10
0
20
0
30
0
70
128
71
75
72
74
73
76
0
VERTEX
8
OBJECT__22
10
0
20
0
30
0
70
128
71
3
72
67
73
75
0
VERTEX
8
OBJECT__22
10
0
20
0
30
0
70
128
71
66
72
65
73
69
0
VERTEX
8
OBJECT__22
10
0
20
0
30
0
70
128
71
67
72
66
73
74
0
VERTEX
8
OBJECT__22
10
0
20
0
30
0
70
128
71
69
72
68
73
72
0
VERTEX
8
OBJECT__22
10
0
20
0
30
0
70
128
71
68
72
70
73
71
0
VERTEX
8
OBJECT__22
10
0
20
0
30
0
70
128
71
55
72
53
73
70
0
VERTEX
8
OBJECT__22
10
0
20
0
30
0
70
128
71
65
72
55
73
68
0
VERTEX
8
OBJECT__22
10
0
20
0
30
0
70
128
71
37
72
64
73
67
0
VERTEX
8
OBJECT__22
10
0
20
0
30
0
70
128
71
21
72
61
73
64
0
VERTEX
8
OBJECT__22
10
0
20
0
30
0
70
128
71
64
72
63
73
66
0
VERTEX
8
OBJECT__22
10
0
20
0
30
0
70
128
71
63
72
56
73
65
0
VERTEX
8
OBJECT__22
10
0
20
0
30
0
70
128
71
59
72
57
73
56
0
VERTEX
8
OBJECT__22
10
0
20
0
30
0
70
128
71
56
72
54
73
55
0
VERTEX
8
OBJECT__22
10
0
20
0
30
0
70
128
71
61
72
59
73
63
0
VERTEX
8
OBJECT__22
10
0
20
0
30
0
70
128
71
23
72
62
73
61
0
VERTEX
8
OBJECT__22
10
0
20
0
30
0
70
128
71
62
72
60
73
59
0
VERTEX
8
OBJECT__22
10
0
20
0
30
0
70
128
71
60
72
58
73
57
0
VERTEX
8
OBJECT__22
10
0
20
0
30
0
70
128
71
58
72
49
73
48
0
VERTEX
8
OBJECT__22
10
0
20
0
30
0
70
128
71
57
72
48
73
54
0
VERTEX
8
OBJECT__22
10
0
20
0
30
0
70
128
71
54
72
51
73
53
0
VERTEX
8
OBJECT__22
10
0
20
0
30
0
70
128
71
48
72
46
73
51
0
VERTEX
8
OBJECT__22
10
0
20
0
30
0
70
128
71
51
72
50
73
52
0
VERTEX
8
OBJECT__22
10
0
20
0
30
0
70
128
71
46
72
44
73
50
0
VERTEX
8
OBJECT__22
10
0
20
0
30
0
70
128
71
49
72
47
73
46
0
VERTEX
8
OBJECT__22
10
0
20
0
30
0
70
128
71
47
72
45
73
44
0
VERTEX
8
OBJECT__22
10
0
20
0
30
0
70
128
71
45
72
207
73
43
0
VERTEX
8
OBJECT__22
10
0
20
0
30
0
70
128
71
36
72
5
73
42
0
VERTEX
8
OBJECT__22
10
0
20
0
30
0
70
128
71
30
72
36
73
41
0
VERTEX
8
OBJECT__22
10
0
20
0
30
0
70
128
71
40
72
6
73
5
0
VERTEX
8
OBJECT__22
10
0
20
0
30
0
70
128
71
38
72
8
73
6
0
VERTEX
8
OBJECT__22
10
0
20
0
30
0
70
128
71
19
72
2
73
9
0
VERTEX
8
OBJECT__22
10
0
20
0
30
0
70
128
71
39
72
9
73
8
0
VERTEX
8
OBJECT__22
10
0
20
0
30
0
70
128
71
24
72
38
73
40
0
VERTEX
8
OBJECT__22
10
0
20
0
30
0
70
128
71
20
72
19
73
39
0
VERTEX
8
OBJECT__22
10
0
20
0
30
0
70
128
71
27
72
39
73
38
0
VERTEX
8
OBJECT__22
10
0
20
0
30
0
70
128
71
37
72
3
73
2
0
VERTEX
8
OBJECT__22
10
0
20
0
30
0
70
128
71
28
72
40
73
36
0
VERTEX
8
OBJECT__22
10
0
20
0
30
0
70
128
71
31
72
30
73
35
0
VERTEX
8
OBJECT__22
10
0
20
0
30
0
70
128
71
34
72
35
73
32
0
VERTEX
8
OBJECT__22
10
0
20
0
30
0
70
128
71
29
72
28
73
30
0
VERTEX
8
OBJECT__22
10
0
20
0
30
0
70
128
71
25
72
24
73
28
0
VERTEX
8
OBJECT__22
10
0
20
0
30
0
70
128
71
22
72
20
73
27
0
VERTEX
8
OBJECT__22
10
0
20
0
30
0
70
128
71
26
72
27
73
24
0
VERTEX
8
OBJECT__22
10
0
20
0
30
0
70
128
71
23
72
21
73
20
0
VERTEX
8
OBJECT__22
10
0
20
0
30
0
70
128
71
21
72
37
73
19
0
VERTEX
8
OBJECT__22
10
0
20
0
30
0
70
128
71
15
72
16
73
18
0
VERTEX
8
OBJECT__22
10
0
20
0
30
0
70
128
71
16
72
134
73
17
0
VERTEX
8
OBJECT__22
10
0
20
0
30
0
70
128
71
7
72
14
73
16
0
VERTEX
8
OBJECT__22
10
0
20
0
30
0
70
128
71
8
72
7
73
15
0
VERTEX
8
OBJECT__22
10
0
20
0
30
0
70
128
71
12
72
13
73
14
0
VERTEX
8
OBJECT__22
10
0
20
0
30
0
70
128
71
1
72
10
73
13
0
VERTEX
8
OBJECT__22
10
0
20
0
30
0
70
128
71
2
72
1
73
12
0
VERTEX
8
OBJECT__22
10
0
20
0
30
0
70
128
71
11
72
78
73
10
0
VERTEX
8
OBJECT__22
10
0
20
0
30
0
70
128
71
9
72
12
73
7
0
VERTEX
8
OBJECT__22
10
0
20
0
30
0
70
128
71
6
72
15
73
4
0
VERTEX
8
OBJECT__22
10
0
20
0
30
0
70
128
71
3
72
11
73
1
0
SEQEND
8
OBJECT__22
0
POLYLINE
8
OBJECT__23
66
1
70
64
71
68
72
75
62
253
0
VERTEX
8
OBJECT__23
10
55.188999
20
0.000000
30
80.203003
70
192
0
VERTEX
8
OBJECT__23
10
55.067001
20
-11.011000
30
79.323997
70
192
0
VERTEX
8
OBJECT__23
10
75.503998
20
-11.011000
30
75.958000
70
192
0
VERTEX
8
OBJECT__23
10
75.678001
20
0.000000
30
76.829002
70
192
0
VERTEX
8
OBJECT__23
10
95.943001
20
-11.011000
30
71.316002
70
192
0
VERTEX
8
OBJECT__23
10
96.167999
20
0.000000
30
72.175003
70
192
0
VERTEX
8
OBJECT__23
10
95.943001
20
11.012000
30
71.315002
70
192
0
VERTEX
8
OBJECT__23
10
75.503998
20
11.012000
30
75.958000
70
192
0
VERTEX
8
OBJECT__23
10
66.152000
20
-18.761999
30
75.877998
70
192
0
VERTEX
8
OBJECT__23
10
61.972000
20
-19.166000
30
76.505997
70
192
0
VERTEX
8
OBJECT__23
10
54.785000
20
-19.871000
30
77.271004
70
192
0
VERTEX
8
OBJECT__23
10
75.941002
20
-17.815001
30
74.407997
70
192
0
VERTEX
8
OBJECT__23
10
89.325996
20
-16.597000
30
71.793999
70
192
0
VERTEX
8
OBJECT__23
10
75.216003
20
-17.886000
30
74.516998
70
192
0
VERTEX
8
OBJECT__23
10
89.454002
20
-16.584999
30
71.768997
70
192
0
VERTEX
8
OBJECT__23
10
113.139000
20
-12.000000
30
66.247002
70
192
0
VERTEX
8
OBJECT__23
10
102.323997
20
-15.518000
30
68.695999
70
192
0
VERTEX
8
OBJECT__23
10
111.528999
20
-14.800000
30
66.167999
70
192
0
VERTEX
8
OBJECT__23
10
95.674004
20
-16.069000
30
70.283997
70
192
0
VERTEX
8
OBJECT__23
10
115.731003
20
-4.589000
30
66.375000
70
192
0
VERTEX
8
OBJECT__23
10
116.157997
20
-0.789000
30
66.397003
70
192
0
VERTEX
8
OBJECT__23
10
114.872002
20
-7.765000
30
66.332001
70
192
0
VERTEX
8
OBJECT__23
10
116.120003
20
-0.003000
30
66.394997
70
192
0
VERTEX
8
OBJECT__23
10
113.565002
20
-11.009000
30
66.267998
70
192
0
VERTEX
8
OBJECT__23
10
114.721001
20
-8.323000
30
66.324997
70
192
0
VERTEX
8
OBJECT__23
10
113.716003
20
10.811000
30
66.275002
70
192
0
VERTEX
8
OBJECT__23
10
113.606003
20
11.011000
30
66.269997
70
192
0
VERTEX
8
OBJECT__23
10
114.871002
20
7.761000
30
66.332001
70
192
0
VERTEX
8
OBJECT__23
10
116.119003
20
0.000000
30
66.394997
70
192
0
VERTEX
8
OBJECT__23
10
115.967003
20
3.123000
30
66.387001
70
192
0
VERTEX
8
OBJECT__23
10
115.100998
20
7.154000
30
66.344002
70
192
0
VERTEX
8
OBJECT__23
10
111.528999
20
14.800000
30
66.167999
70
192
0
VERTEX
8
OBJECT__23
10
103.849998
20
15.397000
30
68.294998
70
192
0
VERTEX
8
OBJECT__23
10
89.321999
20
16.600000
30
71.776001
70
192
0
VERTEX
8
OBJECT__23
10
90.375999
20
16.504999
30
71.567001
70
192
0
VERTEX
8
OBJECT__23
10
76.804001
20
17.733999
30
74.257004
70
192
0
VERTEX
8
OBJECT__23
10
95.672997
20
16.069000
30
70.280998
70
192
0
VERTEX
8
OBJECT__23
10
75.213997
20
17.888000
30
74.500999
70
192
0
VERTEX
8
OBJECT__23
10
66.153000
20
18.761000
30
75.889999
70
192
0
VERTEX
8
OBJECT__23
10
55.067001
20
11.012000
30
79.322998
70
192
0
VERTEX
8
OBJECT__23
10
62.991001
20
19.066000
30
76.375000
70
192
0
VERTEX
8
OBJECT__23
10
54.784000
20
19.871000
30
77.264000
70
192
0
VERTEX
8
OBJECT__23
10
43.001999
20
12.413000
30
80.470001
70
192
0
VERTEX
8
OBJECT__23
10
43.638000
20
11.009000
30
80.625999
70
192
0
VERTEX
8
OBJECT__23
10
48.983002
20
20.441000
30
77.892998
70
192
0
VERTEX
8
OBJECT__23
10
40.812000
20
15.821000
30
79.967003
70
192
0
VERTEX
8
OBJECT__23
10
42.776001
20
21.024000
30
78.295998
70
192
0
VERTEX
8
OBJECT__23
10
38.176998
20
18.881001
30
79.414001
70
192
0
VERTEX
8
OBJECT__23
10
39.130001
20
17.774000
30
79.613998
70
192
0
VERTEX
8
OBJECT__23
10
34.916000
20
21.761999
30
78.806000
70
192
0
VERTEX
8
OBJECT__23
10
46.202000
20
1.198000
30
81.267998
70
192
0
VERTEX
8
OBJECT__23
10
46.167000
20
0.007000
30
81.260002
70
192
0
VERTEX
8
OBJECT__23
10
45.721001
20
5.016000
30
81.143997
70
192
0
VERTEX
8
OBJECT__23
10
44.641998
20
8.797000
30
80.871002
70
192
0
VERTEX
8
OBJECT__23
10
45.300999
20
6.486000
30
81.038002
70
192
0
VERTEX
8
OBJECT__23
10
46.089001
20
-2.631000
30
81.239998
70
192
0
VERTEX
8
OBJECT__23
10
45.386002
20
-6.448000
30
81.057999
70
192
0
VERTEX
8
OBJECT__23
10
44.074001
20
-10.225000
30
80.728996
70
192
0
VERTEX
8
OBJECT__23
10
46.167000
20
0.001000
30
81.260002
70
192
0
VERTEX
8
OBJECT__23
10
40.042999
20
-16.799000
30
79.801003
70
192
0
VERTEX
8
OBJECT__23
10
39.126999
20
-17.767000
30
79.615997
70
192
0
VERTEX
8
OBJECT__23
10
42.777000
20
-21.024000
30
78.299004
70
192
0
VERTEX
8
OBJECT__23
10
48.768002
20
-20.462000
30
77.912003
70
192
0
VERTEX
8
OBJECT__23
10
36.980000
20
-20.035000
30
79.181000
70
192
0
VERTEX
8
OBJECT__23
10
42.155998
20
-13.852000
30
80.273003
70
192
0
VERTEX
8
OBJECT__23
10
43.659000
20
-11.009000
30
80.629997
70
192
0
VERTEX
8
OBJECT__23
10
42.866001
20
-12.510000
30
80.441002
70
192
0
VERTEX
8
OBJECT__23
10
34.922001
20
-21.761999
30
78.806999
70
192
0
VERTEX
8
OBJECT__23
10
0
20
0
30
0
70
128
71
1
72
2
73
3
0
VERTEX
8
OBJECT__23
10
0
20
0
30
0
70
128
71
4
72
3
73
5
0
VERTEX
8
OBJECT__23
10
0
20
0
30
0
70
128
71
4
72
6
73
7
0
VERTEX
8
OBJECT__23
10
0
20
0
30
0
70
128
71
1
72
4
73
8
0
VERTEX
8
OBJECT__23
10
0
20
0
30
0
70
128
71
3
72
2
73
9
0
VERTEX
8
OBJECT__23
10
0
20
0
30
0
70
128
71
2
72
10
73
9
0
VERTEX
8
OBJECT__23
10
0
20
0
30
0
70
128
71
2
72
11
73
10
0
VERTEX
8
OBJECT__23
10
0
20
0
30
0
70
128
71
3
72
12
73
13
0
VERTEX
8
OBJECT__23
10
0
20
0
30
0
70
128
71
13
72
5
73
3
0
VERTEX
8
OBJECT__23
10
0
20
0
30
0
70
128
71
3
72
14
73
12
0
VERTEX
8
OBJECT__23
10
0
20
0
30
0
70
128
71
13
72
15
73
5
0
VERTEX
8
OBJECT__23
10
0
20
0
30
0
70
128
71
16
72
5
73
17
0
VERTEX
8
OBJECT__23
10
0
20
0
30
0
70
128
71
17
72
18
73
16
0
VERTEX
8
OBJECT__23
10
0
20
0
30
0
70
128
71
5
72
19
73
17
0
VERTEX
8
OBJECT__23
10
0
20
0
30
0
70
128
71
6
72
20
73
21
0
VERTEX
8
OBJECT__23
10
0
20
0
30
0
70
128
71
6
72
22
73
20
0
VERTEX
8
OBJECT__23
10
0
20
0
30
0
70
128
71
21
72
23
73
6
0
VERTEX
8
OBJECT__23
10
0
20
0
30
0
70
128
71
6
72
5
73
24
0
VERTEX
8
OBJECT__23
10
0
20
0
30
0
70
128
71
24
72
25
73
6
0
VERTEX
8
OBJECT__23
10
0
20
0
30
0
70
128
71
25
72
22
73
6
0
VERTEX
8
OBJECT__23
10
0
20
0
30
0
70
128
71
6
72
26
73
27
0
VERTEX
8
OBJECT__23
10
0
20
0
30
0
70
128
71
6
72
28
73
26
0
VERTEX
8
OBJECT__23
10
0
20
0
30
0
70
128
71
6
72
29
73
30
0
VERTEX
8
OBJECT__23
10
0
20
0
30
0
70
128
71
30
72
31
73
6
0
VERTEX
8
OBJECT__23
10
0
20
0
30
0
70
128
71
31
72
28
73
6
0
VERTEX
8
OBJECT__23
10
0
20
0
30
0
70
128
71
27
72
32
73
33
0
VERTEX
8
OBJECT__23
10
0
20
0
30
0
70
128
71
33
72
7
73
27
0
VERTEX
8
OBJECT__23
10
0
20
0
30
0
70
128
71
8
72
7
73
34
0
VERTEX
8
OBJECT__23
10
0
20
0
30
0
70
128
71
7
72
35
73
34
0
VERTEX
8
OBJECT__23
10
0
20
0
30
0
70
128
71
34
72
36
73
8
0
VERTEX
8
OBJECT__23
10
0
20
0
30
0
70
128
71
7
72
37
73
35
0
VERTEX
8
OBJECT__23
10
0
20
0
30
0
70
128
71
8
72
38
73
39
0
VERTEX
8
OBJECT__23
10
0
20
0
30
0
70
128
71
39
72
40
73
8
0
VERTEX
8
OBJECT__23
10
0
20
0
30
0
70
128
71
39
72
41
73
40
0
VERTEX
8
OBJECT__23
10
0
20
0
30
0
70
128
71
42
72
43
73
44
0
VERTEX
8
OBJECT__23
10
0
20
0
30
0
70
128
71
43
72
42
73
45
0
VERTEX
8
OBJECT__23
10
0
20
0
30
0
70
128
71
46
72
45
73
47
0
VERTEX
8
OBJECT__23
10
0
20
0
30
0
70
128
71
47
72
48
73
49
0
VERTEX
8
OBJECT__23
10
0
20
0
30
0
70
128
71
47
72
50
73
48
0
VERTEX
8
OBJECT__23
10
0
20
0
30
0
70
128
71
47
72
49
73
46
0
VERTEX
8
OBJECT__23
10
0
20
0
30
0
70
128
71
45
72
46
73
43
0
VERTEX
8
OBJECT__23
10
0
20
0
30
0
70
128
71
1
72
51
73
52
0
VERTEX
8
OBJECT__23
10
0
20
0
30
0
70
128
71
1
72
40
73
53
0
VERTEX
8
OBJECT__23
10
0
20
0
30
0
70
128
71
40
72
54
73
55
0
VERTEX
8
OBJECT__23
10
0
20
0
30
0
70
128
71
40
72
44
73
54
0
VERTEX
8
OBJECT__23
10
0
20
0
30
0
70
128
71
55
72
53
73
40
0
VERTEX
8
OBJECT__23
10
0
20
0
30
0
70
128
71
53
72
51
73
1
0
VERTEX
8
OBJECT__23
10
0
20
0
30
0
70
128
71
2
72
1
73
56
0
VERTEX
8
OBJECT__23
10
0
20
0
30
0
70
128
71
56
72
57
73
2
0
VERTEX
8
OBJECT__23
10
0
20
0
30
0
70
128
71
57
72
58
73
2
0
VERTEX
8
OBJECT__23
10
0
20
0
30
0
70
128
71
1
72
59
73
56
0
VERTEX
8
OBJECT__23
10
0
20
0
30
0
70
128
71
60
72
61
73
62
0
VERTEX
8
OBJECT__23
10
0
20
0
30
0
70
128
71
62
72
63
73
60
0
VERTEX
8
OBJECT__23
10
0
20
0
30
0
70
128
71
61
72
64
73
62
0
VERTEX
8
OBJECT__23
10
0
20
0
30
0
70
128
71
65
72
60
73
63
0
VERTEX
8
OBJECT__23
10
0
20
0
30
0
70
128
71
11
72
2
73
66
0
VERTEX
8
OBJECT__23
10
0
20
0
30
0
70
128
71
66
72
67
73
11
0
VERTEX
8
OBJECT__23
10
0
20
0
30
0
70
128
71
67
72
65
73
11
0
VERTEX
8
OBJECT__23
10
0
20
0
30
0
70
128
71
63
72
11
73
65
0
VERTEX
8
OBJECT__23
10
0
20
0
30
0
70
128
71
64
72
68
73
62
0
VERTEX
8
OBJECT__23
10
0
20
0
30
0
70
128
71
58
72
66
73
2
0
VERTEX
8
OBJECT__23
10
0
20
0
30
0
70
128
71
52
72
59
73
1
0
VERTEX
8
OBJECT__23
10
0
20
0
30
0
70
128
71
44
72
40
73
42
0
VERTEX
8
OBJECT__23
10
0
20
0
30
0
70
128
71
41
72
42
73
40
0
VERTEX
8
OBJECT__23
10
0
20
0
30
0
70
128
71
36
72
38
73
8
0
VERTEX
8
OBJECT__23
10
0
20
0
30
0
70
128
71
33
72
37
73
7
0
VERTEX
8
OBJECT__23
10
0
20
0
30
0
70
128
71
27
72
7
73
6
0
VERTEX
8
OBJECT__23
10
0
20
0
30
0
70
128
71
23
72
29
73
6
0
VERTEX
8
OBJECT__23
10
0
20
0
30
0
70
128
71
16
72
24
73
5
0
VERTEX
8
OBJECT__23
10
0
20
0
30
0
70
128
71
15
72
19
73
5
0
VERTEX
8
OBJECT__23
10
0
20
0
30
0
70
128
71
9
72
14
73
3
0
VERTEX
8
OBJECT__23
10
0
20
0
30
0
70
128
71
8
72
40
73
1
0
VERTEX
8
OBJECT__23
10
0
20
0
30
0
70
128
71
7
72
8
73
4
0
VERTEX
8
OBJECT__23
10
0
20
0
30
0
70
128
71
5
72
6
73
4
0
VERTEX
8
OBJECT__23
10
0
20
0
30
0
70
128
71
3
72
4
73
1
0
SEQEND
8
OBJECT__23
0
POLYLINE
8
OBJECT__24
66
1
70
64
71
16
72
15
62
253
0
VERTEX
8
OBJECT__24
10
112.091003
20
-15.997000
30
64.457001
70
192
0
VERTEX
8
OBJECT__24
10
111.402000
20
-15.977000
30
65.412003
70
192
0
VERTEX
8
OBJECT__24
10
111.366997
20
-16.323999
30
64.556999
70
192
0
VERTEX
8
OBJECT__24
10
112.772003
20
-15.061000
30
63.667999
70
192
0
VERTEX
8
OBJECT__24
10
111.667999
20
-15.915000
30
63.339001
70
192
0
VERTEX
8
OBJECT__24
10
112.106003
20
-15.059000
30
62.813000
70
192
0
VERTEX
8
OBJECT__24
10
111.788002
20
-15.643000
30
62.993000
70
192
0
VERTEX
8
OBJECT__24
10
112.070999
20
-15.059000
30
62.785999
70
192
0
VERTEX
8
OBJECT__24
10
112.883003
20
-14.990000
30
64.658997
70
192
0
VERTEX
8
OBJECT__24
10
111.052002
20
-16.363001
30
64.108002
70
192
0
VERTEX
8
OBJECT__24
10
111.544998
20
-16.190001
30
63.688999
70
192
0
VERTEX
8
OBJECT__24
10
112.884003
20
-14.989000
30
64.667999
70
192
0
VERTEX
8
OBJECT__24
10
112.431999
20
-14.850000
30
65.638000
70
192
0
VERTEX
8
OBJECT__24
10
111.528999
20
-14.800000
30
66.167999
70
192
0
VERTEX
8
OBJECT__24
10
111.336998
20
-15.448000
30
65.953003
70
192
0
VERTEX
8
OBJECT__24
10
112.889999
20
-14.985000
30
64.723999
70
192
0
VERTEX
8
OBJECT__24
10
0
20
0
30
0
70
128
71
1
72
2
73
3
0
VERTEX
8
OBJECT__24
10
0
20
0
30
0
70
128
71
4
72
1
73
5
0
VERTEX
8
OBJECT__24
10
0
20
0
30
0
70
128
71
5
72
6
73
4
0
VERTEX
8
OBJECT__24
10
0
20
0
30
0
70
128
71
6
72
5
73
7
0
VERTEX
8
OBJECT__24
10
0
20
0
30
0
70
128
71
7
72
8
73
6
0
VERTEX
8
OBJECT__24
10
0
20
0
30
0
70
128
71
4
72
9
73
1
0
VERTEX
8
OBJECT__24
10
0
20
0
30
0
70
128
71
1
72
10
73
11
0
VERTEX
8
OBJECT__24
10
0
20
0
30
0
70
128
71
13
72
14
73
15
0
VERTEX
8
OBJECT__24
10
0
20
0
30
0
70
128
71
2
72
16
73
13
0
VERTEX
8
OBJECT__24
10
0
20
0
30
0
70
128
71
2
72
12
73
16
0
VERTEX
8
OBJECT__24
10
0
20
0
30
0
70
128
71
15
72
2
73
13
0
VERTEX
8
OBJECT__24
10
0
20
0
30
0
70
128
71
2
72
1
73
12
0
VERTEX
8
OBJECT__24
10
0
20
0
30
0
70
128
71
11
72
5
73
1
0
VERTEX
8
OBJECT__24
10
0
20
0
30
0
70
128
71
9
72
12
73
1
0
VERTEX
8
OBJECT__24
10
0
20
0
30
0
70
128
71
3
72
10
73
1
0
SEQEND
8
OBJECT__24
0
POLYLINE
8
OBJECT__25
66
1
70
64
71
45
72
46
62
253
0
VERTEX
8
OBJECT__25
10
42.826000
20
22.087999
30
77.587997
70
192
0
VERTEX
8
OBJECT__25
10
49.977001
20
21.747000
30
75.667000
70
192
0
VERTEX
8
OBJECT__25
10
43.859001
20
22.325001
30
76.181000
70
192
0
VERTEX
8
OBJECT__25
10
53.618999
20
21.403000
30
75.360001
70
192
0
VERTEX
8
OBJECT__25
10
66.153999
20
19.871000
30
75.136002
70
192
0
VERTEX
8
OBJECT__25
10
63.241001
20
20.474001
30
74.129997
70
192
0
VERTEX
8
OBJECT__25
10
65.994003
20
20.208000
30
73.778000
70
192
0
VERTEX
8
OBJECT__25
10
54.784000
20
19.871000
30
77.264000
70
192
0
VERTEX
8
OBJECT__25
10
62.991001
20
19.066000
30
76.375000
70
192
0
VERTEX
8
OBJECT__25
10
48.983002
20
20.441000
30
77.892998
70
192
0
VERTEX
8
OBJECT__25
10
42.776001
20
21.024000
30
78.295998
70
192
0
VERTEX
8
OBJECT__25
10
89.250000
20
17.761000
30
70.991997
70
192
0
VERTEX
8
OBJECT__25
10
81.685997
20
18.743000
30
71.143997
70
192
0
VERTEX
8
OBJECT__25
10
75.722000
20
19.297001
30
72.171997
70
192
0
VERTEX
8
OBJECT__25
10
74.414001
20
19.419001
30
72.398003
70
192
0
VERTEX
8
OBJECT__25
10
67.600998
20
20.052000
30
73.571999
70
192
0
VERTEX
8
OBJECT__25
10
88.969002
20
18.122000
30
69.561996
70
192
0
VERTEX
8
OBJECT__25
10
87.763000
20
18.225000
30
69.823997
70
192
0
VERTEX
8
OBJECT__25
10
76.804001
20
17.733999
30
74.257004
70
192
0
VERTEX
8
OBJECT__25
10
75.213997
20
17.888000
30
74.500999
70
192
0
VERTEX
8
OBJECT__25
10
66.153000
20
18.761000
30
75.889999
70
192
0
VERTEX
8
OBJECT__25
10
95.672997
20
16.069000
30
70.280998
70
192
0
VERTEX
8
OBJECT__25
10
103.849998
20
15.397000
30
68.294998
70
192
0
VERTEX
8
OBJECT__25
10
111.401001
20
15.976000
30
65.412003
70
192
0
VERTEX
8
OBJECT__25
10
89.321999
20
16.600000
30
71.776001
70
192
0
VERTEX
8
OBJECT__25
10
90.375999
20
16.504999
30
71.567001
70
192
0
VERTEX
8
OBJECT__25
10
111.528999
20
14.800000
30
66.167999
70
192
0
VERTEX
8
OBJECT__25
10
111.346001
20
15.300000
30
66.039001
70
192
0
VERTEX
8
OBJECT__25
10
99.655998
20
17.239000
30
67.091003
70
192
0
VERTEX
8
OBJECT__25
10
111.405998
20
16.289000
30
64.711998
70
192
0
VERTEX
8
OBJECT__25
10
96.329002
20
17.493999
30
67.961998
70
192
0
VERTEX
8
OBJECT__25
10
111.052002
20
16.363001
30
64.108002
70
192
0
VERTEX
8
OBJECT__25
10
39.660000
20
22.722000
30
76.533997
70
192
0
VERTEX
8
OBJECT__25
10
35.556000
20
23.077000
30
76.703003
70
192
0
VERTEX
8
OBJECT__25
10
30.722000
20
23.146999
30
78.191002
70
192
0
VERTEX
8
OBJECT__25
10
25.639999
20
23.934999
30
77.112000
70
192
0
VERTEX
8
OBJECT__25
10
26.922001
20
23.777000
30
77.634003
70
192
0
VERTEX
8
OBJECT__25
10
27.538000
20
23.674999
30
77.723999
70
192
0
VERTEX
8
OBJECT__25
10
42.768002
20
22.427999
30
76.273003
70
192
0
VERTEX
8
OBJECT__25
10
19.855000
20
24.392000
30
77.178001
70
192
0
VERTEX
8
OBJECT__25
10
23.688000
20
24.058001
30
77.425003
70
192
0
VERTEX
8
OBJECT__25
10
34.037998
20
22.153000
30
78.713997
70
192
0
VERTEX
8
OBJECT__25
10
34.916000
20
21.761999
30
78.806000
70
192
0
VERTEX
8
OBJECT__25
10
31.146999
20
23.076000
30
78.252998
70
192
0
VERTEX
8
OBJECT__25
10
31.308001
20
23.025000
30
78.278999
70
192
0
VERTEX
8
OBJECT__25
10
0
20
0
30
0
70
128
71
1
72
2
73
3
0
VERTEX
8
OBJECT__25
10
0
20
0
30
0
70
128
71
1
72
4
73
2
0
VERTEX
8
OBJECT__25
10
0
20
0
30
0
70
128
71
5
72
6
73
4
0
VERTEX
8
OBJECT__25
10
0
20
0
30
0
70
128
71
5
72
7
73
6
0
VERTEX
8
OBJECT__25
10
0
20
0
30
0
70
128
71
4
72
1
73
5
0
VERTEX
8
OBJECT__25
10
0
20
0
30
0
70
128
71
5
72
8
73
9
0
VERTEX
8
OBJECT__25
10
0
20
0
30
0
70
128
71
1
72
10
73
8
0
VERTEX
8
OBJECT__25
10
0
20
0
30
0
70
128
71
1
72
11
73
10
0
VERTEX
8
OBJECT__25
10
0
20
0
30
0
70
128
71
8
72
5
73
1
0
VERTEX
8
OBJECT__25
10
0
20
0
30
0
70
128
71
12
72
13
73
14
0
VERTEX
8
OBJECT__25
10
0
20
0
30
0
70
128
71
14
72
5
73
12
0
VERTEX
8
OBJECT__25
10
0
20
0
30
0
70
128
71
14
72
15
73
5
0
VERTEX
8
OBJECT__25
10
0
20
0
30
0
70
128
71
15
72
16
73
5
0
VERTEX
8
OBJECT__25
10
0
20
0
30
0
70
128
71
12
72
17
73
18
0
VERTEX
8
OBJECT__25
10
0
20
0
30
0
70
128
71
18
72
13
73
12
0
VERTEX
8
OBJECT__25
10
0
20
0
30
0
70
128
71
12
72
5
73
19
0
VERTEX
8
OBJECT__25
10
0
20
0
30
0
70
128
71
5
72
20
73
19
0
VERTEX
8
OBJECT__25
10
0
20
0
30
0
70
128
71
5
72
21
73
20
0
VERTEX
8
OBJECT__25
10
0
20
0
30
0
70
128
71
12
72
22
73
23
0
VERTEX
8
OBJECT__25
10
0
20
0
30
0
70
128
71
23
72
24
73
12
0
VERTEX
8
OBJECT__25
10
0
20
0
30
0
70
128
71
12
72
25
73
26
0
VERTEX
8
OBJECT__25
10
0
20
0
30
0
70
128
71
26
72
22
73
12
0
VERTEX
8
OBJECT__25
10
0
20
0
30
0
70
128
71
23
72
27
73
28
0
VERTEX
8
OBJECT__25
10
0
20
0
30
0
70
128
71
29
72
24
73
30
0
VERTEX
8
OBJECT__25
10
0
20
0
30
0
70
128
71
29
72
12
73
24
0
VERTEX
8
OBJECT__25
10
0
20
0
30
0
70
128
71
29
72
31
73
12
0
VERTEX
8
OBJECT__25
10
0
20
0
30
0
70
128
71
30
72
32
73
29
0
VERTEX
8
OBJECT__25
10
0
20
0
30
0
70
128
71
1
72
33
73
34
0
VERTEX
8
OBJECT__25
10
0
20
0
30
0
70
128
71
34
72
35
73
1
0
VERTEX
8
OBJECT__25
10
0
20
0
30
0
70
128
71
34
72
36
73
37
0
VERTEX
8
OBJECT__25
10
0
20
0
30
0
70
128
71
37
72
38
73
34
0
VERTEX
8
OBJECT__25
10
0
20
0
30
0
70
128
71
1
72
39
73
33
0
VERTEX
8
OBJECT__25
10
0
20
0
30
0
70
128
71
36
72
40
73
41
0
VERTEX
8
OBJECT__25
10
0
20
0
30
0
70
128
71
41
72
37
73
36
0
VERTEX
8
OBJECT__25
10
0
20
0
30
0
70
128
71
1
72
42
73
43
0
VERTEX
8
OBJECT__25
10
0
20
0
30
0
70
128
71
1
72
44
73
45
0
VERTEX
8
OBJECT__25
10
0
20
0
30
0
70
128
71
45
72
42
73
1
0
VERTEX
8
OBJECT__25
10
0
20
0
30
0
70
128
71
1
72
35
73
44
0
VERTEX
8
OBJECT__25
10
0
20
0
30
0
70
128
71
43
72
11
73
1
0
VERTEX
8
OBJECT__25
10
0
20
0
30
0
70
128
71
34
72
38
73
35
0
VERTEX
8
OBJECT__25
10
0
20
0
30
0
70
128
71
31
72
17
73
12
0
VERTEX
8
OBJECT__25
10
0
20
0
30
0
70
128
71
23
72
28
73
24
0
VERTEX
8
OBJECT__25
10
0
20
0
30
0
70
128
71
19
72
25
73
12
0
VERTEX
8
OBJECT__25
10
0
20
0
30
0
70
128
71
16
72
7
73
5
0
VERTEX
8
OBJECT__25
10
0
20
0
30
0
70
128
71
9
72
21
73
5
0
VERTEX
8
OBJECT__25
10
0
20
0
30
0
70
128
71
3
72
39
73
1
0
SEQEND
8
OBJECT__25
0
POLYLINE
8
OBJECT__26
66
1
70
64
71
16
72
15
62
253
0
VERTEX
8
OBJECT__26
10
112.091003
20
15.059000
30
62.801998
70
192
0
VERTEX
8
OBJECT__26
10
112.070999
20
15.059000
30
62.785999
70
192
0
VERTEX
8
OBJECT__26
10
111.830002
20
15.531000
30
62.917000
70
192
0
VERTEX
8
OBJECT__26
10
111.667999
20
15.901000
30
63.353001
70
192
0
VERTEX
8
OBJECT__26
10
112.768997
20
15.061000
30
63.662998
70
192
0
VERTEX
8
OBJECT__26
10
112.768997
20
15.061000
30
63.660999
70
192
0
VERTEX
8
OBJECT__26
10
112.091003
20
15.997000
30
64.457001
70
192
0
VERTEX
8
OBJECT__26
10
112.888000
20
14.990000
30
64.667999
70
192
0
VERTEX
8
OBJECT__26
10
111.052002
20
16.363001
30
64.108002
70
192
0
VERTEX
8
OBJECT__26
10
111.405998
20
16.289000
30
64.711998
70
192
0
VERTEX
8
OBJECT__26
10
111.537003
20
16.198000
30
63.703999
70
192
0
VERTEX
8
OBJECT__26
10
112.445000
20
14.852000
30
65.625000
70
192
0
VERTEX
8
OBJECT__26
10
111.401001
20
15.976000
30
65.412003
70
192
0
VERTEX
8
OBJECT__26
10
111.346001
20
15.300000
30
66.039001
70
192
0
VERTEX
8
OBJECT__26
10
111.528999
20
14.800000
30
66.167999
70
192
0
VERTEX
8
OBJECT__26
10
112.892998
20
14.987000
30
64.708000
70
192
0
VERTEX
8
OBJECT__26
10
0
20
0
30
0
70
128
71
1
72
2
73
3
0
VERTEX
8
OBJECT__26
10
0
20
0
30
0
70
128
71
4
72
5
73
6
0
VERTEX
8
OBJECT__26
10
0
20
0
30
0
70
128
71
6
72
1
73
4
0
VERTEX
8
OBJECT__26
10
0
20
0
30
0
70
128
71
7
72
8
73
5
0
VERTEX
8
OBJECT__26
10
0
20
0
30
0
70
128
71
5
72
4
73
7
0
VERTEX
8
OBJECT__26
10
0
20
0
30
0
70
128
71
7
72
9
73
10
0
VERTEX
8
OBJECT__26
10
0
20
0
30
0
70
128
71
7
72
4
73
11
0
VERTEX
8
OBJECT__26
10
0
20
0
30
0
70
128
71
12
72
13
73
14
0
VERTEX
8
OBJECT__26
10
0
20
0
30
0
70
128
71
14
72
15
73
12
0
VERTEX
8
OBJECT__26
10
0
20
0
30
0
70
128
71
12
72
16
73
13
0
VERTEX
8
OBJECT__26
10
0
20
0
30
0
70
128
71
8
72
7
73
13
0
VERTEX
8
OBJECT__26
10
0
20
0
30
0
70
128
71
16
72
8
73
13
0
VERTEX
8
OBJECT__26
10
0
20
0
30
0
70
128
71
11
72
9
73
7
0
VERTEX
8
OBJECT__26
10
0
20
0
30
0
70
128
71
10
72
13
73
7
0
VERTEX
8
OBJECT__26
10
0
20
0
30
0
70
128
71
3
72
4
73
1
0
SEQEND
8
OBJECT__26
0
POLYLINE
8
OBJECT__27
66
1
70
64
71
86
72
84
62
253
0
VERTEX
8
OBJECT__27
10
89.598000
20
-4.194000
30
46.942001
70
192
0
VERTEX
8
OBJECT__27
10
89.040001
20
-2.131000
30
46.459999
70
192
0
VERTEX
8
OBJECT__27
10
90.275002
20
-2.508000
30
46.709000
70
192
0
VERTEX
8
OBJECT__27
10
90.821999
20
-3.990000
30
47.111000
70
192
0
VERTEX
8
OBJECT__27
10
89.682999
20
-4.509000
30
47.014999
70
192
0
VERTEX
8
OBJECT__27
10
88.883003
20
0.002000
30
46.324001
70
192
0
VERTEX
8
OBJECT__27
10
89.962997
20
-0.408000
30
46.480999
70
192
0
VERTEX
8
OBJECT__27
10
89.991997
20
-0.002000
30
46.501999
70
192
0
VERTEX
8
OBJECT__27
10
88.883003
20
0.006000
30
46.324001
70
192
0
VERTEX
8
OBJECT__27
10
104.334999
20
-15.542000
30
58.884998
70
192
0
VERTEX
8
OBJECT__27
10
100.709000
20
-14.449000
30
56.037998
70
192
0
VERTEX
8
OBJECT__27
10
103.389999
20
-13.756000
30
56.356998
70
192
0
VERTEX
8
OBJECT__27
10
105.476997
20
-14.219000
30
57.896999
70
192
0
VERTEX
8
OBJECT__27
10
104.418999
20
-15.555000
30
58.950001
70
192
0
VERTEX
8
OBJECT__27
10
100.457001
20
-14.373000
30
55.840000
70
192
0
VERTEX
8
OBJECT__27
10
97.723999
20
-13.084000
30
53.661999
70
192
0
VERTEX
8
OBJECT__27
10
99.848999
20
-12.453000
30
53.750000
70
192
0
VERTEX
8
OBJECT__27
10
102.601997
20
-13.466000
30
55.776001
70
192
0
VERTEX
8
OBJECT__27
10
98.739998
20
-11.852000
30
52.933998
70
192
0
VERTEX
8
OBJECT__27
10
97.651001
20
-13.050000
30
53.604000
70
192
0
VERTEX
8
OBJECT__27
10
94.473999
20
-10.984000
30
51.033001
70
192
0
VERTEX
8
OBJECT__27
10
92.367996
20
-8.960000
30
49.291000
70
192
0
VERTEX
8
OBJECT__27
10
94.389000
20
-8.955000
30
49.733002
70
192
0
VERTEX
8
OBJECT__27
10
95.633003
20
-9.904000
30
50.647999
70
192
0
VERTEX
8
OBJECT__27
10
94.514999
20
-11.012000
30
51.066002
70
192
0
VERTEX
8
OBJECT__27
10
93.138000
20
-7.620000
30
48.813000
70
192
0
VERTEX
8
OBJECT__27
10
91.787003
20
-8.168000
30
48.801998
70
192
0
VERTEX
8
OBJECT__27
10
92.871002
20
-7.334000
30
48.617001
70
192
0
VERTEX
8
OBJECT__27
10
91.778999
20
-8.157000
30
48.794998
70
192
0
VERTEX
8
OBJECT__27
10
90.810997
20
-6.837000
30
47.980999
70
192
0
VERTEX
8
OBJECT__27
10
89.685997
20
-4.520000
30
47.018002
70
192
0
VERTEX
8
OBJECT__27
10
91.061996
20
-4.642000
30
47.286999
70
192
0
VERTEX
8
OBJECT__27
10
92.523003
20
-6.964000
30
48.362000
70
192
0
VERTEX
8
OBJECT__27
10
97.171997
20
-12.824000
30
53.222000
70
192
0
VERTEX
8
OBJECT__27
10
95.464996
20
-11.660000
30
51.837002
70
192
0
VERTEX
8
OBJECT__27
10
96.827003
20
-10.815000
30
51.527000
70
192
0
VERTEX
8
OBJECT__27
10
98.091003
20
11.572000
30
52.457001
70
192
0
VERTEX
8
OBJECT__27
10
95.607002
20
9.954000
30
50.629002
70
192
0
VERTEX
8
OBJECT__27
10
95.472000
20
11.742000
30
51.848000
70
192
0
VERTEX
8
OBJECT__27
10
95.426003
20
11.702000
30
51.810001
70
192
0
VERTEX
8
OBJECT__27
10
94.544998
20
10.956000
30
51.085999
70
192
0
VERTEX
8
OBJECT__27
10
97.664001
20
13.023000
30
53.612000
70
192
0
VERTEX
8
OBJECT__27
10
98.732002
20
11.872000
30
52.928001
70
192
0
VERTEX
8
OBJECT__27
10
101.061996
20
12.963000
30
54.641998
70
192
0
VERTEX
8
OBJECT__27
10
98.626999
20
13.586000
30
54.387001
70
192
0
VERTEX
8
OBJECT__27
10
97.723000
20
13.057000
30
53.659000
70
192
0
VERTEX
8
OBJECT__27
10
102.601997
20
13.452000
30
55.776001
70
192
0
VERTEX
8
OBJECT__27
10
100.738998
20
14.400000
30
56.056999
70
192
0
VERTEX
8
OBJECT__27
10
102.336998
20
15.015000
30
57.320999
70
192
0
VERTEX
8
OBJECT__27
10
104.431000
20
15.484000
30
58.956001
70
192
0
VERTEX
8
OBJECT__27
10
104.543999
20
14.068000
30
57.207001
70
192
0
VERTEX
8
OBJECT__27
10
105.473000
20
14.240000
30
57.894001
70
192
0
VERTEX
8
OBJECT__27
10
89.936996
20
5.147000
30
47.235001
70
192
0
VERTEX
8
OBJECT__27
10
91.303001
20
7.594000
30
48.396000
70
192
0
VERTEX
8
OBJECT__27
10
91.799004
20
5.947000
30
47.828999
70
192
0
VERTEX
8
OBJECT__27
10
90.777000
20
4.013000
30
47.078999
70
192
0
VERTEX
8
OBJECT__27
10
89.723999
20
4.484000
30
47.049999
70
192
0
VERTEX
8
OBJECT__27
10
92.875999
20
7.334000
30
48.619999
70
192
0
VERTEX
8
OBJECT__27
10
91.772003
20
8.159000
30
48.789001
70
192
0
VERTEX
8
OBJECT__27
10
91.781998
20
8.171000
30
48.798000
70
192
0
VERTEX
8
OBJECT__27
10
93.272003
20
7.845000
30
48.910999
70
192
0
VERTEX
8
OBJECT__27
10
93.097000
20
7.620000
30
48.783001
70
192
0
VERTEX
8
OBJECT__27
10
95.535004
20
9.908000
30
50.577000
70
192
0
VERTEX
8
OBJECT__27
10
93.028000
20
9.671000
30
49.840000
70
192
0
VERTEX
8
OBJECT__27
10
88.862999
20
0.274000
30
46.306000
70
192
0
VERTEX
8
OBJECT__27
10
89.161003
20
2.741000
30
46.563000
70
192
0
VERTEX
8
OBJECT__27
10
90.120003
20
1.787000
30
46.595001
70
192
0
VERTEX
8
OBJECT__27
10
89.991997
20
0.000000
30
46.501999
70
192
0
VERTEX
8
OBJECT__27
10
90.773003
20
4.006000
30
47.076000
70
192
0
VERTEX
8
OBJECT__27
10
89.626999
20
4.185000
30
46.966000
70
192
0
VERTEX
8
OBJECT__27
10
111.830002
20
15.531000
30
62.917000
70
192
0
VERTEX
8
OBJECT__27
10
112.070999
20
15.059000
30
62.785999
70
192
0
VERTEX
8
OBJECT__27
10
108.518997
20
14.801000
30
60.144001
70
192
0
VERTEX
8
OBJECT__27
10
106.591003
20
15.969000
30
60.643002
70
192
0
VERTEX
8
OBJECT__27
10
107.573997
20
16.056000
30
61.407001
70
192
0
VERTEX
8
OBJECT__27
10
111.052002
20
16.363001
30
64.108002
70
192
0
VERTEX
8
OBJECT__27
10
111.537003
20
16.198000
30
63.703999
70
192
0
VERTEX
8
OBJECT__27
10
111.667999
20
15.901000
30
63.353001
70
192
0
VERTEX
8
OBJECT__27
10
108.700996
20
-16.225000
30
62.282001
70
192
0
VERTEX
8
OBJECT__27
10
111.667999
20
-15.915000
30
63.339001
70
192
0
VERTEX
8
OBJECT__27
10
111.544998
20
-16.190001
30
63.688999
70
192
0
VERTEX
8
OBJECT__27
10
111.788002
20
-15.643000
30
62.993000
70
192
0
VERTEX
8
OBJECT__27
10
107.579002
20
-16.049000
30
61.410000
70
192
0
VERTEX
8
OBJECT__27
10
111.052002
20
-16.363001
30
64.108002
70
192
0
VERTEX
8
OBJECT__27
10
107.397003
20
-14.645000
30
59.313000
70
192
0
VERTEX
8
OBJECT__27
10
112.070999
20
-15.059000
30
62.785999
70
192
0
VERTEX
8
OBJECT__27
10
0
20
0
30
0
70
128
71
1
72
2
73
3
0
VERTEX
8
OBJECT__27
10
0
20
0
30
0
70
128
71
4
72
5
73
1
0
VERTEX
8
OBJECT__27
10
0
20
0
30
0
70
128
71
2
72
6
73
7
0
VERTEX
8
OBJECT__27
10
0
20
0
30
0
70
128
71
7
72
3
73
2
0
VERTEX
8
OBJECT__27
10
0
20
0
30
0
70
128
71
8
72
7
73
6
0
VERTEX
8
OBJECT__27
10
0
20
0
30
0
70
128
71
6
72
9
73
8
0
VERTEX
8
OBJECT__27
10
0
20
0
30
0
70
128
71
10
72
11
73
12
0
VERTEX
8
OBJECT__27
10
0
20
0
30
0
70
128
71
13
72
14
73
10
0
VERTEX
8
OBJECT__27
10
0
20
0
30
0
70
128
71
15
72
16
73
17
0
VERTEX
8
OBJECT__27
10
0
20
0
30
0
70
128
71
18
72
11
73
15
0
VERTEX
8
OBJECT__27
10
0
20
0
30
0
70
128
71
17
72
18
73
15
0
VERTEX
8
OBJECT__27
10
0
20
0
30
0
70
128
71
18
72
12
73
11
0
VERTEX
8
OBJECT__27
10
0
20
0
30
0
70
128
71
19
72
17
73
16
0
VERTEX
8
OBJECT__27
10
0
20
0
30
0
70
128
71
16
72
20
73
19
0
VERTEX
8
OBJECT__27
10
0
20
0
30
0
70
128
71
21
72
22
73
23
0
VERTEX
8
OBJECT__27
10
0
20
0
30
0
70
128
71
24
72
25
73
21
0
VERTEX
8
OBJECT__27
10
0
20
0
30
0
70
128
71
26
72
23
73
22
0
VERTEX
8
OBJECT__27
10
0
20
0
30
0
70
128
71
27
72
28
73
26
0
VERTEX
8
OBJECT__27
10
0
20
0
30
0
70
128
71
22
72
27
73
26
0
VERTEX
8
OBJECT__27
10
0
20
0
30
0
70
128
71
28
72
27
73
29
0
VERTEX
8
OBJECT__27
10
0
20
0
30
0
70
128
71
30
72
31
73
32
0
VERTEX
8
OBJECT__27
10
0
20
0
30
0
70
128
71
33
72
29
73
30
0
VERTEX
8
OBJECT__27
10
0
20
0
30
0
70
128
71
32
72
33
73
30
0
VERTEX
8
OBJECT__27
10
0
20
0
30
0
70
128
71
4
72
32
73
31
0
VERTEX
8
OBJECT__27
10
0
20
0
30
0
70
128
71
31
72
5
73
4
0
VERTEX
8
OBJECT__27
10
0
20
0
30
0
70
128
71
34
72
35
73
36
0
VERTEX
8
OBJECT__27
10
0
20
0
30
0
70
128
71
19
72
20
73
34
0
VERTEX
8
OBJECT__27
10
0
20
0
30
0
70
128
71
24
72
36
73
35
0
VERTEX
8
OBJECT__27
10
0
20
0
30
0
70
128
71
35
72
25
73
24
0
VERTEX
8
OBJECT__27
10
0
20
0
30
0
70
128
71
37
72
38
73
39
0
VERTEX
8
OBJECT__27
10
0
20
0
30
0
70
128
71
38
72
40
73
39
0
VERTEX
8
OBJECT__27
10
0
20
0
30
0
70
128
71
38
72
41
73
40
0
VERTEX
8
OBJECT__27
10
0
20
0
30
0
70
128
71
42
72
43
73
37
0
VERTEX
8
OBJECT__27
10
0
20
0
30
0
70
128
71
44
72
43
73
45
0
VERTEX
8
OBJECT__27
10
0
20
0
30
0
70
128
71
43
72
46
73
45
0
VERTEX
8
OBJECT__27
10
0
20
0
30
0
70
128
71
43
72
42
73
46
0
VERTEX
8
OBJECT__27
10
0
20
0
30
0
70
128
71
47
72
44
73
48
0
VERTEX
8
OBJECT__27
10
0
20
0
30
0
70
128
71
49
72
50
73
51
0
VERTEX
8
OBJECT__27
10
0
20
0
30
0
70
128
71
51
72
47
73
49
0
VERTEX
8
OBJECT__27
10
0
20
0
30
0
70
128
71
50
72
52
73
51
0
VERTEX
8
OBJECT__27
10
0
20
0
30
0
70
128
71
48
72
49
73
47
0
VERTEX
8
OBJECT__27
10
0
20
0
30
0
70
128
71
53
72
54
73
55
0
VERTEX
8
OBJECT__27
10
0
20
0
30
0
70
128
71
56
72
57
73
53
0
VERTEX
8
OBJECT__27
10
0
20
0
30
0
70
128
71
58
72
55
73
54
0
VERTEX
8
OBJECT__27
10
0
20
0
30
0
70
128
71
54
72
59
73
58
0
VERTEX
8
OBJECT__27
10
0
20
0
30
0
70
128
71
59
72
60
73
58
0
VERTEX
8
OBJECT__27
10
0
20
0
30
0
70
128
71
60
72
61
73
62
0
VERTEX
8
OBJECT__27
10
0
20
0
30
0
70
128
71
63
72
61
73
64
0
VERTEX
8
OBJECT__27
10
0
20
0
30
0
70
128
71
61
72
60
73
64
0
VERTEX
8
OBJECT__27
10
0
20
0
30
0
70
128
71
41
72
38
73
63
0
VERTEX
8
OBJECT__27
10
0
20
0
30
0
70
128
71
64
72
41
73
63
0
VERTEX
8
OBJECT__27
10
0
20
0
30
0
70
128
71
65
72
66
73
67
0
VERTEX
8
OBJECT__27
10
0
20
0
30
0
70
128
71
68
72
9
73
65
0
VERTEX
8
OBJECT__27
10
0
20
0
30
0
70
128
71
67
72
68
73
65
0
VERTEX
8
OBJECT__27
10
0
20
0
30
0
70
128
71
69
72
67
73
66
0
VERTEX
8
OBJECT__27
10
0
20
0
30
0
70
128
71
66
72
70
73
69
0
VERTEX
8
OBJECT__27
10
0
20
0
30
0
70
128
71
57
72
56
73
69
0
VERTEX
8
OBJECT__27
10
0
20
0
30
0
70
128
71
70
72
57
73
69
0
VERTEX
8
OBJECT__27
10
0
20
0
30
0
70
128
71
71
72
72
73
73
0
VERTEX
8
OBJECT__27
10
0
20
0
30
0
70
128
71
73
72
50
73
71
0
VERTEX
8
OBJECT__27
10
0
20
0
30
0
70
128
71
71
72
74
73
75
0
VERTEX
8
OBJECT__27
10
0
20
0
30
0
70
128
71
71
72
50
73
74
0
VERTEX
8
OBJECT__27
10
0
20
0
30
0
70
128
71
75
72
76
73
77
0
VERTEX
8
OBJECT__27
10
0
20
0
30
0
70
128
71
77
72
78
73
75
0
VERTEX
8
OBJECT__27
10
0
20
0
30
0
70
128
71
75
72
78
73
71
0
VERTEX
8
OBJECT__27
10
0
20
0
30
0
70
128
71
79
72
80
73
81
0
VERTEX
8
OBJECT__27
10
0
20
0
30
0
70
128
71
82
72
80
73
79
0
VERTEX
8
OBJECT__27
10
0
20
0
30
0
70
128
71
79
72
83
73
82
0
VERTEX
8
OBJECT__27
10
0
20
0
30
0
70
128
71
81
72
84
73
79
0
VERTEX
8
OBJECT__27
10
0
20
0
30
0
70
128
71
82
72
14
73
85
0
VERTEX
8
OBJECT__27
10
0
20
0
30
0
70
128
71
14
72
13
73
85
0
VERTEX
8
OBJECT__27
10
0
20
0
30
0
70
128
71
85
72
86
73
82
0
VERTEX
8
OBJECT__27
10
0
20
0
30
0
70
128
71
83
72
14
73
82
0
VERTEX
8
OBJECT__27
10
0
20
0
30
0
70
128
71
73
72
52
73
50
0
VERTEX
8
OBJECT__27
10
0
20
0
30
0
70
128
71
68
72
8
73
9
0
VERTEX
8
OBJECT__27
10
0
20
0
30
0
70
128
71
62
72
58
73
60
0
VERTEX
8
OBJECT__27
10
0
20
0
30
0
70
128
71
55
72
56
73
53
0
VERTEX
8
OBJECT__27
10
0
20
0
30
0
70
128
71
45
72
48
73
44
0
VERTEX
8
OBJECT__27
10
0
20
0
30
0
70
128
71
39
72
42
73
37
0
VERTEX
8
OBJECT__27
10
0
20
0
30
0
70
128
71
36
72
19
73
34
0
VERTEX
8
OBJECT__27
10
0
20
0
30
0
70
128
71
29
72
33
73
28
0
VERTEX
8
OBJECT__27
10
0
20
0
30
0
70
128
71
23
72
24
73
21
0
VERTEX
8
OBJECT__27
10
0
20
0
30
0
70
128
71
12
72
13
73
10
0
VERTEX
8
OBJECT__27
10
0
20
0
30
0
70
128
71
3
72
4
73
1
0
SEQEND
8
OBJECT__27
0
POLYLINE
8
OBJECT__28
66
1
70
64
71
53
72
61
62
253
0
VERTEX
8
OBJECT__28
10
116.175003
20
8.176000
30
64.789001
70
192
0
VERTEX
8
OBJECT__28
10
115.763000
20
8.051000
30
65.721001
70
192
0
VERTEX
8
OBJECT__28
10
117.093002
20
0.000000
30
65.786003
70
192
0
VERTEX
8
OBJECT__28
10
116.100998
20
8.137000
30
63.766998
70
192
0
VERTEX
8
OBJECT__28
10
116.375999
20
4.506000
30
62.903000
70
192
0
VERTEX
8
OBJECT__28
10
115.558998
20
7.616000
30
62.882000
70
192
0
VERTEX
8
OBJECT__28
10
117.445000
20
0.000000
30
63.806000
70
192
0
VERTEX
8
OBJECT__28
10
116.781998
20
0.661000
30
62.914001
70
192
0
VERTEX
8
OBJECT__28
10
116.747002
20
0.002000
30
62.912998
70
192
0
VERTEX
8
OBJECT__28
10
115.967003
20
3.123000
30
66.387001
70
192
0
VERTEX
8
OBJECT__28
10
116.119003
20
0.000000
30
66.394997
70
192
0
VERTEX
8
OBJECT__28
10
115.100998
20
7.154000
30
66.344002
70
192
0
VERTEX
8
OBJECT__28
10
114.871002
20
7.761000
30
66.332001
70
192
0
VERTEX
8
OBJECT__28
10
116.175003
20
-8.176000
30
64.789001
70
192
0
VERTEX
8
OBJECT__28
10
117.531998
20
0.000000
30
64.843002
70
192
0
VERTEX
8
OBJECT__28
10
116.157997
20
-0.789000
30
66.397003
70
192
0
VERTEX
8
OBJECT__28
10
115.731003
20
-4.589000
30
66.375000
70
192
0
VERTEX
8
OBJECT__28
10
115.763000
20
-8.051000
30
65.721001
70
192
0
VERTEX
8
OBJECT__28
10
116.120003
20
-0.003000
30
66.394997
70
192
0
VERTEX
8
OBJECT__28
10
116.569000
20
-3.295000
30
62.908001
70
192
0
VERTEX
8
OBJECT__28
10
116.747002
20
0.001000
30
62.912998
70
192
0
VERTEX
8
OBJECT__28
10
116.100998
20
-8.137000
30
63.766998
70
192
0
VERTEX
8
OBJECT__28
10
115.680000
20
-7.364000
30
62.884998
70
192
0
VERTEX
8
OBJECT__28
10
115.471001
20
-7.912000
30
62.880001
70
192
0
VERTEX
8
OBJECT__28
10
115.583000
20
-7.618000
30
62.882999
70
192
0
VERTEX
8
OBJECT__28
10
114.583000
20
-12.008000
30
64.725998
70
192
0
VERTEX
8
OBJECT__28
10
114.275002
20
-11.049000
30
62.848000
70
192
0
VERTEX
8
OBJECT__28
10
113.945000
20
-11.649000
30
62.838001
70
192
0
VERTEX
8
OBJECT__28
10
112.768997
20
15.061000
30
63.662998
70
192
0
VERTEX
8
OBJECT__28
10
113.824997
20
11.984000
30
62.834999
70
192
0
VERTEX
8
OBJECT__28
10
115.385002
20
8.278000
30
62.876999
70
192
0
VERTEX
8
OBJECT__28
10
115.480003
20
7.919000
30
62.880001
70
192
0
VERTEX
8
OBJECT__28
10
112.070999
20
15.059000
30
62.785999
70
192
0
VERTEX
8
OBJECT__28
10
112.091003
20
15.059000
30
62.801998
70
192
0
VERTEX
8
OBJECT__28
10
112.768997
20
15.061000
30
63.660999
70
192
0
VERTEX
8
OBJECT__28
10
112.888000
20
14.990000
30
64.667999
70
192
0
VERTEX
8
OBJECT__28
10
112.892998
20
14.987000
30
64.708000
70
192
0
VERTEX
8
OBJECT__28
10
112.445000
20
14.852000
30
65.625000
70
192
0
VERTEX
8
OBJECT__28
10
111.528999
20
14.800000
30
66.167999
70
192
0
VERTEX
8
OBJECT__28
10
113.606003
20
11.011000
30
66.269997
70
192
0
VERTEX
8
OBJECT__28
10
113.716003
20
10.811000
30
66.275002
70
192
0
VERTEX
8
OBJECT__28
10
112.889999
20
-14.985000
30
64.723999
70
192
0
VERTEX
8
OBJECT__28
10
112.884003
20
-14.989000
30
64.667999
70
192
0
VERTEX
8
OBJECT__28
10
114.721001
20
-8.323000
30
66.324997
70
192
0
VERTEX
8
OBJECT__28
10
112.431999
20
-14.850000
30
65.638000
70
192
0
VERTEX
8
OBJECT__28
10
113.565002
20
-11.009000
30
66.267998
70
192
0
VERTEX
8
OBJECT__28
10
114.872002
20
-7.765000
30
66.332001
70
192
0
VERTEX
8
OBJECT__28
10
113.139000
20
-12.000000
30
66.247002
70
192
0
VERTEX
8
OBJECT__28
10
111.528999
20
-14.800000
30
66.167999
70
192
0
VERTEX
8
OBJECT__28
10
112.772003
20
-15.061000
30
63.667999
70
192
0
VERTEX
8
OBJECT__28
10
112.106003
20
-15.059000
30
62.813000
70
192
0
VERTEX
8
OBJECT__28
10
112.883003
20
-14.990000
30
64.658997
70
192
0
VERTEX
8
OBJECT__28
10
112.070999
20
-15.059000
30
62.785999
70
192
0
VERTEX
8
OBJECT__28
10
0
20
0
30
0
70
128
71
1
72
2
73
3
0
VERTEX
8
OBJECT__28
10
0
20
0
30
0
70
128
71
4
72
5
73
6
0
VERTEX
8
OBJECT__28
10
0
20
0
30
0
70
128
71
7
72
8
73
5
0
VERTEX
8
OBJECT__28
10
0
20
0
30
0
70
128
71
5
72
4
73
7
0
VERTEX
8
OBJECT__28
10
0
20
0
30
0
70
128
71
7
72
9
73
8
0
VERTEX
8
OBJECT__28
10
0
20
0
30
0
70
128
71
3
72
10
73
11
0
VERTEX
8
OBJECT__28
10
0
20
0
30
0
70
128
71
2
72
12
73
10
0
VERTEX
8
OBJECT__28
10
0
20
0
30
0
70
128
71
2
72
13
73
12
0
VERTEX
8
OBJECT__28
10
0
20
0
30
0
70
128
71
10
72
3
73
2
0
VERTEX
8
OBJECT__28
10
0
20
0
30
0
70
128
71
14
72
15
73
3
0
VERTEX
8
OBJECT__28
10
0
20
0
30
0
70
128
71
3
72
16
73
17
0
VERTEX
8
OBJECT__28
10
0
20
0
30
0
70
128
71
17
72
18
73
3
0
VERTEX
8
OBJECT__28
10
0
20
0
30
0
70
128
71
3
72
19
73
16
0
VERTEX
8
OBJECT__28
10
0
20
0
30
0
70
128
71
7
72
20
73
21
0
VERTEX
8
OBJECT__28
10
0
20
0
30
0
70
128
71
22
72
23
73
20
0
VERTEX
8
OBJECT__28
10
0
20
0
30
0
70
128
71
22
72
24
73
25
0
VERTEX
8
OBJECT__28
10
0
20
0
30
0
70
128
71
25
72
23
73
22
0
VERTEX
8
OBJECT__28
10
0
20
0
30
0
70
128
71
20
72
7
73
22
0
VERTEX
8
OBJECT__28
10
0
20
0
30
0
70
128
71
22
72
26
73
27
0
VERTEX
8
OBJECT__28
10
0
20
0
30
0
70
128
71
27
72
24
73
22
0
VERTEX
8
OBJECT__28
10
0
20
0
30
0
70
128
71
26
72
28
73
27
0
VERTEX
8
OBJECT__28
10
0
20
0
30
0
70
128
71
15
72
14
73
22
0
VERTEX
8
OBJECT__28
10
0
20
0
30
0
70
128
71
15
72
7
73
4
0
VERTEX
8
OBJECT__28
10
0
20
0
30
0
70
128
71
29
72
4
73
30
0
VERTEX
8
OBJECT__28
10
0
20
0
30
0
70
128
71
4
72
31
73
30
0
VERTEX
8
OBJECT__28
10
0
20
0
30
0
70
128
71
4
72
32
73
31
0
VERTEX
8
OBJECT__28
10
0
20
0
30
0
70
128
71
30
72
33
73
34
0
VERTEX
8
OBJECT__28
10
0
20
0
30
0
70
128
71
34
72
35
73
30
0
VERTEX
8
OBJECT__28
10
0
20
0
30
0
70
128
71
4
72
36
73
37
0
VERTEX
8
OBJECT__28
10
0
20
0
30
0
70
128
71
4
72
29
73
36
0
VERTEX
8
OBJECT__28
10
0
20
0
30
0
70
128
71
38
72
39
73
40
0
VERTEX
8
OBJECT__28
10
0
20
0
30
0
70
128
71
37
72
38
73
41
0
VERTEX
8
OBJECT__28
10
0
20
0
30
0
70
128
71
41
72
2
73
37
0
VERTEX
8
OBJECT__28
10
0
20
0
30
0
70
128
71
41
72
13
73
2
0
VERTEX
8
OBJECT__28
10
0
20
0
30
0
70
128
71
2
72
1
73
37
0
VERTEX
8
OBJECT__28
10
0
20
0
30
0
70
128
71
26
72
42
73
43
0
VERTEX
8
OBJECT__28
10
0
20
0
30
0
70
128
71
26
72
14
73
44
0
VERTEX
8
OBJECT__28
10
0
20
0
30
0
70
128
71
45
72
42
73
26
0
VERTEX
8
OBJECT__28
10
0
20
0
30
0
70
128
71
26
72
46
73
45
0
VERTEX
8
OBJECT__28
10
0
20
0
30
0
70
128
71
44
72
14
73
18
0
VERTEX
8
OBJECT__28
10
0
20
0
30
0
70
128
71
18
72
47
73
44
0
VERTEX
8
OBJECT__28
10
0
20
0
30
0
70
128
71
44
72
46
73
26
0
VERTEX
8
OBJECT__28
10
0
20
0
30
0
70
128
71
45
72
46
73
48
0
VERTEX
8
OBJECT__28
10
0
20
0
30
0
70
128
71
48
72
49
73
45
0
VERTEX
8
OBJECT__28
10
0
20
0
30
0
70
128
71
28
72
50
73
51
0
VERTEX
8
OBJECT__28
10
0
20
0
30
0
70
128
71
26
72
52
73
50
0
VERTEX
8
OBJECT__28
10
0
20
0
30
0
70
128
71
50
72
28
73
26
0
VERTEX
8
OBJECT__28
10
0
20
0
30
0
70
128
71
51
72
53
73
28
0
VERTEX
8
OBJECT__28
10
0
20
0
30
0
70
128
71
43
72
52
73
26
0
VERTEX
8
OBJECT__28
10
0
20
0
30
0
70
128
71
40
72
41
73
38
0
VERTEX
8
OBJECT__28
10
0
20
0
30
0
70
128
71
37
72
1
73
4
0
VERTEX
8
OBJECT__28
10
0
20
0
30
0
70
128
71
30
72
35
73
29
0
VERTEX
8
OBJECT__28
10
0
20
0
30
0
70
128
71
4
72
1
73
15
0
VERTEX
8
OBJECT__28
10
0
20
0
30
0
70
128
71
22
72
7
73
15
0
VERTEX
8
OBJECT__28
10
0
20
0
30
0
70
128
71
22
72
14
73
26
0
VERTEX
8
OBJECT__28
10
0
20
0
30
0
70
128
71
21
72
9
73
7
0
VERTEX
8
OBJECT__28
10
0
20
0
30
0
70
128
71
17
72
47
73
18
0
VERTEX
8
OBJECT__28
10
0
20
0
30
0
70
128
71
3
72
18
73
14
0
VERTEX
8
OBJECT__28
10
0
20
0
30
0
70
128
71
11
72
19
73
3
0
VERTEX
8
OBJECT__28
10
0
20
0
30
0
70
128
71
6
72
32
73
4
0
VERTEX
8
OBJECT__28
10
0
20
0
30
0
70
128
71
3
72
15
73
1
0
SEQEND
8
OBJECT__28
0
POLYLINE
8
OBJECT__29
66
1
70
64
71
53
72
54
62
253
0
VERTEX
8
OBJECT__29
10
103.807999
20
0.000000
30
53.922001
70
192
0
VERTEX
8
OBJECT__29
10
116.375999
20
4.506000
30
62.903000
70
192
0
VERTEX
8
OBJECT__29
10
116.781998
20
0.661000
30
62.914001
70
192
0
VERTEX
8
OBJECT__29
10
103.425003
20
7.620000
30
54.511002
70
192
0
VERTEX
8
OBJECT__29
10
115.558998
20
7.616000
30
62.882000
70
192
0
VERTEX
8
OBJECT__29
10
116.747002
20
0.002000
30
62.912998
70
192
0
VERTEX
8
OBJECT__29
10
115.680000
20
-7.364000
30
62.884998
70
192
0
VERTEX
8
OBJECT__29
10
115.583000
20
-7.618000
30
62.882999
70
192
0
VERTEX
8
OBJECT__29
10
116.747002
20
0.001000
30
62.912998
70
192
0
VERTEX
8
OBJECT__29
10
116.569000
20
-3.295000
30
62.908001
70
192
0
VERTEX
8
OBJECT__29
10
103.425003
20
-7.620000
30
54.511002
70
192
0
VERTEX
8
OBJECT__29
10
105.476997
20
-14.219000
30
57.896999
70
192
0
VERTEX
8
OBJECT__29
10
103.389999
20
-13.756000
30
56.356998
70
192
0
VERTEX
8
OBJECT__29
10
113.945000
20
-11.649000
30
62.838001
70
192
0
VERTEX
8
OBJECT__29
10
112.070999
20
-15.059000
30
62.785999
70
192
0
VERTEX
8
OBJECT__29
10
107.397003
20
-14.645000
30
59.313000
70
192
0
VERTEX
8
OBJECT__29
10
115.471001
20
-7.912000
30
62.880001
70
192
0
VERTEX
8
OBJECT__29
10
114.275002
20
-11.049000
30
62.848000
70
192
0
VERTEX
8
OBJECT__29
10
95.633003
20
-9.904000
30
50.647999
70
192
0
VERTEX
8
OBJECT__29
10
94.389000
20
-8.955000
30
49.733002
70
192
0
VERTEX
8
OBJECT__29
10
98.739998
20
-11.852000
30
52.933998
70
192
0
VERTEX
8
OBJECT__29
10
96.827003
20
-10.815000
30
51.527000
70
192
0
VERTEX
8
OBJECT__29
10
102.601997
20
-13.466000
30
55.776001
70
192
0
VERTEX
8
OBJECT__29
10
99.848999
20
-12.453000
30
53.750000
70
192
0
VERTEX
8
OBJECT__29
10
90.275002
20
-2.508000
30
46.709000
70
192
0
VERTEX
8
OBJECT__29
10
89.962997
20
-0.408000
30
46.480999
70
192
0
VERTEX
8
OBJECT__29
10
90.821999
20
-3.990000
30
47.111000
70
192
0
VERTEX
8
OBJECT__29
10
92.523003
20
-6.964000
30
48.362000
70
192
0
VERTEX
8
OBJECT__29
10
91.061996
20
-4.642000
30
47.286999
70
192
0
VERTEX
8
OBJECT__29
10
92.871002
20
-7.334000
30
48.617001
70
192
0
VERTEX
8
OBJECT__29
10
93.138000
20
-7.620000
30
48.813000
70
192
0
VERTEX
8
OBJECT__29
10
89.991997
20
-0.002000
30
46.501999
70
192
0
VERTEX
8
OBJECT__29
10
92.875999
20
7.334000
30
48.619999
70
192
0
VERTEX
8
OBJECT__29
10
93.097000
20
7.620000
30
48.783001
70
192
0
VERTEX
8
OBJECT__29
10
90.777000
20
4.013000
30
47.078999
70
192
0
VERTEX
8
OBJECT__29
10
91.799004
20
5.947000
30
47.828999
70
192
0
VERTEX
8
OBJECT__29
10
89.991997
20
0.000000
30
46.501999
70
192
0
VERTEX
8
OBJECT__29
10
90.120003
20
1.787000
30
46.595001
70
192
0
VERTEX
8
OBJECT__29
10
90.773003
20
4.006000
30
47.076000
70
192
0
VERTEX
8
OBJECT__29
10
98.732002
20
11.872000
30
52.928001
70
192
0
VERTEX
8
OBJECT__29
10
101.061996
20
12.963000
30
54.641998
70
192
0
VERTEX
8
OBJECT__29
10
95.607002
20
9.954000
30
50.629002
70
192
0
VERTEX
8
OBJECT__29
10
98.091003
20
11.572000
30
52.457001
70
192
0
VERTEX
8
OBJECT__29
10
93.272003
20
7.845000
30
48.910999
70
192
0
VERTEX
8
OBJECT__29
10
95.535004
20
9.908000
30
50.577000
70
192
0
VERTEX
8
OBJECT__29
10
108.518997
20
14.801000
30
60.144001
70
192
0
VERTEX
8
OBJECT__29
10
113.824997
20
11.984000
30
62.834999
70
192
0
VERTEX
8
OBJECT__29
10
115.385002
20
8.278000
30
62.876999
70
192
0
VERTEX
8
OBJECT__29
10
112.070999
20
15.059000
30
62.785999
70
192
0
VERTEX
8
OBJECT__29
10
105.473000
20
14.240000
30
57.894001
70
192
0
VERTEX
8
OBJECT__29
10
115.480003
20
7.919000
30
62.880001
70
192
0
VERTEX
8
OBJECT__29
10
102.601997
20
13.452000
30
55.776001
70
192
0
VERTEX
8
OBJECT__29
10
104.543999
20
14.068000
30
57.207001
70
192
0
VERTEX
8
OBJECT__29
10
0
20
0
30
0
70
128
71
1
72
2
73
3
0
VERTEX
8
OBJECT__29
10
0
20
0
30
0
70
128
71
1
72
4
73
5
0
VERTEX
8
OBJECT__29
10
0
20
0
30
0
70
128
71
5
72
2
73
1
0
VERTEX
8
OBJECT__29
10
0
20
0
30
0
70
128
71
3
72
6
73
1
0
VERTEX
8
OBJECT__29
10
0
20
0
30
0
70
128
71
1
72
7
73
8
0
VERTEX
8
OBJECT__29
10
0
20
0
30
0
70
128
71
1
72
9
73
10
0
VERTEX
8
OBJECT__29
10
0
20
0
30
0
70
128
71
10
72
7
73
1
0
VERTEX
8
OBJECT__29
10
0
20
0
30
0
70
128
71
11
72
12
73
13
0
VERTEX
8
OBJECT__29
10
0
20
0
30
0
70
128
71
14
72
15
73
16
0
VERTEX
8
OBJECT__29
10
0
20
0
30
0
70
128
71
16
72
11
73
14
0
VERTEX
8
OBJECT__29
10
0
20
0
30
0
70
128
71
11
72
17
73
18
0
VERTEX
8
OBJECT__29
10
0
20
0
30
0
70
128
71
18
72
14
73
11
0
VERTEX
8
OBJECT__29
10
0
20
0
30
0
70
128
71
16
72
12
73
11
0
VERTEX
8
OBJECT__29
10
0
20
0
30
0
70
128
71
11
72
8
73
17
0
VERTEX
8
OBJECT__29
10
0
20
0
30
0
70
128
71
11
72
19
73
20
0
VERTEX
8
OBJECT__29
10
0
20
0
30
0
70
128
71
11
72
21
73
22
0
VERTEX
8
OBJECT__29
10
0
20
0
30
0
70
128
71
11
72
23
73
24
0
VERTEX
8
OBJECT__29
10
0
20
0
30
0
70
128
71
24
72
21
73
11
0
VERTEX
8
OBJECT__29
10
0
20
0
30
0
70
128
71
22
72
19
73
11
0
VERTEX
8
OBJECT__29
10
0
20
0
30
0
70
128
71
1
72
25
73
26
0
VERTEX
8
OBJECT__29
10
0
20
0
30
0
70
128
71
1
72
27
73
25
0
VERTEX
8
OBJECT__29
10
0
20
0
30
0
70
128
71
1
72
28
73
29
0
VERTEX
8
OBJECT__29
10
0
20
0
30
0
70
128
71
1
72
30
73
28
0
VERTEX
8
OBJECT__29
10
0
20
0
30
0
70
128
71
1
72
11
73
31
0
VERTEX
8
OBJECT__29
10
0
20
0
30
0
70
128
71
31
72
30
73
1
0
VERTEX
8
OBJECT__29
10
0
20
0
30
0
70
128
71
29
72
27
73
1
0
VERTEX
8
OBJECT__29
10
0
20
0
30
0
70
128
71
26
72
32
73
1
0
VERTEX
8
OBJECT__29
10
0
20
0
30
0
70
128
71
1
72
33
73
34
0
VERTEX
8
OBJECT__29
10
0
20
0
30
0
70
128
71
1
72
35
73
36
0
VERTEX
8
OBJECT__29
10
0
20
0
30
0
70
128
71
1
72
37
73
38
0
VERTEX
8
OBJECT__29
10
0
20
0
30
0
70
128
71
38
72
39
73
1
0
VERTEX
8
OBJECT__29
10
0
20
0
30
0
70
128
71
39
72
35
73
1
0
VERTEX
8
OBJECT__29
10
0
20
0
30
0
70
128
71
36
72
33
73
1
0
VERTEX
8
OBJECT__29
10
0
20
0
30
0
70
128
71
4
72
40
73
41
0
VERTEX
8
OBJECT__29
10
0
20
0
30
0
70
128
71
4
72
42
73
43
0
VERTEX
8
OBJECT__29
10
0
20
0
30
0
70
128
71
4
72
34
73
44
0
VERTEX
8
OBJECT__29
10
0
20
0
30
0
70
128
71
44
72
45
73
4
0
VERTEX
8
OBJECT__29
10
0
20
0
30
0
70
128
71
45
72
42
73
4
0
VERTEX
8
OBJECT__29
10
0
20
0
30
0
70
128
71
43
72
40
73
4
0
VERTEX
8
OBJECT__29
10
0
20
0
30
0
70
128
71
46
72
47
73
48
0
VERTEX
8
OBJECT__29
10
0
20
0
30
0
70
128
71
46
72
49
73
47
0
VERTEX
8
OBJECT__29
10
0
20
0
30
0
70
128
71
4
72
50
73
46
0
VERTEX
8
OBJECT__29
10
0
20
0
30
0
70
128
71
46
72
51
73
4
0
VERTEX
8
OBJECT__29
10
0
20
0
30
0
70
128
71
48
72
51
73
46
0
VERTEX
8
OBJECT__29
10
0
20
0
30
0
70
128
71
4
72
52
73
53
0
VERTEX
8
OBJECT__29
10
0
20
0
30
0
70
128
71
53
72
50
73
4
0
VERTEX
8
OBJECT__29
10
0
20
0
30
0
70
128
71
51
72
5
73
4
0
VERTEX
8
OBJECT__29
10
0
20
0
30
0
70
128
71
41
72
52
73
4
0
VERTEX
8
OBJECT__29
10
0
20
0
30
0
70
128
71
34
72
4
73
1
0
VERTEX
8
OBJECT__29
10
0
20
0
30
0
70
128
71
32
72
37
73
1
0
VERTEX
8
OBJECT__29
10
0
20
0
30
0
70
128
71
20
72
31
73
11
0
VERTEX
8
OBJECT__29
10
0
20
0
30
0
70
128
71
13
72
23
73
11
0
VERTEX
8
OBJECT__29
10
0
20
0
30
0
70
128
71
8
72
11
73
1
0
VERTEX
8
OBJECT__29
10
0
20
0
30
0
70
128
71
6
72
9
73
1
0
SEQEND
8
OBJECT__29
0
ENDSEC
0
EOF
