999
Converted by 3D Exploration 
999
XDimension Software, LLC
999
http://www.xdsoft.com/explorer/
0
SECTION
2
HEADER
9
$ACADVER
1
AC1008
9
$UCSORG
10
0.0
20
0.0
30
0.0
9
$UCSXDIR
10
1.0
20
0.0
30
0.0
9
$TILEMODE
70
1
9
$UCSYDIR
10
0.0
20
1.0
30
0.0
9
$EXTMIN
10
0.000000
20
-102.000000
30
-102.000000
9
$EXTMAX
10
97.949997
20
102.000000
30
145.000000
0
ENDSEC
0
SECTION
2
TABLES
0
TABLE
2
LTYPE
70
1
0
LTYPE
2
CONTINUOUS
70
64
3
Solid line
72
65
73
0
40
0.0
0
ENDTAB
0
TABLE
2
LAYER
70
68
0
LAYER
2
OBJECT__0
70
0
62
253
6
CONTINUOUS
0
LAYER
2
OBJECT__1
70
0
62
253
6
CONTINUOUS
0
LAYER
2
OBJECT__3
70
0
62
253
6
CONTINUOUS
0
LAYER
2
OBJECT__4
70
0
62
253
6
CONTINUOUS
0
LAYER
2
OBJECT__5
70
0
62
253
6
CONTINUOUS
0
LAYER
2
OBJECT__6
70
0
62
253
6
CONTINUOUS
0
LAYER
2
OBJECT__7
70
0
62
253
6
CONTINUOUS
0
LAYER
2
OBJECT__8
70
0
62
253
6
CONTINUOUS
0
LAYER
2
OBJECT__9
70
0
62
253
6
CONTINUOUS
0
LAYER
2
OBJECT__11
70
0
62
253
6
CONTINUOUS
0
LAYER
2
OBJECT__12
70
0
62
253
6
CONTINUOUS
0
LAYER
2
OBJECT__13
70
0
62
253
6
CONTINUOUS
0
LAYER
2
OBJECT__14
70
0
62
253
6
CONTINUOUS
0
LAYER
2
OBJECT__15
70
0
62
253
6
CONTINUOUS
0
LAYER
2
OBJECT__16
70
0
62
253
6
CONTINUOUS
0
LAYER
2
OBJECT__17
70
0
62
253
6
CONTINUOUS
0
LAYER
2
OBJECT__18
70
0
62
253
6
CONTINUOUS
0
LAYER
2
OBJECT__19
70
0
62
253
6
CONTINUOUS
0
LAYER
2
OBJECT__20
70
0
62
253
6
CONTINUOUS
0
LAYER
2
OBJECT__21
70
0
62
253
6
CONTINUOUS
0
LAYER
2
OBJECT__22
70
0
62
253
6
CONTINUOUS
0
LAYER
2
OBJECT__23
70
0
62
253
6
CONTINUOUS
0
LAYER
2
OBJECT__24
70
0
62
253
6
CONTINUOUS
0
LAYER
2
OBJECT__26
70
0
62
253
6
CONTINUOUS
0
LAYER
2
OBJECT__27
70
0
62
253
6
CONTINUOUS
0
LAYER
2
OBJECT__28
70
0
62
253
6
CONTINUOUS
0
LAYER
2
OBJECT__29
70
0
62
253
6
CONTINUOUS
0
LAYER
2
OBJECT__30
70
0
62
253
6
CONTINUOUS
0
LAYER
2
OBJECT__31
70
0
62
253
6
CONTINUOUS
0
LAYER
2
OBJECT__32
70
0
62
253
6
CONTINUOUS
0
LAYER
2
OBJECT__34
70
0
62
253
6
CONTINUOUS
0
LAYER
2
OBJECT__35
70
0
62
253
6
CONTINUOUS
0
LAYER
2
OBJECT__36
70
0
62
253
6
CONTINUOUS
0
LAYER
2
OBJECT__37
70
0
62
253
6
CONTINUOUS
0
LAYER
2
OBJECT__38
70
0
62
253
6
CONTINUOUS
0
LAYER
2
OBJECT__39
70
0
62
253
6
CONTINUOUS
0
LAYER
2
OBJECT__40
70
0
62
253
6
CONTINUOUS
0
LAYER
2
OBJECT__42
70
0
62
253
6
CONTINUOUS
0
LAYER
2
OBJECT__43
70
0
62
253
6
CONTINUOUS
0
LAYER
2
OBJECT__44
70
0
62
253
6
CONTINUOUS
0
LAYER
2
OBJECT__45
70
0
62
253
6
CONTINUOUS
0
LAYER
2
OBJECT__46
70
0
62
253
6
CONTINUOUS
0
LAYER
2
OBJECT__47
70
0
62
253
6
CONTINUOUS
0
LAYER
2
OBJECT__49
70
0
62
253
6
CONTINUOUS
0
LAYER
2
OBJECT__50
70
0
62
253
6
CONTINUOUS
0
LAYER
2
OBJECT__51
70
0
62
253
6
CONTINUOUS
0
LAYER
2
OBJECT__53
70
0
62
253
6
CONTINUOUS
0
LAYER
2
OBJECT__54
70
0
62
253
6
CONTINUOUS
0
LAYER
2
OBJECT__55
70
0
62
253
6
CONTINUOUS
0
LAYER
2
OBJECT__56
70
0
62
253
6
CONTINUOUS
0
LAYER
2
OBJECT__57
70
0
62
253
6
CONTINUOUS
0
LAYER
2
OBJECT__58
70
0
62
253
6
CONTINUOUS
0
LAYER
2
OBJECT__60
70
0
62
253
6
CONTINUOUS
0
LAYER
2
OBJECT__61
70
0
62
253
6
CONTINUOUS
0
LAYER
2
OBJECT__62
70
0
62
253
6
CONTINUOUS
0
LAYER
2
OBJECT__64
70
0
62
253
6
CONTINUOUS
0
LAYER
2
OBJECT__65
70
0
62
253
6
CONTINUOUS
0
LAYER
2
OBJECT__66
70
0
62
253
6
CONTINUOUS
0
LAYER
2
OBJECT__67
70
0
62
253
6
CONTINUOUS
0
ENDTAB
0
TABLE
2
STYLE
70
1
0
STYLE
2
STANDARD
70
0
40
0.0
41
1.0
50
0.0
71
0
42
0.2
3
txt
4
1
0
ENDTAB
0
TABLE
2
UCS
70
0
0
ENDTAB
0
ENDSEC
0
SECTION
2
ENTITIES
0
POLYLINE
8
OBJECT__0
66
1
70
64
71
36
72
36
62
253
0
VERTEX
8
OBJECT__0
10
17.900000
20
0.001000
30
20.999001
70
192
0
VERTEX
8
OBJECT__0
10
17.900000
20
9.112000
30
18.919001
70
192
0
VERTEX
8
OBJECT__0
10
17.700001
20
9.026000
30
18.739000
70
192
0
VERTEX
8
OBJECT__0
10
17.700001
20
16.263000
30
12.968000
70
192
0
VERTEX
8
OBJECT__0
10
17.900000
20
12.029000
30
16.593000
70
192
0
VERTEX
8
OBJECT__0
10
17.900000
20
16.419001
30
13.092000
70
192
0
VERTEX
8
OBJECT__0
10
17.900000
20
19.670000
30
6.342000
70
192
0
VERTEX
8
OBJECT__0
10
17.700001
20
20.278999
30
4.627000
70
192
0
VERTEX
8
OBJECT__0
10
17.900000
20
20.474001
30
-4.674000
70
192
0
VERTEX
8
OBJECT__0
10
17.700001
20
20.278999
30
-4.629000
70
192
0
VERTEX
8
OBJECT__0
10
17.700001
20
16.263000
30
-12.970000
70
192
0
VERTEX
8
OBJECT__0
10
17.900000
20
19.670000
30
-6.344000
70
192
0
VERTEX
8
OBJECT__0
10
17.900000
20
16.419001
30
-13.094000
70
192
0
VERTEX
8
OBJECT__0
10
17.900000
20
12.029000
30
-16.594999
70
192
0
VERTEX
8
OBJECT__0
10
17.700001
20
9.026000
30
-18.740999
70
192
0
VERTEX
8
OBJECT__0
10
17.900000
20
0.001000
30
-21.000999
70
192
0
VERTEX
8
OBJECT__0
10
17.700001
20
0.001000
30
-20.801001
70
192
0
VERTEX
8
OBJECT__0
10
17.900000
20
-9.111000
30
-18.921000
70
192
0
VERTEX
8
OBJECT__0
10
17.700001
20
-9.024000
30
-18.740999
70
192
0
VERTEX
8
OBJECT__0
10
17.700001
20
-16.261000
30
-12.970000
70
192
0
VERTEX
8
OBJECT__0
10
17.900000
20
-12.028000
30
-16.594999
70
192
0
VERTEX
8
OBJECT__0
10
17.900000
20
-16.417999
30
-13.094000
70
192
0
VERTEX
8
OBJECT__0
10
17.900000
20
-19.667999
30
-6.344000
70
192
0
VERTEX
8
OBJECT__0
10
17.700001
20
-20.278000
30
-4.629000
70
192
0
VERTEX
8
OBJECT__0
10
17.900000
20
-20.473000
30
-4.674000
70
192
0
VERTEX
8
OBJECT__0
10
17.900000
20
-20.473000
30
4.672000
70
192
0
VERTEX
8
OBJECT__0
10
17.700001
20
-20.278000
30
4.627000
70
192
0
VERTEX
8
OBJECT__0
10
17.700001
20
-16.261000
30
12.968000
70
192
0
VERTEX
8
OBJECT__0
10
17.900000
20
-19.667999
30
6.342000
70
192
0
VERTEX
8
OBJECT__0
10
17.900000
20
-16.417999
30
13.092000
70
192
0
VERTEX
8
OBJECT__0
10
17.900000
20
-12.028000
30
16.593000
70
192
0
VERTEX
8
OBJECT__0
10
17.700001
20
-9.024000
30
18.739000
70
192
0
VERTEX
8
OBJECT__0
10
17.900000
20
-9.111000
30
18.919001
70
192
0
VERTEX
8
OBJECT__0
10
17.700001
20
0.001000
30
20.799000
70
192
0
VERTEX
8
OBJECT__0
10
17.900000
20
9.112000
30
-18.921000
70
192
0
VERTEX
8
OBJECT__0
10
17.900000
20
20.474001
30
4.672000
70
192
0
VERTEX
8
OBJECT__0
10
0
20
0
30
0
70
128
71
1
72
2
73
3
0
VERTEX
8
OBJECT__0
10
0
20
0
30
0
70
128
71
4
72
3
73
5
0
VERTEX
8
OBJECT__0
10
0
20
0
30
0
70
128
71
3
72
2
73
5
0
VERTEX
8
OBJECT__0
10
0
20
0
30
0
70
128
71
4
72
6
73
7
0
VERTEX
8
OBJECT__0
10
0
20
0
30
0
70
128
71
7
72
8
73
4
0
VERTEX
8
OBJECT__0
10
0
20
0
30
0
70
128
71
9
72
10
73
8
0
VERTEX
8
OBJECT__0
10
0
20
0
30
0
70
128
71
11
72
10
73
12
0
VERTEX
8
OBJECT__0
10
0
20
0
30
0
70
128
71
10
72
9
73
12
0
VERTEX
8
OBJECT__0
10
0
20
0
30
0
70
128
71
11
72
13
73
14
0
VERTEX
8
OBJECT__0
10
0
20
0
30
0
70
128
71
14
72
15
73
11
0
VERTEX
8
OBJECT__0
10
0
20
0
30
0
70
128
71
16
72
17
73
15
0
VERTEX
8
OBJECT__0
10
0
20
0
30
0
70
128
71
16
72
18
73
19
0
VERTEX
8
OBJECT__0
10
0
20
0
30
0
70
128
71
20
72
19
73
21
0
VERTEX
8
OBJECT__0
10
0
20
0
30
0
70
128
71
19
72
18
73
21
0
VERTEX
8
OBJECT__0
10
0
20
0
30
0
70
128
71
20
72
22
73
23
0
VERTEX
8
OBJECT__0
10
0
20
0
30
0
70
128
71
23
72
24
73
20
0
VERTEX
8
OBJECT__0
10
0
20
0
30
0
70
128
71
25
72
26
73
27
0
VERTEX
8
OBJECT__0
10
0
20
0
30
0
70
128
71
28
72
27
73
29
0
VERTEX
8
OBJECT__0
10
0
20
0
30
0
70
128
71
27
72
26
73
29
0
VERTEX
8
OBJECT__0
10
0
20
0
30
0
70
128
71
28
72
30
73
31
0
VERTEX
8
OBJECT__0
10
0
20
0
30
0
70
128
71
31
72
32
73
28
0
VERTEX
8
OBJECT__0
10
0
20
0
30
0
70
128
71
33
72
1
73
34
0
VERTEX
8
OBJECT__0
10
0
20
0
30
0
70
128
71
34
72
32
73
33
0
VERTEX
8
OBJECT__0
10
0
20
0
30
0
70
128
71
31
72
33
73
32
0
VERTEX
8
OBJECT__0
10
0
20
0
30
0
70
128
71
29
72
30
73
28
0
VERTEX
8
OBJECT__0
10
0
20
0
30
0
70
128
71
27
72
24
73
25
0
VERTEX
8
OBJECT__0
10
0
20
0
30
0
70
128
71
23
72
25
73
24
0
VERTEX
8
OBJECT__0
10
0
20
0
30
0
70
128
71
21
72
22
73
20
0
VERTEX
8
OBJECT__0
10
0
20
0
30
0
70
128
71
19
72
17
73
16
0
VERTEX
8
OBJECT__0
10
0
20
0
30
0
70
128
71
15
72
35
73
16
0
VERTEX
8
OBJECT__0
10
0
20
0
30
0
70
128
71
14
72
35
73
15
0
VERTEX
8
OBJECT__0
10
0
20
0
30
0
70
128
71
12
72
13
73
11
0
VERTEX
8
OBJECT__0
10
0
20
0
30
0
70
128
71
8
72
36
73
9
0
VERTEX
8
OBJECT__0
10
0
20
0
30
0
70
128
71
7
72
36
73
8
0
VERTEX
8
OBJECT__0
10
0
20
0
30
0
70
128
71
5
72
6
73
4
0
VERTEX
8
OBJECT__0
10
0
20
0
30
0
70
128
71
3
72
34
73
1
0
SEQEND
8
OBJECT__0
0
POLYLINE
8
OBJECT__1
66
1
70
64
71
52
72
54
62
253
0
VERTEX
8
OBJECT__1
10
63.700001
20
0.001000
30
-21.000999
70
192
0
VERTEX
8
OBJECT__1
10
17.900000
20
0.001000
30
-21.000999
70
192
0
VERTEX
8
OBJECT__1
10
17.900000
20
9.112000
30
-18.921000
70
192
0
VERTEX
8
OBJECT__1
10
63.700001
20
12.344000
30
-16.990000
70
192
0
VERTEX
8
OBJECT__1
10
63.700001
20
19.973000
30
-6.490000
70
192
0
VERTEX
8
OBJECT__1
10
17.900000
20
16.419001
30
-13.094000
70
192
0
VERTEX
8
OBJECT__1
10
17.900000
20
12.029000
30
-16.594999
70
192
0
VERTEX
8
OBJECT__1
10
63.700001
20
19.973000
30
6.488000
70
192
0
VERTEX
8
OBJECT__1
10
17.900000
20
20.474001
30
-4.674000
70
192
0
VERTEX
8
OBJECT__1
10
17.900000
20
20.474001
30
4.672000
70
192
0
VERTEX
8
OBJECT__1
10
17.900000
20
19.670000
30
-6.344000
70
192
0
VERTEX
8
OBJECT__1
10
17.900000
20
19.670000
30
6.342000
70
192
0
VERTEX
8
OBJECT__1
10
17.900000
20
16.419001
30
13.092000
70
192
0
VERTEX
8
OBJECT__1
10
63.700001
20
12.344000
30
16.988001
70
192
0
VERTEX
8
OBJECT__1
10
63.700001
20
-19.971001
30
6.488000
70
192
0
VERTEX
8
OBJECT__1
10
63.700001
20
-12.343000
30
16.988001
70
192
0
VERTEX
8
OBJECT__1
10
17.900000
20
-16.417999
30
13.092000
70
192
0
VERTEX
8
OBJECT__1
10
17.900000
20
-12.028000
30
16.593000
70
192
0
VERTEX
8
OBJECT__1
10
63.700001
20
-19.971001
30
-6.490000
70
192
0
VERTEX
8
OBJECT__1
10
17.900000
20
-20.473000
30
4.672000
70
192
0
VERTEX
8
OBJECT__1
10
17.900000
20
-19.667999
30
6.342000
70
192
0
VERTEX
8
OBJECT__1
10
17.900000
20
-20.473000
30
-4.674000
70
192
0
VERTEX
8
OBJECT__1
10
17.900000
20
-19.667999
30
-6.344000
70
192
0
VERTEX
8
OBJECT__1
10
17.900000
20
-16.417999
30
-13.094000
70
192
0
VERTEX
8
OBJECT__1
10
63.700001
20
-12.343000
30
-16.990000
70
192
0
VERTEX
8
OBJECT__1
10
17.900000
20
-9.111000
30
-18.921000
70
192
0
VERTEX
8
OBJECT__1
10
17.900000
20
-12.028000
30
-16.594999
70
192
0
VERTEX
8
OBJECT__1
10
17.900000
20
0.001000
30
20.999001
70
192
0
VERTEX
8
OBJECT__1
10
17.900000
20
-9.111000
30
18.919001
70
192
0
VERTEX
8
OBJECT__1
10
29.823999
20
-1.636000
30
20.934999
70
192
0
VERTEX
8
OBJECT__1
10
31.848000
20
-4.220000
30
20.570999
70
192
0
VERTEX
8
OBJECT__1
10
51.768002
20
-5.024000
30
20.389000
70
192
0
VERTEX
8
OBJECT__1
10
34.575001
20
-5.024000
30
20.389000
70
192
0
VERTEX
8
OBJECT__1
10
53.450001
20
-4.800000
30
20.443001
70
192
0
VERTEX
8
OBJECT__1
10
33.415001
20
-4.889000
30
20.422001
70
192
0
VERTEX
8
OBJECT__1
10
54.986000
20
-4.111000
30
20.593000
70
192
0
VERTEX
8
OBJECT__1
10
56.181999
20
-3.016000
30
20.781000
70
192
0
VERTEX
8
OBJECT__1
10
63.700001
20
0.001000
30
20.999001
70
192
0
VERTEX
8
OBJECT__1
10
56.952000
20
-1.598000
30
20.938000
70
192
0
VERTEX
8
OBJECT__1
10
56.471001
20
-2.484000
30
20.840000
70
192
0
VERTEX
8
OBJECT__1
10
57.217999
20
0.001000
30
20.999001
70
192
0
VERTEX
8
OBJECT__1
10
56.460999
20
2.479000
30
20.839001
70
192
0
VERTEX
8
OBJECT__1
10
56.931999
20
1.655000
30
20.934000
70
192
0
VERTEX
8
OBJECT__1
10
56.084000
20
3.138000
30
20.763000
70
192
0
VERTEX
8
OBJECT__1
10
54.591000
20
4.347000
30
20.544001
70
192
0
VERTEX
8
OBJECT__1
10
17.900000
20
12.029000
30
16.593000
70
192
0
VERTEX
8
OBJECT__1
10
34.575001
20
5.026000
30
20.389000
70
192
0
VERTEX
8
OBJECT__1
10
51.768002
20
5.026000
30
20.389000
70
192
0
VERTEX
8
OBJECT__1
10
31.639999
20
4.079000
30
20.599001
70
192
0
VERTEX
8
OBJECT__1
10
17.900000
20
9.112000
30
18.919001
70
192
0
VERTEX
8
OBJECT__1
10
29.775000
20
0.001000
30
20.945999
70
192
0
VERTEX
8
OBJECT__1
10
29.735001
20
1.351000
30
20.955999
70
192
0
VERTEX
8
OBJECT__1
10
0
20
0
30
0
70
128
71
1
72
2
73
3
0
VERTEX
8
OBJECT__1
10
0
20
0
30
0
70
128
71
3
72
4
73
1
0
VERTEX
8
OBJECT__1
10
0
20
0
30
0
70
128
71
5
72
4
73
6
0
VERTEX
8
OBJECT__1
10
0
20
0
30
0
70
128
71
4
72
7
73
6
0
VERTEX
8
OBJECT__1
10
0
20
0
30
0
70
128
71
8
72
5
73
9
0
VERTEX
8
OBJECT__1
10
0
20
0
30
0
70
128
71
9
72
10
73
8
0
VERTEX
8
OBJECT__1
10
0
20
0
30
0
70
128
71
5
72
11
73
9
0
VERTEX
8
OBJECT__1
10
0
20
0
30
0
70
128
71
8
72
12
73
13
0
VERTEX
8
OBJECT__1
10
0
20
0
30
0
70
128
71
13
72
14
73
8
0
VERTEX
8
OBJECT__1
10
0
20
0
30
0
70
128
71
15
72
16
73
17
0
VERTEX
8
OBJECT__1
10
0
20
0
30
0
70
128
71
16
72
18
73
17
0
VERTEX
8
OBJECT__1
10
0
20
0
30
0
70
128
71
19
72
15
73
20
0
VERTEX
8
OBJECT__1
10
0
20
0
30
0
70
128
71
15
72
21
73
20
0
VERTEX
8
OBJECT__1
10
0
20
0
30
0
70
128
71
20
72
22
73
19
0
VERTEX
8
OBJECT__1
10
0
20
0
30
0
70
128
71
19
72
23
73
24
0
VERTEX
8
OBJECT__1
10
0
20
0
30
0
70
128
71
24
72
25
73
19
0
VERTEX
8
OBJECT__1
10
0
20
0
30
0
70
128
71
1
72
25
73
26
0
VERTEX
8
OBJECT__1
10
0
20
0
30
0
70
128
71
25
72
27
73
26
0
VERTEX
8
OBJECT__1
10
0
20
0
30
0
70
128
71
28
72
29
73
30
0
VERTEX
8
OBJECT__1
10
0
20
0
30
0
70
128
71
31
72
30
73
29
0
VERTEX
8
OBJECT__1
10
0
20
0
30
0
70
128
71
16
72
32
73
33
0
VERTEX
8
OBJECT__1
10
0
20
0
30
0
70
128
71
33
72
18
73
16
0
VERTEX
8
OBJECT__1
10
0
20
0
30
0
70
128
71
16
72
34
73
32
0
VERTEX
8
OBJECT__1
10
0
20
0
30
0
70
128
71
33
72
35
73
18
0
VERTEX
8
OBJECT__1
10
0
20
0
30
0
70
128
71
16
72
36
73
34
0
VERTEX
8
OBJECT__1
10
0
20
0
30
0
70
128
71
16
72
37
73
36
0
VERTEX
8
OBJECT__1
10
0
20
0
30
0
70
128
71
16
72
38
73
39
0
VERTEX
8
OBJECT__1
10
0
20
0
30
0
70
128
71
39
72
40
73
16
0
VERTEX
8
OBJECT__1
10
0
20
0
30
0
70
128
71
40
72
37
73
16
0
VERTEX
8
OBJECT__1
10
0
20
0
30
0
70
128
71
38
72
41
73
39
0
VERTEX
8
OBJECT__1
10
0
20
0
30
0
70
128
71
35
72
31
73
18
0
VERTEX
8
OBJECT__1
10
0
20
0
30
0
70
128
71
29
72
18
73
31
0
VERTEX
8
OBJECT__1
10
0
20
0
30
0
70
128
71
14
72
42
73
43
0
VERTEX
8
OBJECT__1
10
0
20
0
30
0
70
128
71
14
72
44
73
42
0
VERTEX
8
OBJECT__1
10
0
20
0
30
0
70
128
71
43
72
38
73
14
0
VERTEX
8
OBJECT__1
10
0
20
0
30
0
70
128
71
14
72
45
73
44
0
VERTEX
8
OBJECT__1
10
0
20
0
30
0
70
128
71
14
72
46
73
47
0
VERTEX
8
OBJECT__1
10
0
20
0
30
0
70
128
71
47
72
48
73
14
0
VERTEX
8
OBJECT__1
10
0
20
0
30
0
70
128
71
46
72
49
73
47
0
VERTEX
8
OBJECT__1
10
0
20
0
30
0
70
128
71
48
72
45
73
14
0
VERTEX
8
OBJECT__1
10
0
20
0
30
0
70
128
71
49
72
46
73
50
0
VERTEX
8
OBJECT__1
10
0
20
0
30
0
70
128
71
28
72
51
73
52
0
VERTEX
8
OBJECT__1
10
0
20
0
30
0
70
128
71
52
72
50
73
28
0
VERTEX
8
OBJECT__1
10
0
20
0
30
0
70
128
71
50
72
52
73
49
0
VERTEX
8
OBJECT__1
10
0
20
0
30
0
70
128
71
43
72
41
73
38
0
VERTEX
8
OBJECT__1
10
0
20
0
30
0
70
128
71
30
72
51
73
28
0
VERTEX
8
OBJECT__1
10
0
20
0
30
0
70
128
71
26
72
2
73
1
0
VERTEX
8
OBJECT__1
10
0
20
0
30
0
70
128
71
24
72
27
73
25
0
VERTEX
8
OBJECT__1
10
0
20
0
30
0
70
128
71
22
72
23
73
19
0
VERTEX
8
OBJECT__1
10
0
20
0
30
0
70
128
71
17
72
21
73
15
0
VERTEX
8
OBJECT__1
10
0
20
0
30
0
70
128
71
13
72
46
73
14
0
VERTEX
8
OBJECT__1
10
0
20
0
30
0
70
128
71
10
72
12
73
8
0
VERTEX
8
OBJECT__1
10
0
20
0
30
0
70
128
71
6
72
11
73
5
0
VERTEX
8
OBJECT__1
10
0
20
0
30
0
70
128
71
3
72
7
73
4
0
SEQEND
8
OBJECT__1
0
POLYLINE
8
OBJECT__3
66
1
70
64
71
19
72
17
62
253
0
VERTEX
8
OBJECT__3
10
55.263000
20
-4.965000
30
15.874000
70
192
0
VERTEX
8
OBJECT__3
10
54.986000
20
-4.111000
30
20.593000
70
192
0
VERTEX
8
OBJECT__3
10
56.181999
20
-3.016000
30
20.781000
70
192
0
VERTEX
8
OBJECT__3
10
59.238998
20
-2.338000
30
15.874000
70
192
0
VERTEX
8
OBJECT__3
10
54.374001
20
-5.024000
30
15.874000
70
192
0
VERTEX
8
OBJECT__3
10
53.450001
20
-4.800000
30
20.443001
70
192
0
VERTEX
8
OBJECT__3
10
51.768002
20
-5.024000
30
20.389000
70
192
0
VERTEX
8
OBJECT__3
10
59.264999
20
2.504000
30
15.874000
70
192
0
VERTEX
8
OBJECT__3
10
59.669998
20
-2.053000
30
15.874000
70
192
0
VERTEX
8
OBJECT__3
10
57.217999
20
0.001000
30
20.999001
70
192
0
VERTEX
8
OBJECT__3
10
56.952000
20
-1.598000
30
20.938000
70
192
0
VERTEX
8
OBJECT__3
10
56.471001
20
-2.484000
30
20.840000
70
192
0
VERTEX
8
OBJECT__3
10
56.931999
20
1.655000
30
20.934000
70
192
0
VERTEX
8
OBJECT__3
10
54.374001
20
5.026000
30
15.874000
70
192
0
VERTEX
8
OBJECT__3
10
59.243999
20
2.733000
30
15.874000
70
192
0
VERTEX
8
OBJECT__3
10
56.084000
20
3.138000
30
20.763000
70
192
0
VERTEX
8
OBJECT__3
10
56.460999
20
2.479000
30
20.839001
70
192
0
VERTEX
8
OBJECT__3
10
54.591000
20
4.347000
30
20.544001
70
192
0
VERTEX
8
OBJECT__3
10
51.768002
20
5.026000
30
20.389000
70
192
0
VERTEX
8
OBJECT__3
10
0
20
0
30
0
70
128
71
1
72
2
73
3
0
VERTEX
8
OBJECT__3
10
0
20
0
30
0
70
128
71
3
72
4
73
1
0
VERTEX
8
OBJECT__3
10
0
20
0
30
0
70
128
71
2
72
1
73
5
0
VERTEX
8
OBJECT__3
10
0
20
0
30
0
70
128
71
5
72
6
73
2
0
VERTEX
8
OBJECT__3
10
0
20
0
30
0
70
128
71
5
72
7
73
6
0
VERTEX
8
OBJECT__3
10
0
20
0
30
0
70
128
71
8
72
9
73
10
0
VERTEX
8
OBJECT__3
10
0
20
0
30
0
70
128
71
9
72
11
73
10
0
VERTEX
8
OBJECT__3
10
0
20
0
30
0
70
128
71
11
72
9
73
4
0
VERTEX
8
OBJECT__3
10
0
20
0
30
0
70
128
71
4
72
12
73
11
0
VERTEX
8
OBJECT__3
10
0
20
0
30
0
70
128
71
10
72
13
73
8
0
VERTEX
8
OBJECT__3
10
0
20
0
30
0
70
128
71
14
72
15
73
16
0
VERTEX
8
OBJECT__3
10
0
20
0
30
0
70
128
71
15
72
8
73
17
0
VERTEX
8
OBJECT__3
10
0
20
0
30
0
70
128
71
17
72
16
73
15
0
VERTEX
8
OBJECT__3
10
0
20
0
30
0
70
128
71
16
72
18
73
14
0
VERTEX
8
OBJECT__3
10
0
20
0
30
0
70
128
71
18
72
19
73
14
0
VERTEX
8
OBJECT__3
10
0
20
0
30
0
70
128
71
13
72
17
73
8
0
VERTEX
8
OBJECT__3
10
0
20
0
30
0
70
128
71
3
72
12
73
4
0
SEQEND
8
OBJECT__3
0
POLYLINE
8
OBJECT__4
66
1
70
64
71
22
72
22
62
253
0
VERTEX
8
OBJECT__4
10
63.700001
20
0.001000
30
-21.000999
70
192
0
VERTEX
8
OBJECT__4
10
63.700001
20
12.344000
30
-16.990000
70
192
0
VERTEX
8
OBJECT__4
10
63.700001
20
7.501000
30
-12.991000
70
192
0
VERTEX
8
OBJECT__4
10
63.700001
20
19.973000
30
-6.490000
70
192
0
VERTEX
8
OBJECT__4
10
63.700001
20
12.991000
30
-7.501000
70
192
0
VERTEX
8
OBJECT__4
10
63.700001
20
15.001000
30
-0.001000
70
192
0
VERTEX
8
OBJECT__4
10
63.700001
20
19.973000
30
6.488000
70
192
0
VERTEX
8
OBJECT__4
10
63.700001
20
12.991000
30
7.499000
70
192
0
VERTEX
8
OBJECT__4
10
63.700001
20
12.344000
30
16.988001
70
192
0
VERTEX
8
OBJECT__4
10
63.700001
20
7.501000
30
12.989000
70
192
0
VERTEX
8
OBJECT__4
10
63.700001
20
0.001000
30
20.999001
70
192
0
VERTEX
8
OBJECT__4
10
63.700001
20
0.001000
30
14.999000
70
192
0
VERTEX
8
OBJECT__4
10
63.700001
20
-12.343000
30
16.988001
70
192
0
VERTEX
8
OBJECT__4
10
63.700001
20
-19.971001
30
6.488000
70
192
0
VERTEX
8
OBJECT__4
10
63.700001
20
-12.990000
30
7.499000
70
192
0
VERTEX
8
OBJECT__4
10
63.700001
20
-7.499000
30
12.989000
70
192
0
VERTEX
8
OBJECT__4
10
63.700001
20
-14.999000
30
-0.001000
70
192
0
VERTEX
8
OBJECT__4
10
63.700001
20
-19.971001
30
-6.490000
70
192
0
VERTEX
8
OBJECT__4
10
63.700001
20
-12.990000
30
-7.501000
70
192
0
VERTEX
8
OBJECT__4
10
63.700001
20
-12.343000
30
-16.990000
70
192
0
VERTEX
8
OBJECT__4
10
63.700001
20
-7.499000
30
-12.991000
70
192
0
VERTEX
8
OBJECT__4
10
63.700001
20
0.001000
30
-15.001000
70
192
0
VERTEX
8
OBJECT__4
10
0
20
0
30
0
70
128
71
1
72
2
73
3
0
VERTEX
8
OBJECT__4
10
0
20
0
30
0
70
128
71
2
72
4
73
5
0
VERTEX
8
OBJECT__4
10
0
20
0
30
0
70
128
71
5
72
3
73
2
0
VERTEX
8
OBJECT__4
10
0
20
0
30
0
70
128
71
4
72
6
73
5
0
VERTEX
8
OBJECT__4
10
0
20
0
30
0
70
128
71
7
72
8
73
6
0
VERTEX
8
OBJECT__4
10
0
20
0
30
0
70
128
71
9
72
10
73
8
0
VERTEX
8
OBJECT__4
10
0
20
0
30
0
70
128
71
11
72
12
73
10
0
VERTEX
8
OBJECT__4
10
0
20
0
30
0
70
128
71
6
72
4
73
7
0
VERTEX
8
OBJECT__4
10
0
20
0
30
0
70
128
71
10
72
9
73
11
0
VERTEX
8
OBJECT__4
10
0
20
0
30
0
70
128
71
13
72
14
73
15
0
VERTEX
8
OBJECT__4
10
0
20
0
30
0
70
128
71
8
72
7
73
9
0
VERTEX
8
OBJECT__4
10
0
20
0
30
0
70
128
71
11
72
13
73
16
0
VERTEX
8
OBJECT__4
10
0
20
0
30
0
70
128
71
14
72
17
73
15
0
VERTEX
8
OBJECT__4
10
0
20
0
30
0
70
128
71
18
72
19
73
17
0
VERTEX
8
OBJECT__4
10
0
20
0
30
0
70
128
71
16
72
12
73
11
0
VERTEX
8
OBJECT__4
10
0
20
0
30
0
70
128
71
17
72
14
73
18
0
VERTEX
8
OBJECT__4
10
0
20
0
30
0
70
128
71
20
72
21
73
19
0
VERTEX
8
OBJECT__4
10
0
20
0
30
0
70
128
71
1
72
22
73
21
0
VERTEX
8
OBJECT__4
10
0
20
0
30
0
70
128
71
15
72
16
73
13
0
VERTEX
8
OBJECT__4
10
0
20
0
30
0
70
128
71
21
72
20
73
1
0
VERTEX
8
OBJECT__4
10
0
20
0
30
0
70
128
71
19
72
18
73
20
0
VERTEX
8
OBJECT__4
10
0
20
0
30
0
70
128
71
3
72
22
73
1
0
SEQEND
8
OBJECT__4
0
POLYLINE
8
OBJECT__5
66
1
70
64
71
30
72
30
62
253
0
VERTEX
8
OBJECT__5
10
63.700001
20
0.001000
30
-15.001000
70
192
0
VERTEX
8
OBJECT__5
10
63.700001
20
7.501000
30
-12.991000
70
192
0
VERTEX
8
OBJECT__5
10
64.699997
20
7.001000
30
-12.125000
70
192
0
VERTEX
8
OBJECT__5
10
63.700001
20
12.991000
30
-7.501000
70
192
0
VERTEX
8
OBJECT__5
10
64.699997
20
12.125000
30
-7.001000
70
192
0
VERTEX
8
OBJECT__5
10
64.699997
20
8.700000
30
-10.426000
70
192
0
VERTEX
8
OBJECT__5
10
63.700001
20
15.001000
30
-0.001000
70
192
0
VERTEX
8
OBJECT__5
10
64.699997
20
13.379000
30
-2.322000
70
192
0
VERTEX
8
OBJECT__5
10
64.699997
20
14.001000
30
-0.001000
70
192
0
VERTEX
8
OBJECT__5
10
63.700001
20
12.991000
30
7.499000
70
192
0
VERTEX
8
OBJECT__5
10
64.699997
20
12.125000
30
6.999000
70
192
0
VERTEX
8
OBJECT__5
10
63.700001
20
7.501000
30
12.989000
70
192
0
VERTEX
8
OBJECT__5
10
64.699997
20
7.001000
30
12.123000
70
192
0
VERTEX
8
OBJECT__5
10
63.700001
20
0.001000
30
14.999000
70
192
0
VERTEX
8
OBJECT__5
10
64.699997
20
0.001000
30
13.999000
70
192
0
VERTEX
8
OBJECT__5
10
64.699997
20
4.679000
30
12.745000
70
192
0
VERTEX
8
OBJECT__5
10
63.700001
20
-7.499000
30
12.989000
70
192
0
VERTEX
8
OBJECT__5
10
64.699997
20
-4.678000
30
12.745000
70
192
0
VERTEX
8
OBJECT__5
10
64.699997
20
-6.999000
30
12.123000
70
192
0
VERTEX
8
OBJECT__5
10
63.700001
20
-12.990000
30
7.499000
70
192
0
VERTEX
8
OBJECT__5
10
64.699997
20
-12.124000
30
6.999000
70
192
0
VERTEX
8
OBJECT__5
10
63.700001
20
-14.999000
30
-0.001000
70
192
0
VERTEX
8
OBJECT__5
10
64.699997
20
-13.999000
30
-0.001000
70
192
0
VERTEX
8
OBJECT__5
10
63.700001
20
-12.990000
30
-7.501000
70
192
0
VERTEX
8
OBJECT__5
10
64.699997
20
-12.124000
30
-7.001000
70
192
0
VERTEX
8
OBJECT__5
10
64.699997
20
-13.377000
30
-2.322000
70
192
0
VERTEX
8
OBJECT__5
10
63.700001
20
-7.499000
30
-12.991000
70
192
0
VERTEX
8
OBJECT__5
10
64.699997
20
-8.699000
30
-10.426000
70
192
0
VERTEX
8
OBJECT__5
10
64.699997
20
-6.999000
30
-12.125000
70
192
0
VERTEX
8
OBJECT__5
10
64.699997
20
0.001000
30
-14.001000
70
192
0
VERTEX
8
OBJECT__5
10
0
20
0
30
0
70
128
71
1
72
2
73
3
0
VERTEX
8
OBJECT__5
10
0
20
0
30
0
70
128
71
4
72
5
73
6
0
VERTEX
8
OBJECT__5
10
0
20
0
30
0
70
128
71
6
72
2
73
4
0
VERTEX
8
OBJECT__5
10
0
20
0
30
0
70
128
71
4
72
7
73
8
0
VERTEX
8
OBJECT__5
10
0
20
0
30
0
70
128
71
7
72
9
73
8
0
VERTEX
8
OBJECT__5
10
0
20
0
30
0
70
128
71
10
72
11
73
9
0
VERTEX
8
OBJECT__5
10
0
20
0
30
0
70
128
71
10
72
12
73
13
0
VERTEX
8
OBJECT__5
10
0
20
0
30
0
70
128
71
14
72
15
73
16
0
VERTEX
8
OBJECT__5
10
0
20
0
30
0
70
128
71
16
72
12
73
14
0
VERTEX
8
OBJECT__5
10
0
20
0
30
0
70
128
71
14
72
17
73
18
0
VERTEX
8
OBJECT__5
10
0
20
0
30
0
70
128
71
17
72
19
73
18
0
VERTEX
8
OBJECT__5
10
0
20
0
30
0
70
128
71
17
72
20
73
21
0
VERTEX
8
OBJECT__5
10
0
20
0
30
0
70
128
71
22
72
23
73
21
0
VERTEX
8
OBJECT__5
10
0
20
0
30
0
70
128
71
24
72
25
73
26
0
VERTEX
8
OBJECT__5
10
0
20
0
30
0
70
128
71
26
72
22
73
24
0
VERTEX
8
OBJECT__5
10
0
20
0
30
0
70
128
71
24
72
27
73
28
0
VERTEX
8
OBJECT__5
10
0
20
0
30
0
70
128
71
27
72
29
73
28
0
VERTEX
8
OBJECT__5
10
0
20
0
30
0
70
128
71
1
72
30
73
29
0
VERTEX
8
OBJECT__5
10
0
20
0
30
0
70
128
71
29
72
27
73
1
0
VERTEX
8
OBJECT__5
10
0
20
0
30
0
70
128
71
28
72
25
73
24
0
VERTEX
8
OBJECT__5
10
0
20
0
30
0
70
128
71
26
72
23
73
22
0
VERTEX
8
OBJECT__5
10
0
20
0
30
0
70
128
71
21
72
20
73
22
0
VERTEX
8
OBJECT__5
10
0
20
0
30
0
70
128
71
21
72
19
73
17
0
VERTEX
8
OBJECT__5
10
0
20
0
30
0
70
128
71
18
72
15
73
14
0
VERTEX
8
OBJECT__5
10
0
20
0
30
0
70
128
71
16
72
13
73
12
0
VERTEX
8
OBJECT__5
10
0
20
0
30
0
70
128
71
13
72
11
73
10
0
VERTEX
8
OBJECT__5
10
0
20
0
30
0
70
128
71
9
72
7
73
10
0
VERTEX
8
OBJECT__5
10
0
20
0
30
0
70
128
71
8
72
5
73
4
0
VERTEX
8
OBJECT__5
10
0
20
0
30
0
70
128
71
6
72
3
73
2
0
VERTEX
8
OBJECT__5
10
0
20
0
30
0
70
128
71
3
72
30
73
1
0
SEQEND
8
OBJECT__5
0
POLYLINE
8
OBJECT__6
66
1
70
64
71
27
72
27
62
253
0
VERTEX
8
OBJECT__6
10
71.199997
20
0.001000
30
-14.001000
70
192
0
VERTEX
8
OBJECT__6
10
64.699997
20
0.001000
30
-14.001000
70
192
0
VERTEX
8
OBJECT__6
10
64.699997
20
7.001000
30
-12.125000
70
192
0
VERTEX
8
OBJECT__6
10
71.199997
20
9.000000
30
-10.726000
70
192
0
VERTEX
8
OBJECT__6
10
71.199997
20
13.788000
30
-2.432000
70
192
0
VERTEX
8
OBJECT__6
10
64.699997
20
12.125000
30
-7.001000
70
192
0
VERTEX
8
OBJECT__6
10
64.699997
20
8.700000
30
-10.426000
70
192
0
VERTEX
8
OBJECT__6
10
71.199997
20
12.125000
30
6.999000
70
192
0
VERTEX
8
OBJECT__6
10
64.699997
20
14.001000
30
-0.001000
70
192
0
VERTEX
8
OBJECT__6
10
64.699997
20
13.379000
30
-2.322000
70
192
0
VERTEX
8
OBJECT__6
10
64.699997
20
12.125000
30
6.999000
70
192
0
VERTEX
8
OBJECT__6
10
64.699997
20
7.001000
30
12.123000
70
192
0
VERTEX
8
OBJECT__6
10
71.199997
20
4.789000
30
13.155000
70
192
0
VERTEX
8
OBJECT__6
10
71.199997
20
-4.787000
30
13.155000
70
192
0
VERTEX
8
OBJECT__6
10
64.699997
20
0.001000
30
13.999000
70
192
0
VERTEX
8
OBJECT__6
10
64.699997
20
4.679000
30
12.745000
70
192
0
VERTEX
8
OBJECT__6
10
71.199997
20
-12.124000
30
6.999000
70
192
0
VERTEX
8
OBJECT__6
10
64.699997
20
-6.999000
30
12.123000
70
192
0
VERTEX
8
OBJECT__6
10
64.699997
20
-4.678000
30
12.745000
70
192
0
VERTEX
8
OBJECT__6
10
64.699997
20
-12.124000
30
6.999000
70
192
0
VERTEX
8
OBJECT__6
10
64.699997
20
-13.999000
30
-0.001000
70
192
0
VERTEX
8
OBJECT__6
10
71.199997
20
-13.787000
30
-2.432000
70
192
0
VERTEX
8
OBJECT__6
10
64.699997
20
-13.377000
30
-2.322000
70
192
0
VERTEX
8
OBJECT__6
10
64.699997
20
-12.124000
30
-7.001000
70
192
0
VERTEX
8
OBJECT__6
10
71.199997
20
-8.998000
30
-10.726000
70
192
0
VERTEX
8
OBJECT__6
10
64.699997
20
-6.999000
30
-12.125000
70
192
0
VERTEX
8
OBJECT__6
10
64.699997
20
-8.699000
30
-10.426000
70
192
0
VERTEX
8
OBJECT__6
10
0
20
0
30
0
70
128
71
1
72
2
73
3
0
VERTEX
8
OBJECT__6
10
0
20
0
30
0
70
128
71
3
72
4
73
1
0
VERTEX
8
OBJECT__6
10
0
20
0
30
0
70
128
71
5
72
4
73
6
0
VERTEX
8
OBJECT__6
10
0
20
0
30
0
70
128
71
4
72
7
73
6
0
VERTEX
8
OBJECT__6
10
0
20
0
30
0
70
128
71
8
72
5
73
9
0
VERTEX
8
OBJECT__6
10
0
20
0
30
0
70
128
71
5
72
10
73
9
0
VERTEX
8
OBJECT__6
10
0
20
0
30
0
70
128
71
8
72
11
73
12
0
VERTEX
8
OBJECT__6
10
0
20
0
30
0
70
128
71
12
72
13
73
8
0
VERTEX
8
OBJECT__6
10
0
20
0
30
0
70
128
71
14
72
13
73
15
0
VERTEX
8
OBJECT__6
10
0
20
0
30
0
70
128
71
13
72
16
73
15
0
VERTEX
8
OBJECT__6
10
0
20
0
30
0
70
128
71
17
72
14
73
18
0
VERTEX
8
OBJECT__6
10
0
20
0
30
0
70
128
71
14
72
19
73
18
0
VERTEX
8
OBJECT__6
10
0
20
0
30
0
70
128
71
17
72
20
73
21
0
VERTEX
8
OBJECT__6
10
0
20
0
30
0
70
128
71
21
72
22
73
17
0
VERTEX
8
OBJECT__6
10
0
20
0
30
0
70
128
71
22
72
23
73
24
0
VERTEX
8
OBJECT__6
10
0
20
0
30
0
70
128
71
24
72
25
73
22
0
VERTEX
8
OBJECT__6
10
0
20
0
30
0
70
128
71
1
72
25
73
26
0
VERTEX
8
OBJECT__6
10
0
20
0
30
0
70
128
71
25
72
27
73
26
0
VERTEX
8
OBJECT__6
10
0
20
0
30
0
70
128
71
26
72
2
73
1
0
VERTEX
8
OBJECT__6
10
0
20
0
30
0
70
128
71
24
72
27
73
25
0
VERTEX
8
OBJECT__6
10
0
20
0
30
0
70
128
71
21
72
23
73
22
0
VERTEX
8
OBJECT__6
10
0
20
0
30
0
70
128
71
18
72
20
73
17
0
VERTEX
8
OBJECT__6
10
0
20
0
30
0
70
128
71
15
72
19
73
14
0
VERTEX
8
OBJECT__6
10
0
20
0
30
0
70
128
71
12
72
16
73
13
0
VERTEX
8
OBJECT__6
10
0
20
0
30
0
70
128
71
9
72
11
73
8
0
VERTEX
8
OBJECT__6
10
0
20
0
30
0
70
128
71
6
72
10
73
5
0
VERTEX
8
OBJECT__6
10
0
20
0
30
0
70
128
71
3
72
7
73
4
0
SEQEND
8
OBJECT__6
0
POLYLINE
8
OBJECT__7
66
1
70
64
71
18
72
18
62
253
0
VERTEX
8
OBJECT__7
10
71.199997
20
4.789000
30
13.155000
70
192
0
VERTEX
8
OBJECT__7
10
71.199997
20
0.001000
30
9.499000
70
192
0
VERTEX
8
OBJECT__7
10
71.199997
20
6.107000
30
7.276000
70
192
0
VERTEX
8
OBJECT__7
10
71.199997
20
-4.787000
30
13.155000
70
192
0
VERTEX
8
OBJECT__7
10
71.199997
20
-12.124000
30
6.999000
70
192
0
VERTEX
8
OBJECT__7
10
71.199997
20
-6.106000
30
7.276000
70
192
0
VERTEX
8
OBJECT__7
10
71.199997
20
-13.787000
30
-2.432000
70
192
0
VERTEX
8
OBJECT__7
10
71.199997
20
-9.355000
30
1.649000
70
192
0
VERTEX
8
OBJECT__7
10
71.199997
20
13.788000
30
-2.432000
70
192
0
VERTEX
8
OBJECT__7
10
71.199997
20
9.356000
30
1.649000
70
192
0
VERTEX
8
OBJECT__7
10
71.199997
20
8.228000
30
-4.751000
70
192
0
VERTEX
8
OBJECT__7
10
71.199997
20
12.125000
30
6.999000
70
192
0
VERTEX
8
OBJECT__7
10
71.199997
20
-8.998000
30
-10.726000
70
192
0
VERTEX
8
OBJECT__7
10
71.199997
20
-8.226000
30
-4.751000
70
192
0
VERTEX
8
OBJECT__7
10
71.199997
20
0.001000
30
-14.001000
70
192
0
VERTEX
8
OBJECT__7
10
71.199997
20
-3.248000
30
-8.928000
70
192
0
VERTEX
8
OBJECT__7
10
71.199997
20
9.000000
30
-10.726000
70
192
0
VERTEX
8
OBJECT__7
10
71.199997
20
3.250000
30
-8.928000
70
192
0
VERTEX
8
OBJECT__7
10
0
20
0
30
0
70
128
71
1
72
2
73
3
0
VERTEX
8
OBJECT__7
10
0
20
0
30
0
70
128
71
4
72
5
73
6
0
VERTEX
8
OBJECT__7
10
0
20
0
30
0
70
128
71
5
72
7
73
8
0
VERTEX
8
OBJECT__7
10
0
20
0
30
0
70
128
71
9
72
10
73
11
0
VERTEX
8
OBJECT__7
10
0
20
0
30
0
70
128
71
12
72
3
73
10
0
VERTEX
8
OBJECT__7
10
0
20
0
30
0
70
128
71
1
72
4
73
2
0
VERTEX
8
OBJECT__7
10
0
20
0
30
0
70
128
71
8
72
6
73
5
0
VERTEX
8
OBJECT__7
10
0
20
0
30
0
70
128
71
7
72
13
73
14
0
VERTEX
8
OBJECT__7
10
0
20
0
30
0
70
128
71
13
72
15
73
16
0
VERTEX
8
OBJECT__7
10
0
20
0
30
0
70
128
71
15
72
17
73
18
0
VERTEX
8
OBJECT__7
10
0
20
0
30
0
70
128
71
11
72
17
73
9
0
VERTEX
8
OBJECT__7
10
0
20
0
30
0
70
128
71
3
72
12
73
1
0
VERTEX
8
OBJECT__7
10
0
20
0
30
0
70
128
71
14
72
8
73
7
0
VERTEX
8
OBJECT__7
10
0
20
0
30
0
70
128
71
18
72
16
73
15
0
VERTEX
8
OBJECT__7
10
0
20
0
30
0
70
128
71
10
72
9
73
12
0
VERTEX
8
OBJECT__7
10
0
20
0
30
0
70
128
71
16
72
14
73
13
0
VERTEX
8
OBJECT__7
10
0
20
0
30
0
70
128
71
6
72
2
73
4
0
VERTEX
8
OBJECT__7
10
0
20
0
30
0
70
128
71
11
72
18
73
17
0
SEQEND
8
OBJECT__7
0
POLYLINE
8
OBJECT__8
66
1
70
64
71
29
72
27
62
253
0
VERTEX
8
OBJECT__8
10
2.256000
20
87.875000
30
-8.588000
70
192
0
VERTEX
8
OBJECT__8
10
2.256000
20
98.150002
30
54.091000
70
192
0
VERTEX
8
OBJECT__8
10
2.256000
20
92.397003
30
74.814003
70
192
0
VERTEX
8
OBJECT__8
10
2.256000
20
21.381001
30
-59.134998
70
192
0
VERTEX
8
OBJECT__8
10
2.256000
20
-92.397003
30
74.814003
70
192
0
VERTEX
8
OBJECT__8
10
2.256000
20
-98.150002
30
54.091000
70
192
0
VERTEX
8
OBJECT__8
10
2.256000
20
-51.277000
30
123.223999
70
192
0
VERTEX
8
OBJECT__8
10
2.256000
20
-68.399002
30
110.208000
70
192
0
VERTEX
8
OBJECT__8
10
2.256000
20
68.399002
30
110.208000
70
192
0
VERTEX
8
OBJECT__8
10
2.256000
20
51.277000
30
123.223999
70
192
0
VERTEX
8
OBJECT__8
10
2.256000
20
82.321999
30
93.816002
70
192
0
VERTEX
8
OBJECT__8
10
2.256000
20
95.834999
30
11.391000
70
192
0
VERTEX
8
OBJECT__8
10
2.256000
20
99.315002
30
32.615002
70
192
0
VERTEX
8
OBJECT__8
10
2.256000
20
60.191002
30
-41.180000
70
192
0
VERTEX
8
OBJECT__8
10
2.256000
20
75.805000
30
-26.389000
70
192
0
VERTEX
8
OBJECT__8
10
2.256000
20
41.762001
30
-52.268002
70
192
0
VERTEX
8
OBJECT__8
10
2.256000
20
-75.805000
30
-26.389000
70
192
0
VERTEX
8
OBJECT__8
10
2.256000
20
-21.381001
30
-59.134998
70
192
0
VERTEX
8
OBJECT__8
10
2.256000
20
0.000000
30
-61.460999
70
192
0
VERTEX
8
OBJECT__8
10
2.256000
20
-60.191002
30
-41.180000
70
192
0
VERTEX
8
OBJECT__8
10
2.256000
20
-99.315002
30
32.615002
70
192
0
VERTEX
8
OBJECT__8
10
2.256000
20
-82.321999
30
93.816002
70
192
0
VERTEX
8
OBJECT__8
10
2.256000
20
10.754000
30
136.878006
70
192
0
VERTEX
8
OBJECT__8
10
2.256000
20
-10.754000
30
136.878006
70
192
0
VERTEX
8
OBJECT__8
10
2.256000
20
31.757999
30
132.253998
70
192
0
VERTEX
8
OBJECT__8
10
2.256000
20
-41.762001
30
-52.268002
70
192
0
VERTEX
8
OBJECT__8
10
2.256000
20
-95.834999
30
11.391000
70
192
0
VERTEX
8
OBJECT__8
10
2.256000
20
-87.875000
30
-8.588000
70
192
0
VERTEX
8
OBJECT__8
10
2.256000
20
-31.757999
30
132.253998
70
192
0
VERTEX
8
OBJECT__8
10
0
20
0
30
0
70
128
71
1
72
2
73
3
0
VERTEX
8
OBJECT__8
10
0
20
0
30
0
70
128
71
4
72
5
73
6
0
VERTEX
8
OBJECT__8
10
0
20
0
30
0
70
128
71
4
72
7
73
8
0
VERTEX
8
OBJECT__8
10
0
20
0
30
0
70
128
71
4
72
9
73
10
0
VERTEX
8
OBJECT__8
10
0
20
0
30
0
70
128
71
3
72
11
73
1
0
VERTEX
8
OBJECT__8
10
0
20
0
30
0
70
128
71
1
72
12
73
13
0
VERTEX
8
OBJECT__8
10
0
20
0
30
0
70
128
71
9
72
14
73
15
0
VERTEX
8
OBJECT__8
10
0
20
0
30
0
70
128
71
9
72
4
73
16
0
VERTEX
8
OBJECT__8
10
0
20
0
30
0
70
128
71
17
72
18
73
19
0
VERTEX
8
OBJECT__8
10
0
20
0
30
0
70
128
71
18
72
17
73
20
0
VERTEX
8
OBJECT__8
10
0
20
0
30
0
70
128
71
6
72
21
73
4
0
VERTEX
8
OBJECT__8
10
0
20
0
30
0
70
128
71
8
72
22
73
4
0
VERTEX
8
OBJECT__8
10
0
20
0
30
0
70
128
71
4
72
23
73
24
0
VERTEX
8
OBJECT__8
10
0
20
0
30
0
70
128
71
10
72
25
73
4
0
VERTEX
8
OBJECT__8
10
0
20
0
30
0
70
128
71
13
72
2
73
1
0
VERTEX
8
OBJECT__8
10
0
20
0
30
0
70
128
71
16
72
14
73
9
0
VERTEX
8
OBJECT__8
10
0
20
0
30
0
70
128
71
20
72
26
73
18
0
VERTEX
8
OBJECT__8
10
0
20
0
30
0
70
128
71
4
72
27
73
28
0
VERTEX
8
OBJECT__8
10
0
20
0
30
0
70
128
71
22
72
5
73
4
0
VERTEX
8
OBJECT__8
10
0
20
0
30
0
70
128
71
25
72
23
73
4
0
VERTEX
8
OBJECT__8
10
0
20
0
30
0
70
128
71
15
72
1
73
9
0
VERTEX
8
OBJECT__8
10
0
20
0
30
0
70
128
71
28
72
17
73
4
0
VERTEX
8
OBJECT__8
10
0
20
0
30
0
70
128
71
4
72
29
73
7
0
VERTEX
8
OBJECT__8
10
0
20
0
30
0
70
128
71
11
72
9
73
1
0
VERTEX
8
OBJECT__8
10
0
20
0
30
0
70
128
71
21
72
27
73
4
0
VERTEX
8
OBJECT__8
10
0
20
0
30
0
70
128
71
19
72
4
73
17
0
VERTEX
8
OBJECT__8
10
0
20
0
30
0
70
128
71
24
72
29
73
4
0
SEQEND
8
OBJECT__8
0
POLYLINE
8
OBJECT__9
66
1
70
64
71
26
72
26
62
253
0
VERTEX
8
OBJECT__9
10
16.000000
20
-23.686001
30
72.569000
70
192
0
VERTEX
8
OBJECT__9
10
13.000000
20
-23.686001
30
72.569000
70
192
0
VERTEX
8
OBJECT__9
10
13.000000
20
-26.750000
30
85.000000
70
192
0
VERTEX
8
OBJECT__9
10
16.000000
20
-15.196000
30
62.985001
70
192
0
VERTEX
8
OBJECT__9
10
13.000000
20
-15.196000
30
62.985001
70
192
0
VERTEX
8
OBJECT__9
10
13.000000
20
-3.224000
30
58.445000
70
192
0
VERTEX
8
OBJECT__9
10
13.000000
20
9.486000
30
59.987999
70
192
0
VERTEX
8
OBJECT__9
10
16.000000
20
-3.224000
30
58.445000
70
192
0
VERTEX
8
OBJECT__9
10
13.000000
20
20.023001
30
67.261002
70
192
0
VERTEX
8
OBJECT__9
10
16.000000
20
9.486000
30
59.987999
70
192
0
VERTEX
8
OBJECT__9
10
13.000000
20
25.973000
30
78.598000
70
192
0
VERTEX
8
OBJECT__9
10
16.000000
20
20.023001
30
67.261002
70
192
0
VERTEX
8
OBJECT__9
10
13.000000
20
25.973000
30
91.402000
70
192
0
VERTEX
8
OBJECT__9
10
16.000000
20
25.973000
30
78.598000
70
192
0
VERTEX
8
OBJECT__9
10
16.000000
20
20.023001
30
102.738998
70
192
0
VERTEX
8
OBJECT__9
10
13.000000
20
20.023001
30
102.738998
70
192
0
VERTEX
8
OBJECT__9
10
16.000000
20
9.486000
30
110.012001
70
192
0
VERTEX
8
OBJECT__9
10
13.000000
20
9.486000
30
110.012001
70
192
0
VERTEX
8
OBJECT__9
10
16.000000
20
-3.224000
30
111.555000
70
192
0
VERTEX
8
OBJECT__9
10
13.000000
20
-3.224000
30
111.555000
70
192
0
VERTEX
8
OBJECT__9
10
16.000000
20
-15.196000
30
107.014999
70
192
0
VERTEX
8
OBJECT__9
10
13.000000
20
-15.196000
30
107.014999
70
192
0
VERTEX
8
OBJECT__9
10
16.000000
20
-23.686001
30
97.431000
70
192
0
VERTEX
8
OBJECT__9
10
13.000000
20
-23.686001
30
97.431000
70
192
0
VERTEX
8
OBJECT__9
10
16.000000
20
-26.750000
30
85.000000
70
192
0
VERTEX
8
OBJECT__9
10
16.000000
20
25.973000
30
91.402000
70
192
0
VERTEX
8
OBJECT__9
10
0
20
0
30
0
70
128
71
1
72
2
73
3
0
VERTEX
8
OBJECT__9
10
0
20
0
30
0
70
128
71
4
72
5
73
2
0
VERTEX
8
OBJECT__9
10
0
20
0
30
0
70
128
71
6
72
5
73
4
0
VERTEX
8
OBJECT__9
10
0
20
0
30
0
70
128
71
7
72
6
73
8
0
VERTEX
8
OBJECT__9
10
0
20
0
30
0
70
128
71
9
72
7
73
10
0
VERTEX
8
OBJECT__9
10
0
20
0
30
0
70
128
71
11
72
9
73
12
0
VERTEX
8
OBJECT__9
10
0
20
0
30
0
70
128
71
13
72
11
73
14
0
VERTEX
8
OBJECT__9
10
0
20
0
30
0
70
128
71
15
72
16
73
13
0
VERTEX
8
OBJECT__9
10
0
20
0
30
0
70
128
71
17
72
18
73
16
0
VERTEX
8
OBJECT__9
10
0
20
0
30
0
70
128
71
19
72
20
73
18
0
VERTEX
8
OBJECT__9
10
0
20
0
30
0
70
128
71
21
72
22
73
20
0
VERTEX
8
OBJECT__9
10
0
20
0
30
0
70
128
71
23
72
24
73
22
0
VERTEX
8
OBJECT__9
10
0
20
0
30
0
70
128
71
25
72
3
73
24
0
VERTEX
8
OBJECT__9
10
0
20
0
30
0
70
128
71
24
72
23
73
25
0
VERTEX
8
OBJECT__9
10
0
20
0
30
0
70
128
71
22
72
21
73
23
0
VERTEX
8
OBJECT__9
10
0
20
0
30
0
70
128
71
20
72
19
73
21
0
VERTEX
8
OBJECT__9
10
0
20
0
30
0
70
128
71
18
72
17
73
19
0
VERTEX
8
OBJECT__9
10
0
20
0
30
0
70
128
71
16
72
15
73
17
0
VERTEX
8
OBJECT__9
10
0
20
0
30
0
70
128
71
13
72
26
73
15
0
VERTEX
8
OBJECT__9
10
0
20
0
30
0
70
128
71
14
72
26
73
13
0
VERTEX
8
OBJECT__9
10
0
20
0
30
0
70
128
71
12
72
14
73
11
0
VERTEX
8
OBJECT__9
10
0
20
0
30
0
70
128
71
10
72
12
73
9
0
VERTEX
8
OBJECT__9
10
0
20
0
30
0
70
128
71
8
72
10
73
7
0
VERTEX
8
OBJECT__9
10
0
20
0
30
0
70
128
71
4
72
8
73
6
0
VERTEX
8
OBJECT__9
10
0
20
0
30
0
70
128
71
2
72
1
73
4
0
VERTEX
8
OBJECT__9
10
0
20
0
30
0
70
128
71
3
72
25
73
1
0
SEQEND
8
OBJECT__9
0
POLYLINE
8
OBJECT__11
66
1
70
64
71
66
72
72
62
253
0
VERTEX
8
OBJECT__11
10
16.000000
20
-1.000000
30
36.500000
70
192
0
VERTEX
8
OBJECT__11
10
16.000000
20
-0.495000
30
37.368999
70
192
0
VERTEX
8
OBJECT__11
10
16.000000
20
-15.196000
30
62.985001
70
192
0
VERTEX
8
OBJECT__11
10
16.000000
20
-87.042999
30
62.388000
70
192
0
VERTEX
8
OBJECT__11
10
16.000000
20
-90.394997
30
38.000000
70
192
0
VERTEX
8
OBJECT__11
10
16.000000
20
-23.686001
30
12.431000
70
192
0
VERTEX
8
OBJECT__11
10
16.000000
20
-23.686001
30
72.569000
70
192
0
VERTEX
8
OBJECT__11
10
16.000000
20
-61.700001
30
104.064003
70
192
0
VERTEX
8
OBJECT__11
10
16.000000
20
-77.235001
30
84.968002
70
192
0
VERTEX
8
OBJECT__11
10
16.000000
20
-15.196000
30
22.014999
70
192
0
VERTEX
8
OBJECT__11
10
16.000000
20
-87.042999
30
13.612000
70
192
0
VERTEX
8
OBJECT__11
10
16.000000
20
-77.235001
30
-8.968000
70
192
0
VERTEX
8
OBJECT__11
10
16.000000
20
-26.750000
30
0.000000
70
192
0
VERTEX
8
OBJECT__11
10
16.000000
20
-1.000000
30
116.000000
70
192
0
VERTEX
8
OBJECT__11
10
16.000000
20
-15.196000
30
107.014999
70
192
0
VERTEX
8
OBJECT__11
10
16.000000
20
6.169000
30
-52.185001
70
192
0
VERTEX
8
OBJECT__11
10
16.000000
20
9.486000
30
-25.011999
70
192
0
VERTEX
8
OBJECT__11
10
16.000000
20
-3.224000
30
-26.555000
70
192
0
VERTEX
8
OBJECT__11
10
16.000000
20
-1.000000
30
121.500000
70
192
0
VERTEX
8
OBJECT__11
10
16.000000
20
-18.391001
30
126.504997
70
192
0
VERTEX
8
OBJECT__11
10
16.000000
20
-23.686001
30
97.431000
70
192
0
VERTEX
8
OBJECT__11
10
16.000000
20
-26.750000
30
85.000000
70
192
0
VERTEX
8
OBJECT__11
10
16.000000
20
-61.700001
30
-28.063999
70
192
0
VERTEX
8
OBJECT__11
10
16.000000
20
-41.588001
30
-42.261002
70
192
0
VERTEX
8
OBJECT__11
10
16.000000
20
-15.196000
30
-22.014999
70
192
0
VERTEX
8
OBJECT__11
10
16.000000
20
-23.686001
30
-12.431000
70
192
0
VERTEX
8
OBJECT__11
10
16.000000
20
-18.391001
30
-50.505001
70
192
0
VERTEX
8
OBJECT__11
10
16.000000
20
30.271999
30
-47.175999
70
192
0
VERTEX
8
OBJECT__11
10
16.000000
20
52.129002
30
-35.849998
70
192
0
VERTEX
8
OBJECT__11
10
16.000000
20
20.023001
30
-17.739000
70
192
0
VERTEX
8
OBJECT__11
10
16.000000
20
-41.588001
30
118.261002
70
192
0
VERTEX
8
OBJECT__11
10
16.000000
20
25.973000
30
-6.402000
70
192
0
VERTEX
8
OBJECT__11
10
16.000000
20
1.000000
30
31.000000
70
192
0
VERTEX
8
OBJECT__11
10
16.000000
20
0.505000
30
30.136999
70
192
0
VERTEX
8
OBJECT__11
10
16.000000
20
9.486000
30
25.011999
70
192
0
VERTEX
8
OBJECT__11
10
16.000000
20
-0.505000
30
115.137001
70
192
0
VERTEX
8
OBJECT__11
10
16.000000
20
70.121002
30
-19.047001
70
192
0
VERTEX
8
OBJECT__11
10
16.000000
20
82.912003
30
1.986000
70
192
0
VERTEX
8
OBJECT__11
10
16.000000
20
82.912003
30
74.014000
70
192
0
VERTEX
8
OBJECT__11
10
16.000000
20
0.505000
30
115.137001
70
192
0
VERTEX
8
OBJECT__11
10
16.000000
20
9.486000
30
110.012001
70
192
0
VERTEX
8
OBJECT__11
10
16.000000
20
89.553001
30
25.691000
70
192
0
VERTEX
8
OBJECT__11
10
16.000000
20
1.000000
30
36.500000
70
192
0
VERTEX
8
OBJECT__11
10
16.000000
20
-0.505000
30
30.136999
70
192
0
VERTEX
8
OBJECT__11
10
16.000000
20
-1.000000
30
31.000000
70
192
0
VERTEX
8
OBJECT__11
10
16.000000
20
25.973000
30
6.402000
70
192
0
VERTEX
8
OBJECT__11
10
16.000000
20
20.023001
30
17.739000
70
192
0
VERTEX
8
OBJECT__11
10
16.000000
20
20.023001
30
102.738998
70
192
0
VERTEX
8
OBJECT__11
10
16.000000
20
-3.224000
30
111.555000
70
192
0
VERTEX
8
OBJECT__11
10
16.000000
20
89.553001
30
50.308998
70
192
0
VERTEX
8
OBJECT__11
10
16.000000
20
20.023001
30
67.261002
70
192
0
VERTEX
8
OBJECT__11
10
16.000000
20
0.511000
30
37.360001
70
192
0
VERTEX
8
OBJECT__11
10
16.000000
20
25.973000
30
78.598000
70
192
0
VERTEX
8
OBJECT__11
10
16.000000
20
-3.224000
30
58.445000
70
192
0
VERTEX
8
OBJECT__11
10
16.000000
20
-3.224000
30
26.555000
70
192
0
VERTEX
8
OBJECT__11
10
16.000000
20
25.973000
30
91.402000
70
192
0
VERTEX
8
OBJECT__11
10
16.000000
20
1.000000
30
116.000000
70
192
0
VERTEX
8
OBJECT__11
10
16.000000
20
52.129002
30
111.849998
70
192
0
VERTEX
8
OBJECT__11
10
16.000000
20
30.271999
30
123.176003
70
192
0
VERTEX
8
OBJECT__11
10
16.000000
20
90.394997
30
38.000000
70
192
0
VERTEX
8
OBJECT__11
10
16.000000
20
9.486000
30
59.987999
70
192
0
VERTEX
8
OBJECT__11
10
16.000000
20
70.121002
30
95.046997
70
192
0
VERTEX
8
OBJECT__11
10
16.000000
20
1.000000
30
121.500000
70
192
0
VERTEX
8
OBJECT__11
10
16.000000
20
6.169000
30
128.184998
70
192
0
VERTEX
8
OBJECT__11
10
16.000000
20
0.511000
30
122.360001
70
192
0
VERTEX
8
OBJECT__11
10
16.000000
20
-0.495000
30
122.369003
70
192
0
VERTEX
8
OBJECT__11
10
0
20
0
30
0
70
128
71
1
72
2
73
3
0
VERTEX
8
OBJECT__11
10
0
20
0
30
0
70
128
71
4
72
5
73
6
0
VERTEX
8
OBJECT__11
10
0
20
0
30
0
70
128
71
3
72
7
73
1
0
VERTEX
8
OBJECT__11
10
0
20
0
30
0
70
128
71
8
72
9
73
10
0
VERTEX
8
OBJECT__11
10
0
20
0
30
0
70
128
71
10
72
9
73
4
0
VERTEX
8
OBJECT__11
10
0
20
0
30
0
70
128
71
11
72
12
73
13
0
VERTEX
8
OBJECT__11
10
0
20
0
30
0
70
128
71
14
72
8
73
15
0
VERTEX
8
OBJECT__11
10
0
20
0
30
0
70
128
71
7
72
8
73
1
0
VERTEX
8
OBJECT__11
10
0
20
0
30
0
70
128
71
6
72
10
73
4
0
VERTEX
8
OBJECT__11
10
0
20
0
30
0
70
128
71
6
72
5
73
11
0
VERTEX
8
OBJECT__11
10
0
20
0
30
0
70
128
71
16
72
17
73
18
0
VERTEX
8
OBJECT__11
10
0
20
0
30
0
70
128
71
14
72
19
73
20
0
VERTEX
8
OBJECT__11
10
0
20
0
30
0
70
128
71
8
72
21
73
15
0
VERTEX
8
OBJECT__11
10
0
20
0
30
0
70
128
71
7
72
22
73
8
0
VERTEX
8
OBJECT__11
10
0
20
0
30
0
70
128
71
13
72
6
73
11
0
VERTEX
8
OBJECT__11
10
0
20
0
30
0
70
128
71
13
72
12
73
23
0
VERTEX
8
OBJECT__11
10
0
20
0
30
0
70
128
71
24
72
25
73
26
0
VERTEX
8
OBJECT__11
10
0
20
0
30
0
70
128
71
27
72
18
73
25
0
VERTEX
8
OBJECT__11
10
0
20
0
30
0
70
128
71
18
72
27
73
16
0
VERTEX
8
OBJECT__11
10
0
20
0
30
0
70
128
71
28
72
29
73
30
0
VERTEX
8
OBJECT__11
10
0
20
0
30
0
70
128
71
20
72
31
73
14
0
VERTEX
8
OBJECT__11
10
0
20
0
30
0
70
128
71
22
72
21
73
8
0
VERTEX
8
OBJECT__11
10
0
20
0
30
0
70
128
71
23
72
26
73
13
0
VERTEX
8
OBJECT__11
10
0
20
0
30
0
70
128
71
25
72
24
73
27
0
VERTEX
8
OBJECT__11
10
0
20
0
30
0
70
128
71
30
72
17
73
28
0
VERTEX
8
OBJECT__11
10
0
20
0
30
0
70
128
71
32
72
30
73
29
0
VERTEX
8
OBJECT__11
10
0
20
0
30
0
70
128
71
33
72
34
73
35
0
VERTEX
8
OBJECT__11
10
0
20
0
30
0
70
128
71
15
72
36
73
14
0
VERTEX
8
OBJECT__11
10
0
20
0
30
0
70
128
71
26
72
23
73
24
0
VERTEX
8
OBJECT__11
10
0
20
0
30
0
70
128
71
29
72
37
73
32
0
VERTEX
8
OBJECT__11
10
0
20
0
30
0
70
128
71
35
72
38
73
33
0
VERTEX
8
OBJECT__11
10
0
20
0
30
0
70
128
71
39
72
40
73
41
0
VERTEX
8
OBJECT__11
10
0
20
0
30
0
70
128
71
42
72
43
73
33
0
VERTEX
8
OBJECT__11
10
0
20
0
30
0
70
128
71
31
72
8
73
14
0
VERTEX
8
OBJECT__11
10
0
20
0
30
0
70
128
71
8
72
44
73
45
0
VERTEX
8
OBJECT__11
10
0
20
0
30
0
70
128
71
16
72
28
73
17
0
VERTEX
8
OBJECT__11
10
0
20
0
30
0
70
128
71
38
72
46
73
32
0
VERTEX
8
OBJECT__11
10
0
20
0
30
0
70
128
71
35
72
47
73
38
0
VERTEX
8
OBJECT__11
10
0
20
0
30
0
70
128
71
41
72
48
73
39
0
VERTEX
8
OBJECT__11
10
0
20
0
30
0
70
128
71
49
72
41
73
40
0
VERTEX
8
OBJECT__11
10
0
20
0
30
0
70
128
71
33
72
38
73
42
0
VERTEX
8
OBJECT__11
10
0
20
0
30
0
70
128
71
50
72
51
73
52
0
VERTEX
8
OBJECT__11
10
0
20
0
30
0
70
128
71
50
72
39
73
53
0
VERTEX
8
OBJECT__11
10
0
20
0
30
0
70
128
71
54
72
2
73
52
0
VERTEX
8
OBJECT__11
10
0
20
0
30
0
70
128
71
45
72
1
73
8
0
VERTEX
8
OBJECT__11
10
0
20
0
30
0
70
128
71
10
72
34
73
44
0
VERTEX
8
OBJECT__11
10
0
20
0
30
0
70
128
71
34
72
10
73
55
0
VERTEX
8
OBJECT__11
10
0
20
0
30
0
70
128
71
47
72
46
73
38
0
VERTEX
8
OBJECT__11
10
0
20
0
30
0
70
128
71
48
72
56
73
39
0
VERTEX
8
OBJECT__11
10
0
20
0
30
0
70
128
71
36
72
15
73
49
0
VERTEX
8
OBJECT__11
10
0
20
0
30
0
70
128
71
57
72
58
73
59
0
VERTEX
8
OBJECT__11
10
0
20
0
30
0
70
128
71
42
72
60
73
43
0
VERTEX
8
OBJECT__11
10
0
20
0
30
0
70
128
71
53
72
51
73
50
0
VERTEX
8
OBJECT__11
10
0
20
0
30
0
70
128
71
52
72
61
73
54
0
VERTEX
8
OBJECT__11
10
0
20
0
30
0
70
128
71
10
72
44
73
8
0
VERTEX
8
OBJECT__11
10
0
20
0
30
0
70
128
71
32
72
37
73
38
0
VERTEX
8
OBJECT__11
10
0
20
0
30
0
70
128
71
40
72
36
73
49
0
VERTEX
8
OBJECT__11
10
0
20
0
30
0
70
128
71
40
72
39
73
62
0
VERTEX
8
OBJECT__11
10
0
20
0
30
0
70
128
71
57
72
62
73
58
0
VERTEX
8
OBJECT__11
10
0
20
0
30
0
70
128
71
63
72
59
73
64
0
VERTEX
8
OBJECT__11
10
0
20
0
30
0
70
128
71
52
72
43
73
50
0
VERTEX
8
OBJECT__11
10
0
20
0
30
0
70
128
71
52
72
51
73
61
0
VERTEX
8
OBJECT__11
10
0
20
0
30
0
70
128
71
55
72
35
73
34
0
VERTEX
8
OBJECT__11
10
0
20
0
30
0
70
128
71
62
72
57
73
40
0
VERTEX
8
OBJECT__11
10
0
20
0
30
0
70
128
71
64
72
65
73
63
0
VERTEX
8
OBJECT__11
10
0
20
0
30
0
70
128
71
64
72
20
73
66
0
VERTEX
8
OBJECT__11
10
0
20
0
30
0
70
128
71
54
72
3
73
2
0
VERTEX
8
OBJECT__11
10
0
20
0
30
0
70
128
71
56
72
53
73
39
0
VERTEX
8
OBJECT__11
10
0
20
0
30
0
70
128
71
66
72
65
73
64
0
VERTEX
8
OBJECT__11
10
0
20
0
30
0
70
128
71
19
72
66
73
20
0
VERTEX
8
OBJECT__11
10
0
20
0
30
0
70
128
71
60
72
50
73
43
0
VERTEX
8
OBJECT__11
10
0
20
0
30
0
70
128
71
59
72
63
73
57
0
SEQEND
8
OBJECT__11
0
POLYLINE
8
OBJECT__12
66
1
70
64
71
14
72
12
62
253
0
VERTEX
8
OBJECT__12
10
16.669001
20
0.331000
30
37.168999
70
192
0
VERTEX
8
OBJECT__12
10
16.677999
20
0.322000
30
30.322001
70
192
0
VERTEX
8
OBJECT__12
10
16.673000
20
0.327000
30
30.327000
70
192
0
VERTEX
8
OBJECT__12
10
16.000000
20
1.000000
30
36.500000
70
192
0
VERTEX
8
OBJECT__12
10
16.000000
20
1.000000
30
31.000000
70
192
0
VERTEX
8
OBJECT__12
10
16.677999
20
-0.322000
30
37.178001
70
192
0
VERTEX
8
OBJECT__12
10
16.677999
20
-0.322000
30
30.322001
70
192
0
VERTEX
8
OBJECT__12
10
16.681999
20
-0.318000
30
37.181999
70
192
0
VERTEX
8
OBJECT__12
10
16.677999
20
0.322000
30
37.178001
70
192
0
VERTEX
8
OBJECT__12
10
17.000000
20
0.000000
30
37.500000
70
192
0
VERTEX
8
OBJECT__12
10
16.000000
20
-1.000000
30
36.500000
70
192
0
VERTEX
8
OBJECT__12
10
16.000000
20
-1.000000
30
31.000000
70
192
0
VERTEX
8
OBJECT__12
10
16.673000
20
-0.327000
30
30.327000
70
192
0
VERTEX
8
OBJECT__12
10
17.000000
20
0.000000
30
30.000000
70
192
0
VERTEX
8
OBJECT__12
10
0
20
0
30
0
70
128
71
1
72
2
73
3
0
VERTEX
8
OBJECT__12
10
0
20
0
30
0
70
128
71
3
72
4
73
1
0
VERTEX
8
OBJECT__12
10
0
20
0
30
0
70
128
71
3
72
5
73
4
0
VERTEX
8
OBJECT__12
10
0
20
0
30
0
70
128
71
2
72
6
73
7
0
VERTEX
8
OBJECT__12
10
0
20
0
30
0
70
128
71
2
72
8
73
6
0
VERTEX
8
OBJECT__12
10
0
20
0
30
0
70
128
71
9
72
10
73
8
0
VERTEX
8
OBJECT__12
10
0
20
0
30
0
70
128
71
8
72
2
73
9
0
VERTEX
8
OBJECT__12
10
0
20
0
30
0
70
128
71
6
72
11
73
12
0
VERTEX
8
OBJECT__12
10
0
20
0
30
0
70
128
71
12
72
13
73
6
0
VERTEX
8
OBJECT__12
10
0
20
0
30
0
70
128
71
13
72
7
73
6
0
VERTEX
8
OBJECT__12
10
0
20
0
30
0
70
128
71
7
72
14
73
2
0
VERTEX
8
OBJECT__12
10
0
20
0
30
0
70
128
71
1
72
9
73
2
0
SEQEND
8
OBJECT__12
0
POLYLINE
8
OBJECT__13
66
1
70
64
71
10
72
8
62
253
0
VERTEX
8
OBJECT__13
10
16.673000
20
-0.327000
30
115.327003
70
192
0
VERTEX
8
OBJECT__13
10
16.681999
20
-0.318000
30
122.181999
70
192
0
VERTEX
8
OBJECT__13
10
16.000000
20
-1.000000
30
121.500000
70
192
0
VERTEX
8
OBJECT__13
10
16.000000
20
-1.000000
30
116.000000
70
192
0
VERTEX
8
OBJECT__13
10
17.000000
20
0.000000
30
115.000000
70
192
0
VERTEX
8
OBJECT__13
10
17.000000
20
0.000000
30
122.500000
70
192
0
VERTEX
8
OBJECT__13
10
16.673000
20
0.327000
30
115.327003
70
192
0
VERTEX
8
OBJECT__13
10
16.000000
20
1.000000
30
116.000000
70
192
0
VERTEX
8
OBJECT__13
10
16.000000
20
1.000000
30
121.500000
70
192
0
VERTEX
8
OBJECT__13
10
16.669001
20
0.331000
30
122.168999
70
192
0
VERTEX
8
OBJECT__13
10
0
20
0
30
0
70
128
71
1
72
2
73
3
0
VERTEX
8
OBJECT__13
10
0
20
0
30
0
70
128
71
3
72
4
73
1
0
VERTEX
8
OBJECT__13
10
0
20
0
30
0
70
128
71
5
72
6
73
2
0
VERTEX
8
OBJECT__13
10
0
20
0
30
0
70
128
71
7
72
8
73
9
0
VERTEX
8
OBJECT__13
10
0
20
0
30
0
70
128
71
10
72
5
73
7
0
VERTEX
8
OBJECT__13
10
0
20
0
30
0
70
128
71
9
72
10
73
7
0
VERTEX
8
OBJECT__13
10
0
20
0
30
0
70
128
71
10
72
6
73
5
0
VERTEX
8
OBJECT__13
10
0
20
0
30
0
70
128
71
1
72
5
73
2
0
SEQEND
8
OBJECT__13
0
POLYLINE
8
OBJECT__14
66
1
70
64
71
7
72
5
62
253
0
VERTEX
8
OBJECT__14
10
16.681999
20
-0.318000
30
122.181999
70
192
0
VERTEX
8
OBJECT__14
10
17.000000
20
0.000000
30
122.500000
70
192
0
VERTEX
8
OBJECT__14
10
16.669001
20
0.331000
30
122.168999
70
192
0
VERTEX
8
OBJECT__14
10
16.000000
20
0.511000
30
122.360001
70
192
0
VERTEX
8
OBJECT__14
10
16.000000
20
-0.495000
30
122.369003
70
192
0
VERTEX
8
OBJECT__14
10
16.000000
20
1.000000
30
121.500000
70
192
0
VERTEX
8
OBJECT__14
10
16.000000
20
-1.000000
30
121.500000
70
192
0
VERTEX
8
OBJECT__14
10
0
20
0
30
0
70
128
71
1
72
2
73
3
0
VERTEX
8
OBJECT__14
10
0
20
0
30
0
70
128
71
4
72
5
73
1
0
VERTEX
8
OBJECT__14
10
0
20
0
30
0
70
128
71
6
72
4
73
3
0
VERTEX
8
OBJECT__14
10
0
20
0
30
0
70
128
71
3
72
4
73
1
0
VERTEX
8
OBJECT__14
10
0
20
0
30
0
70
128
71
1
72
5
73
7
0
SEQEND
8
OBJECT__14
0
POLYLINE
8
OBJECT__15
66
1
70
64
71
7
72
5
62
253
0
VERTEX
8
OBJECT__15
10
16.673000
20
0.327000
30
115.327003
70
192
0
VERTEX
8
OBJECT__15
10
17.000000
20
0.000000
30
115.000000
70
192
0
VERTEX
8
OBJECT__15
10
16.673000
20
-0.327000
30
115.327003
70
192
0
VERTEX
8
OBJECT__15
10
16.000000
20
-0.505000
30
115.137001
70
192
0
VERTEX
8
OBJECT__15
10
16.000000
20
0.505000
30
115.137001
70
192
0
VERTEX
8
OBJECT__15
10
16.000000
20
-1.000000
30
116.000000
70
192
0
VERTEX
8
OBJECT__15
10
16.000000
20
1.000000
30
116.000000
70
192
0
VERTEX
8
OBJECT__15
10
0
20
0
30
0
70
128
71
1
72
2
73
3
0
VERTEX
8
OBJECT__15
10
0
20
0
30
0
70
128
71
4
72
5
73
1
0
VERTEX
8
OBJECT__15
10
0
20
0
30
0
70
128
71
6
72
4
73
3
0
VERTEX
8
OBJECT__15
10
0
20
0
30
0
70
128
71
3
72
4
73
1
0
VERTEX
8
OBJECT__15
10
0
20
0
30
0
70
128
71
1
72
5
73
7
0
SEQEND
8
OBJECT__15
0
POLYLINE
8
OBJECT__16
66
1
70
64
71
9
72
7
62
253
0
VERTEX
8
OBJECT__16
10
16.677999
20
0.322000
30
30.322001
70
192
0
VERTEX
8
OBJECT__16
10
16.677999
20
-0.322000
30
30.322001
70
192
0
VERTEX
8
OBJECT__16
10
16.673000
20
-0.327000
30
30.327000
70
192
0
VERTEX
8
OBJECT__16
10
17.000000
20
0.000000
30
30.000000
70
192
0
VERTEX
8
OBJECT__16
10
16.000000
20
-0.505000
30
30.136999
70
192
0
VERTEX
8
OBJECT__16
10
16.000000
20
0.505000
30
30.136999
70
192
0
VERTEX
8
OBJECT__16
10
16.673000
20
0.327000
30
30.327000
70
192
0
VERTEX
8
OBJECT__16
10
16.000000
20
-1.000000
30
31.000000
70
192
0
VERTEX
8
OBJECT__16
10
16.000000
20
1.000000
30
31.000000
70
192
0
VERTEX
8
OBJECT__16
10
0
20
0
30
0
70
128
71
1
72
2
73
3
0
VERTEX
8
OBJECT__16
10
0
20
0
30
0
70
128
71
1
72
4
73
2
0
VERTEX
8
OBJECT__16
10
0
20
0
30
0
70
128
71
5
72
6
73
7
0
VERTEX
8
OBJECT__16
10
0
20
0
30
0
70
128
71
7
72
1
73
5
0
VERTEX
8
OBJECT__16
10
0
20
0
30
0
70
128
71
8
72
5
73
3
0
VERTEX
8
OBJECT__16
10
0
20
0
30
0
70
128
71
3
72
5
73
1
0
VERTEX
8
OBJECT__16
10
0
20
0
30
0
70
128
71
7
72
6
73
9
0
SEQEND
8
OBJECT__16
0
POLYLINE
8
OBJECT__17
66
1
70
64
71
9
72
7
62
253
0
VERTEX
8
OBJECT__17
10
16.000000
20
-0.495000
30
37.368999
70
192
0
VERTEX
8
OBJECT__17
10
16.000000
20
-1.000000
30
36.500000
70
192
0
VERTEX
8
OBJECT__17
10
16.677999
20
-0.322000
30
37.178001
70
192
0
VERTEX
8
OBJECT__17
10
16.677999
20
0.322000
30
37.178001
70
192
0
VERTEX
8
OBJECT__17
10
16.669001
20
0.331000
30
37.168999
70
192
0
VERTEX
8
OBJECT__17
10
16.681999
20
-0.318000
30
37.181999
70
192
0
VERTEX
8
OBJECT__17
10
17.000000
20
0.000000
30
37.500000
70
192
0
VERTEX
8
OBJECT__17
10
16.000000
20
1.000000
30
36.500000
70
192
0
VERTEX
8
OBJECT__17
10
16.000000
20
0.511000
30
37.360001
70
192
0
VERTEX
8
OBJECT__17
10
0
20
0
30
0
70
128
71
1
72
2
73
3
0
VERTEX
8
OBJECT__17
10
0
20
0
30
0
70
128
71
1
72
4
73
5
0
VERTEX
8
OBJECT__17
10
0
20
0
30
0
70
128
71
4
72
1
73
6
0
VERTEX
8
OBJECT__17
10
0
20
0
30
0
70
128
71
6
72
7
73
4
0
VERTEX
8
OBJECT__17
10
0
20
0
30
0
70
128
71
8
72
9
73
5
0
VERTEX
8
OBJECT__17
10
0
20
0
30
0
70
128
71
5
72
9
73
1
0
VERTEX
8
OBJECT__17
10
0
20
0
30
0
70
128
71
3
72
6
73
1
0
SEQEND
8
OBJECT__17
0
POLYLINE
8
OBJECT__18
66
1
70
64
71
26
72
26
62
253
0
VERTEX
8
OBJECT__18
10
13.000000
20
-23.686001
30
-12.431000
70
192
0
VERTEX
8
OBJECT__18
10
13.000000
20
-26.750000
30
0.000000
70
192
0
VERTEX
8
OBJECT__18
10
16.000000
20
-26.750000
30
0.000000
70
192
0
VERTEX
8
OBJECT__18
10
16.000000
20
-15.196000
30
-22.014999
70
192
0
VERTEX
8
OBJECT__18
10
13.000000
20
-15.196000
30
-22.014999
70
192
0
VERTEX
8
OBJECT__18
10
13.000000
20
-3.224000
30
-26.555000
70
192
0
VERTEX
8
OBJECT__18
10
13.000000
20
9.486000
30
-25.011999
70
192
0
VERTEX
8
OBJECT__18
10
16.000000
20
-3.224000
30
-26.555000
70
192
0
VERTEX
8
OBJECT__18
10
13.000000
20
20.023001
30
-17.739000
70
192
0
VERTEX
8
OBJECT__18
10
16.000000
20
9.486000
30
-25.011999
70
192
0
VERTEX
8
OBJECT__18
10
13.000000
20
25.973000
30
-6.402000
70
192
0
VERTEX
8
OBJECT__18
10
16.000000
20
20.023001
30
-17.739000
70
192
0
VERTEX
8
OBJECT__18
10
16.000000
20
25.973000
30
6.402000
70
192
0
VERTEX
8
OBJECT__18
10
13.000000
20
25.973000
30
6.402000
70
192
0
VERTEX
8
OBJECT__18
10
16.000000
20
20.023001
30
17.739000
70
192
0
VERTEX
8
OBJECT__18
10
13.000000
20
20.023001
30
17.739000
70
192
0
VERTEX
8
OBJECT__18
10
16.000000
20
9.486000
30
25.011999
70
192
0
VERTEX
8
OBJECT__18
10
13.000000
20
9.486000
30
25.011999
70
192
0
VERTEX
8
OBJECT__18
10
16.000000
20
-3.224000
30
26.555000
70
192
0
VERTEX
8
OBJECT__18
10
13.000000
20
-3.224000
30
26.555000
70
192
0
VERTEX
8
OBJECT__18
10
16.000000
20
-15.196000
30
22.014999
70
192
0
VERTEX
8
OBJECT__18
10
13.000000
20
-15.196000
30
22.014999
70
192
0
VERTEX
8
OBJECT__18
10
16.000000
20
-23.686001
30
12.431000
70
192
0
VERTEX
8
OBJECT__18
10
13.000000
20
-23.686001
30
12.431000
70
192
0
VERTEX
8
OBJECT__18
10
16.000000
20
25.973000
30
-6.402000
70
192
0
VERTEX
8
OBJECT__18
10
16.000000
20
-23.686001
30
-12.431000
70
192
0
VERTEX
8
OBJECT__18
10
0
20
0
30
0
70
128
71
1
72
2
73
3
0
VERTEX
8
OBJECT__18
10
0
20
0
30
0
70
128
71
4
72
5
73
1
0
VERTEX
8
OBJECT__18
10
0
20
0
30
0
70
128
71
6
72
5
73
4
0
VERTEX
8
OBJECT__18
10
0
20
0
30
0
70
128
71
7
72
6
73
8
0
VERTEX
8
OBJECT__18
10
0
20
0
30
0
70
128
71
9
72
7
73
10
0
VERTEX
8
OBJECT__18
10
0
20
0
30
0
70
128
71
11
72
9
73
12
0
VERTEX
8
OBJECT__18
10
0
20
0
30
0
70
128
71
13
72
14
73
11
0
VERTEX
8
OBJECT__18
10
0
20
0
30
0
70
128
71
15
72
16
73
14
0
VERTEX
8
OBJECT__18
10
0
20
0
30
0
70
128
71
17
72
18
73
16
0
VERTEX
8
OBJECT__18
10
0
20
0
30
0
70
128
71
19
72
20
73
18
0
VERTEX
8
OBJECT__18
10
0
20
0
30
0
70
128
71
21
72
22
73
20
0
VERTEX
8
OBJECT__18
10
0
20
0
30
0
70
128
71
23
72
24
73
22
0
VERTEX
8
OBJECT__18
10
0
20
0
30
0
70
128
71
3
72
2
73
24
0
VERTEX
8
OBJECT__18
10
0
20
0
30
0
70
128
71
24
72
23
73
3
0
VERTEX
8
OBJECT__18
10
0
20
0
30
0
70
128
71
22
72
21
73
23
0
VERTEX
8
OBJECT__18
10
0
20
0
30
0
70
128
71
20
72
19
73
21
0
VERTEX
8
OBJECT__18
10
0
20
0
30
0
70
128
71
18
72
17
73
19
0
VERTEX
8
OBJECT__18
10
0
20
0
30
0
70
128
71
16
72
15
73
17
0
VERTEX
8
OBJECT__18
10
0
20
0
30
0
70
128
71
14
72
13
73
15
0
VERTEX
8
OBJECT__18
10
0
20
0
30
0
70
128
71
11
72
25
73
13
0
VERTEX
8
OBJECT__18
10
0
20
0
30
0
70
128
71
12
72
25
73
11
0
VERTEX
8
OBJECT__18
10
0
20
0
30
0
70
128
71
10
72
12
73
9
0
VERTEX
8
OBJECT__18
10
0
20
0
30
0
70
128
71
8
72
10
73
7
0
VERTEX
8
OBJECT__18
10
0
20
0
30
0
70
128
71
4
72
8
73
6
0
VERTEX
8
OBJECT__18
10
0
20
0
30
0
70
128
71
1
72
26
73
4
0
VERTEX
8
OBJECT__18
10
0
20
0
30
0
70
128
71
3
72
26
73
1
0
SEQEND
8
OBJECT__18
0
POLYLINE
8
OBJECT__19
66
1
70
64
71
48
72
48
62
253
0
VERTEX
8
OBJECT__19
10
10.000000
20
-87.143997
30
62.417000
70
192
0
VERTEX
8
OBJECT__19
10
10.000000
20
-90.500000
30
38.000000
70
192
0
VERTEX
8
OBJECT__19
10
16.000000
20
-90.394997
30
38.000000
70
192
0
VERTEX
8
OBJECT__19
10
10.000000
20
-77.324997
30
85.022003
70
192
0
VERTEX
8
OBJECT__19
10
16.000000
20
-87.042999
30
62.388000
70
192
0
VERTEX
8
OBJECT__19
10
16.000000
20
-77.235001
30
84.968002
70
192
0
VERTEX
8
OBJECT__19
10
16.000000
20
-61.700001
30
104.064003
70
192
0
VERTEX
8
OBJECT__19
10
10.000000
20
-61.771000
30
104.140999
70
192
0
VERTEX
8
OBJECT__19
10
16.000000
20
-41.588001
30
118.261002
70
192
0
VERTEX
8
OBJECT__19
10
10.000000
20
-41.636002
30
118.353996
70
192
0
VERTEX
8
OBJECT__19
10
16.000000
20
-18.391001
30
126.504997
70
192
0
VERTEX
8
OBJECT__19
10
10.000000
20
6.176000
30
128.289001
70
192
0
VERTEX
8
OBJECT__19
10
10.000000
20
-18.413000
30
126.607002
70
192
0
VERTEX
8
OBJECT__19
10
16.000000
20
6.169000
30
128.184998
70
192
0
VERTEX
8
OBJECT__19
10
16.000000
20
30.271999
30
123.176003
70
192
0
VERTEX
8
OBJECT__19
10
10.000000
20
30.306999
30
123.275002
70
192
0
VERTEX
8
OBJECT__19
10
16.000000
20
52.129002
30
111.849998
70
192
0
VERTEX
8
OBJECT__19
10
10.000000
20
52.189999
30
111.935997
70
192
0
VERTEX
8
OBJECT__19
10
16.000000
20
70.121002
30
95.046997
70
192
0
VERTEX
8
OBJECT__19
10
10.000000
20
70.202003
30
95.112999
70
192
0
VERTEX
8
OBJECT__19
10
16.000000
20
82.912003
30
74.014000
70
192
0
VERTEX
8
OBJECT__19
10
10.000000
20
89.656998
30
50.323002
70
192
0
VERTEX
8
OBJECT__19
10
10.000000
20
83.008003
30
74.055000
70
192
0
VERTEX
8
OBJECT__19
10
10.000000
20
89.656998
30
25.677000
70
192
0
VERTEX
8
OBJECT__19
10
10.000000
20
90.500000
30
38.000000
70
192
0
VERTEX
8
OBJECT__19
10
16.000000
20
90.394997
30
38.000000
70
192
0
VERTEX
8
OBJECT__19
10
16.000000
20
89.553001
30
50.308998
70
192
0
VERTEX
8
OBJECT__19
10
16.000000
20
89.553001
30
25.691000
70
192
0
VERTEX
8
OBJECT__19
10
16.000000
20
82.912003
30
1.986000
70
192
0
VERTEX
8
OBJECT__19
10
10.000000
20
83.008003
30
1.945000
70
192
0
VERTEX
8
OBJECT__19
10
16.000000
20
70.121002
30
-19.047001
70
192
0
VERTEX
8
OBJECT__19
10
10.000000
20
70.202003
30
-19.113001
70
192
0
VERTEX
8
OBJECT__19
10
16.000000
20
52.129002
30
-35.849998
70
192
0
VERTEX
8
OBJECT__19
10
10.000000
20
30.306999
30
-47.275002
70
192
0
VERTEX
8
OBJECT__19
10
10.000000
20
52.189999
30
-35.936001
70
192
0
VERTEX
8
OBJECT__19
10
10.000000
20
6.176000
30
-52.289001
70
192
0
VERTEX
8
OBJECT__19
10
16.000000
20
30.271999
30
-47.175999
70
192
0
VERTEX
8
OBJECT__19
10
10.000000
20
-18.413000
30
-50.606998
70
192
0
VERTEX
8
OBJECT__19
10
16.000000
20
6.169000
30
-52.185001
70
192
0
VERTEX
8
OBJECT__19
10
10.000000
20
-41.636002
30
-42.354000
70
192
0
VERTEX
8
OBJECT__19
10
16.000000
20
-18.391001
30
-50.505001
70
192
0
VERTEX
8
OBJECT__19
10
10.000000
20
-61.771000
30
-28.141001
70
192
0
VERTEX
8
OBJECT__19
10
16.000000
20
-41.588001
30
-42.261002
70
192
0
VERTEX
8
OBJECT__19
10
16.000000
20
-61.700001
30
-28.063999
70
192
0
VERTEX
8
OBJECT__19
10
16.000000
20
-77.235001
30
-8.968000
70
192
0
VERTEX
8
OBJECT__19
10
10.000000
20
-77.324997
30
-9.022000
70
192
0
VERTEX
8
OBJECT__19
10
16.000000
20
-87.042999
30
13.612000
70
192
0
VERTEX
8
OBJECT__19
10
10.000000
20
-87.143997
30
13.583000
70
192
0
VERTEX
8
OBJECT__19
10
0
20
0
30
0
70
128
71
1
72
2
73
3
0
VERTEX
8
OBJECT__19
10
0
20
0
30
0
70
128
71
4
72
1
73
5
0
VERTEX
8
OBJECT__19
10
0
20
0
30
0
70
128
71
4
72
6
73
7
0
VERTEX
8
OBJECT__19
10
0
20
0
30
0
70
128
71
8
72
7
73
9
0
VERTEX
8
OBJECT__19
10
0
20
0
30
0
70
128
71
10
72
9
73
11
0
VERTEX
8
OBJECT__19
10
0
20
0
30
0
70
128
71
12
72
13
73
11
0
VERTEX
8
OBJECT__19
10
0
20
0
30
0
70
128
71
12
72
14
73
15
0
VERTEX
8
OBJECT__19
10
0
20
0
30
0
70
128
71
16
72
15
73
17
0
VERTEX
8
OBJECT__19
10
0
20
0
30
0
70
128
71
18
72
17
73
19
0
VERTEX
8
OBJECT__19
10
0
20
0
30
0
70
128
71
20
72
19
73
21
0
VERTEX
8
OBJECT__19
10
0
20
0
30
0
70
128
71
22
72
23
73
21
0
VERTEX
8
OBJECT__19
10
0
20
0
30
0
70
128
71
24
72
25
73
26
0
VERTEX
8
OBJECT__19
10
0
20
0
30
0
70
128
71
22
72
27
73
26
0
VERTEX
8
OBJECT__19
10
0
20
0
30
0
70
128
71
26
72
25
73
22
0
VERTEX
8
OBJECT__19
10
0
20
0
30
0
70
128
71
24
72
28
73
29
0
VERTEX
8
OBJECT__19
10
0
20
0
30
0
70
128
71
30
72
29
73
31
0
VERTEX
8
OBJECT__19
10
0
20
0
30
0
70
128
71
32
72
31
73
33
0
VERTEX
8
OBJECT__19
10
0
20
0
30
0
70
128
71
34
72
35
73
33
0
VERTEX
8
OBJECT__19
10
0
20
0
30
0
70
128
71
36
72
34
73
37
0
VERTEX
8
OBJECT__19
10
0
20
0
30
0
70
128
71
38
72
36
73
39
0
VERTEX
8
OBJECT__19
10
0
20
0
30
0
70
128
71
40
72
38
73
41
0
VERTEX
8
OBJECT__19
10
0
20
0
30
0
70
128
71
42
72
40
73
43
0
VERTEX
8
OBJECT__19
10
0
20
0
30
0
70
128
71
42
72
44
73
45
0
VERTEX
8
OBJECT__19
10
0
20
0
30
0
70
128
71
46
72
45
73
47
0
VERTEX
8
OBJECT__19
10
0
20
0
30
0
70
128
71
2
72
48
73
47
0
VERTEX
8
OBJECT__19
10
0
20
0
30
0
70
128
71
47
72
3
73
2
0
VERTEX
8
OBJECT__19
10
0
20
0
30
0
70
128
71
47
72
48
73
46
0
VERTEX
8
OBJECT__19
10
0
20
0
30
0
70
128
71
45
72
46
73
42
0
VERTEX
8
OBJECT__19
10
0
20
0
30
0
70
128
71
43
72
44
73
42
0
VERTEX
8
OBJECT__19
10
0
20
0
30
0
70
128
71
41
72
43
73
40
0
VERTEX
8
OBJECT__19
10
0
20
0
30
0
70
128
71
39
72
41
73
38
0
VERTEX
8
OBJECT__19
10
0
20
0
30
0
70
128
71
37
72
39
73
36
0
VERTEX
8
OBJECT__19
10
0
20
0
30
0
70
128
71
33
72
37
73
34
0
VERTEX
8
OBJECT__19
10
0
20
0
30
0
70
128
71
33
72
35
73
32
0
VERTEX
8
OBJECT__19
10
0
20
0
30
0
70
128
71
31
72
32
73
30
0
VERTEX
8
OBJECT__19
10
0
20
0
30
0
70
128
71
29
72
30
73
24
0
VERTEX
8
OBJECT__19
10
0
20
0
30
0
70
128
71
26
72
28
73
24
0
VERTEX
8
OBJECT__19
10
0
20
0
30
0
70
128
71
21
72
27
73
22
0
VERTEX
8
OBJECT__19
10
0
20
0
30
0
70
128
71
21
72
23
73
20
0
VERTEX
8
OBJECT__19
10
0
20
0
30
0
70
128
71
19
72
20
73
18
0
VERTEX
8
OBJECT__19
10
0
20
0
30
0
70
128
71
17
72
18
73
16
0
VERTEX
8
OBJECT__19
10
0
20
0
30
0
70
128
71
15
72
16
73
12
0
VERTEX
8
OBJECT__19
10
0
20
0
30
0
70
128
71
11
72
14
73
12
0
VERTEX
8
OBJECT__19
10
0
20
0
30
0
70
128
71
11
72
13
73
10
0
VERTEX
8
OBJECT__19
10
0
20
0
30
0
70
128
71
9
72
10
73
8
0
VERTEX
8
OBJECT__19
10
0
20
0
30
0
70
128
71
7
72
8
73
4
0
VERTEX
8
OBJECT__19
10
0
20
0
30
0
70
128
71
5
72
6
73
4
0
VERTEX
8
OBJECT__19
10
0
20
0
30
0
70
128
71
3
72
5
73
1
0
SEQEND
8
OBJECT__19
0
POLYLINE
8
OBJECT__20
66
1
70
64
71
48
72
48
62
253
0
VERTEX
8
OBJECT__20
10
10.000000
20
-50.912998
30
126.182999
70
192
0
VERTEX
8
OBJECT__20
10
10.000000
20
-72.000999
30
110.000999
70
192
0
VERTEX
8
OBJECT__20
10
10.000000
20
-61.771000
30
104.140999
70
192
0
VERTEX
8
OBJECT__20
10
10.000000
20
-88.182999
30
88.913002
70
192
0
VERTEX
8
OBJECT__20
10
10.000000
20
-77.324997
30
85.022003
70
192
0
VERTEX
8
OBJECT__20
10
10.000000
20
26.354000
30
136.356003
70
192
0
VERTEX
8
OBJECT__20
10
10.000000
20
0.000000
30
139.824997
70
192
0
VERTEX
8
OBJECT__20
10
10.000000
20
6.176000
30
128.289001
70
192
0
VERTEX
8
OBJECT__20
10
10.000000
20
-26.354000
30
136.356003
70
192
0
VERTEX
8
OBJECT__20
10
10.000000
20
-18.413000
30
126.607002
70
192
0
VERTEX
8
OBJECT__20
10
10.000000
20
-98.356003
30
64.353996
70
192
0
VERTEX
8
OBJECT__20
10
10.000000
20
-87.143997
30
62.417000
70
192
0
VERTEX
8
OBJECT__20
10
10.000000
20
0.000000
30
-63.825001
70
192
0
VERTEX
8
OBJECT__20
10
10.000000
20
6.176000
30
-52.289001
70
192
0
VERTEX
8
OBJECT__20
10
10.000000
20
-18.413000
30
-50.606998
70
192
0
VERTEX
8
OBJECT__20
10
10.000000
20
26.354000
30
-60.355999
70
192
0
VERTEX
8
OBJECT__20
10
10.000000
20
30.306999
30
-47.275002
70
192
0
VERTEX
8
OBJECT__20
10
10.000000
20
-41.636002
30
118.353996
70
192
0
VERTEX
8
OBJECT__20
10
10.000000
20
-101.824997
30
38.000000
70
192
0
VERTEX
8
OBJECT__20
10
10.000000
20
-90.500000
30
38.000000
70
192
0
VERTEX
8
OBJECT__20
10
10.000000
20
-26.354000
30
-60.355999
70
192
0
VERTEX
8
OBJECT__20
10
10.000000
20
-41.636002
30
-42.354000
70
192
0
VERTEX
8
OBJECT__20
10
10.000000
20
50.912998
30
-50.182999
70
192
0
VERTEX
8
OBJECT__20
10
10.000000
20
52.189999
30
-35.936001
70
192
0
VERTEX
8
OBJECT__20
10
10.000000
20
72.000999
30
-34.000999
70
192
0
VERTEX
8
OBJECT__20
10
10.000000
20
70.202003
30
-19.113001
70
192
0
VERTEX
8
OBJECT__20
10
10.000000
20
-98.356003
30
11.646000
70
192
0
VERTEX
8
OBJECT__20
10
10.000000
20
-87.143997
30
13.583000
70
192
0
VERTEX
8
OBJECT__20
10
10.000000
20
-88.182999
30
-12.913000
70
192
0
VERTEX
8
OBJECT__20
10
10.000000
20
-77.324997
30
-9.022000
70
192
0
VERTEX
8
OBJECT__20
10
10.000000
20
-72.000999
30
-34.000999
70
192
0
VERTEX
8
OBJECT__20
10
10.000000
20
-61.771000
30
-28.141001
70
192
0
VERTEX
8
OBJECT__20
10
10.000000
20
-50.912998
30
-50.182999
70
192
0
VERTEX
8
OBJECT__20
10
10.000000
20
101.824997
30
38.000000
70
192
0
VERTEX
8
OBJECT__20
10
10.000000
20
98.356003
30
64.353996
70
192
0
VERTEX
8
OBJECT__20
10
10.000000
20
89.656998
30
50.323002
70
192
0
VERTEX
8
OBJECT__20
10
10.000000
20
88.182999
30
88.913002
70
192
0
VERTEX
8
OBJECT__20
10
10.000000
20
83.008003
30
74.055000
70
192
0
VERTEX
8
OBJECT__20
10
10.000000
20
98.356003
30
11.646000
70
192
0
VERTEX
8
OBJECT__20
10
10.000000
20
89.656998
30
25.677000
70
192
0
VERTEX
8
OBJECT__20
10
10.000000
20
83.008003
30
1.945000
70
192
0
VERTEX
8
OBJECT__20
10
10.000000
20
90.500000
30
38.000000
70
192
0
VERTEX
8
OBJECT__20
10
10.000000
20
72.000999
30
110.000999
70
192
0
VERTEX
8
OBJECT__20
10
10.000000
20
70.202003
30
95.112999
70
192
0
VERTEX
8
OBJECT__20
10
10.000000
20
50.912998
30
126.182999
70
192
0
VERTEX
8
OBJECT__20
10
10.000000
20
52.189999
30
111.935997
70
192
0
VERTEX
8
OBJECT__20
10
10.000000
20
30.306999
30
123.275002
70
192
0
VERTEX
8
OBJECT__20
10
10.000000
20
88.182999
30
-12.913000
70
192
0
VERTEX
8
OBJECT__20
10
0
20
0
30
0
70
128
71
1
72
2
73
3
0
VERTEX
8
OBJECT__20
10
0
20
0
30
0
70
128
71
2
72
4
73
5
0
VERTEX
8
OBJECT__20
10
0
20
0
30
0
70
128
71
6
72
7
73
8
0
VERTEX
8
OBJECT__20
10
0
20
0
30
0
70
128
71
7
72
9
73
10
0
VERTEX
8
OBJECT__20
10
0
20
0
30
0
70
128
71
5
72
3
73
2
0
VERTEX
8
OBJECT__20
10
0
20
0
30
0
70
128
71
4
72
11
73
12
0
VERTEX
8
OBJECT__20
10
0
20
0
30
0
70
128
71
13
72
14
73
15
0
VERTEX
8
OBJECT__20
10
0
20
0
30
0
70
128
71
16
72
17
73
14
0
VERTEX
8
OBJECT__20
10
0
20
0
30
0
70
128
71
10
72
8
73
7
0
VERTEX
8
OBJECT__20
10
0
20
0
30
0
70
128
71
9
72
1
73
18
0
VERTEX
8
OBJECT__20
10
0
20
0
30
0
70
128
71
12
72
5
73
4
0
VERTEX
8
OBJECT__20
10
0
20
0
30
0
70
128
71
11
72
19
73
20
0
VERTEX
8
OBJECT__20
10
0
20
0
30
0
70
128
71
21
72
15
73
22
0
VERTEX
8
OBJECT__20
10
0
20
0
30
0
70
128
71
14
72
13
73
16
0
VERTEX
8
OBJECT__20
10
0
20
0
30
0
70
128
71
23
72
24
73
17
0
VERTEX
8
OBJECT__20
10
0
20
0
30
0
70
128
71
25
72
26
73
24
0
VERTEX
8
OBJECT__20
10
0
20
0
30
0
70
128
71
18
72
10
73
9
0
VERTEX
8
OBJECT__20
10
0
20
0
30
0
70
128
71
20
72
12
73
11
0
VERTEX
8
OBJECT__20
10
0
20
0
30
0
70
128
71
27
72
28
73
20
0
VERTEX
8
OBJECT__20
10
0
20
0
30
0
70
128
71
29
72
30
73
28
0
VERTEX
8
OBJECT__20
10
0
20
0
30
0
70
128
71
31
72
32
73
30
0
VERTEX
8
OBJECT__20
10
0
20
0
30
0
70
128
71
33
72
22
73
32
0
VERTEX
8
OBJECT__20
10
0
20
0
30
0
70
128
71
15
72
21
73
13
0
VERTEX
8
OBJECT__20
10
0
20
0
30
0
70
128
71
24
72
23
73
25
0
VERTEX
8
OBJECT__20
10
0
20
0
30
0
70
128
71
34
72
35
73
36
0
VERTEX
8
OBJECT__20
10
0
20
0
30
0
70
128
71
35
72
37
73
38
0
VERTEX
8
OBJECT__20
10
0
20
0
30
0
70
128
71
3
72
18
73
1
0
VERTEX
8
OBJECT__20
10
0
20
0
30
0
70
128
71
28
72
27
73
29
0
VERTEX
8
OBJECT__20
10
0
20
0
30
0
70
128
71
32
72
31
73
33
0
VERTEX
8
OBJECT__20
10
0
20
0
30
0
70
128
71
17
72
16
73
23
0
VERTEX
8
OBJECT__20
10
0
20
0
30
0
70
128
71
39
72
40
73
41
0
VERTEX
8
OBJECT__20
10
0
20
0
30
0
70
128
71
34
72
42
73
40
0
VERTEX
8
OBJECT__20
10
0
20
0
30
0
70
128
71
38
72
36
73
35
0
VERTEX
8
OBJECT__20
10
0
20
0
30
0
70
128
71
37
72
43
73
44
0
VERTEX
8
OBJECT__20
10
0
20
0
30
0
70
128
71
43
72
45
73
46
0
VERTEX
8
OBJECT__20
10
0
20
0
30
0
70
128
71
45
72
6
73
47
0
VERTEX
8
OBJECT__20
10
0
20
0
30
0
70
128
71
20
72
19
73
27
0
VERTEX
8
OBJECT__20
10
0
20
0
30
0
70
128
71
22
72
33
73
21
0
VERTEX
8
OBJECT__20
10
0
20
0
30
0
70
128
71
48
72
41
73
26
0
VERTEX
8
OBJECT__20
10
0
20
0
30
0
70
128
71
40
72
39
73
34
0
VERTEX
8
OBJECT__20
10
0
20
0
30
0
70
128
71
44
72
38
73
37
0
VERTEX
8
OBJECT__20
10
0
20
0
30
0
70
128
71
47
72
46
73
45
0
VERTEX
8
OBJECT__20
10
0
20
0
30
0
70
128
71
30
72
29
73
31
0
VERTEX
8
OBJECT__20
10
0
20
0
30
0
70
128
71
41
72
48
73
39
0
VERTEX
8
OBJECT__20
10
0
20
0
30
0
70
128
71
46
72
44
73
43
0
VERTEX
8
OBJECT__20
10
0
20
0
30
0
70
128
71
26
72
25
73
48
0
VERTEX
8
OBJECT__20
10
0
20
0
30
0
70
128
71
8
72
47
73
6
0
VERTEX
8
OBJECT__20
10
0
20
0
30
0
70
128
71
36
72
42
73
34
0
SEQEND
8
OBJECT__20
0
POLYLINE
8
OBJECT__21
66
1
70
64
71
48
72
48
62
253
0
VERTEX
8
OBJECT__21
10
0.000000
20
-98.524002
30
64.400002
70
192
0
VERTEX
8
OBJECT__21
10
0.000000
20
-102.000000
30
38.000000
70
192
0
VERTEX
8
OBJECT__21
10
10.000000
20
-101.824997
30
38.000000
70
192
0
VERTEX
8
OBJECT__21
10
0.000000
20
-88.334999
30
89.000000
70
192
0
VERTEX
8
OBJECT__21
10
10.000000
20
-98.356003
30
64.353996
70
192
0
VERTEX
8
OBJECT__21
10
10.000000
20
-88.182999
30
88.913002
70
192
0
VERTEX
8
OBJECT__21
10
10.000000
20
-72.000999
30
110.000999
70
192
0
VERTEX
8
OBJECT__21
10
0.000000
20
-72.125000
30
110.125000
70
192
0
VERTEX
8
OBJECT__21
10
10.000000
20
-50.912998
30
126.182999
70
192
0
VERTEX
8
OBJECT__21
10
0.000000
20
-51.000000
30
126.334999
70
192
0
VERTEX
8
OBJECT__21
10
10.000000
20
-26.354000
30
136.356003
70
192
0
VERTEX
8
OBJECT__21
10
0.000000
20
-26.400000
30
136.524002
70
192
0
VERTEX
8
OBJECT__21
10
10.000000
20
0.000000
30
139.824997
70
192
0
VERTEX
8
OBJECT__21
10
0.000000
20
0.000000
30
140.000000
70
192
0
VERTEX
8
OBJECT__21
10
10.000000
20
26.354000
30
136.356003
70
192
0
VERTEX
8
OBJECT__21
10
0.000000
20
26.400000
30
136.524002
70
192
0
VERTEX
8
OBJECT__21
10
10.000000
20
50.912998
30
126.182999
70
192
0
VERTEX
8
OBJECT__21
10
0.000000
20
72.125000
30
110.125000
70
192
0
VERTEX
8
OBJECT__21
10
0.000000
20
51.000000
30
126.334999
70
192
0
VERTEX
8
OBJECT__21
10
10.000000
20
72.000999
30
110.000999
70
192
0
VERTEX
8
OBJECT__21
10
10.000000
20
88.182999
30
88.913002
70
192
0
VERTEX
8
OBJECT__21
10
0.000000
20
88.334999
30
89.000000
70
192
0
VERTEX
8
OBJECT__21
10
10.000000
20
98.356003
30
64.353996
70
192
0
VERTEX
8
OBJECT__21
10
0.000000
20
98.524002
30
64.400002
70
192
0
VERTEX
8
OBJECT__21
10
10.000000
20
101.824997
30
38.000000
70
192
0
VERTEX
8
OBJECT__21
10
0.000000
20
102.000000
30
38.000000
70
192
0
VERTEX
8
OBJECT__21
10
10.000000
20
98.356003
30
11.646000
70
192
0
VERTEX
8
OBJECT__21
10
0.000000
20
98.524002
30
11.600000
70
192
0
VERTEX
8
OBJECT__21
10
10.000000
20
88.182999
30
-12.913000
70
192
0
VERTEX
8
OBJECT__21
10
0.000000
20
72.125000
30
-34.125000
70
192
0
VERTEX
8
OBJECT__21
10
0.000000
20
88.334999
30
-13.000000
70
192
0
VERTEX
8
OBJECT__21
10
0.000000
20
51.000000
30
-50.334999
70
192
0
VERTEX
8
OBJECT__21
10
10.000000
20
72.000999
30
-34.000999
70
192
0
VERTEX
8
OBJECT__21
10
10.000000
20
50.912998
30
-50.182999
70
192
0
VERTEX
8
OBJECT__21
10
10.000000
20
26.354000
30
-60.355999
70
192
0
VERTEX
8
OBJECT__21
10
0.000000
20
0.000000
30
-64.000000
70
192
0
VERTEX
8
OBJECT__21
10
0.000000
20
26.400000
30
-60.523998
70
192
0
VERTEX
8
OBJECT__21
10
10.000000
20
0.000000
30
-63.825001
70
192
0
VERTEX
8
OBJECT__21
10
10.000000
20
-26.354000
30
-60.355999
70
192
0
VERTEX
8
OBJECT__21
10
0.000000
20
-51.000000
30
-50.334999
70
192
0
VERTEX
8
OBJECT__21
10
0.000000
20
-26.400000
30
-60.523998
70
192
0
VERTEX
8
OBJECT__21
10
10.000000
20
-50.912998
30
-50.182999
70
192
0
VERTEX
8
OBJECT__21
10
10.000000
20
-72.000999
30
-34.000999
70
192
0
VERTEX
8
OBJECT__21
10
0.000000
20
-72.125000
30
-34.125000
70
192
0
VERTEX
8
OBJECT__21
10
10.000000
20
-88.182999
30
-12.913000
70
192
0
VERTEX
8
OBJECT__21
10
0.000000
20
-98.524002
30
11.600000
70
192
0
VERTEX
8
OBJECT__21
10
0.000000
20
-88.334999
30
-13.000000
70
192
0
VERTEX
8
OBJECT__21
10
10.000000
20
-98.356003
30
11.646000
70
192
0
VERTEX
8
OBJECT__21
10
0
20
0
30
0
70
128
71
1
72
2
73
3
0
VERTEX
8
OBJECT__21
10
0
20
0
30
0
70
128
71
4
72
1
73
5
0
VERTEX
8
OBJECT__21
10
0
20
0
30
0
70
128
71
4
72
6
73
7
0
VERTEX
8
OBJECT__21
10
0
20
0
30
0
70
128
71
8
72
7
73
9
0
VERTEX
8
OBJECT__21
10
0
20
0
30
0
70
128
71
10
72
9
73
11
0
VERTEX
8
OBJECT__21
10
0
20
0
30
0
70
128
71
12
72
11
73
13
0
VERTEX
8
OBJECT__21
10
0
20
0
30
0
70
128
71
14
72
13
73
15
0
VERTEX
8
OBJECT__21
10
0
20
0
30
0
70
128
71
16
72
15
73
17
0
VERTEX
8
OBJECT__21
10
0
20
0
30
0
70
128
71
18
72
19
73
17
0
VERTEX
8
OBJECT__21
10
0
20
0
30
0
70
128
71
18
72
20
73
21
0
VERTEX
8
OBJECT__21
10
0
20
0
30
0
70
128
71
22
72
21
73
23
0
VERTEX
8
OBJECT__21
10
0
20
0
30
0
70
128
71
24
72
23
73
25
0
VERTEX
8
OBJECT__21
10
0
20
0
30
0
70
128
71
26
72
25
73
27
0
VERTEX
8
OBJECT__21
10
0
20
0
30
0
70
128
71
28
72
27
73
29
0
VERTEX
8
OBJECT__21
10
0
20
0
30
0
70
128
71
30
72
31
73
29
0
VERTEX
8
OBJECT__21
10
0
20
0
30
0
70
128
71
32
72
30
73
33
0
VERTEX
8
OBJECT__21
10
0
20
0
30
0
70
128
71
32
72
34
73
35
0
VERTEX
8
OBJECT__21
10
0
20
0
30
0
70
128
71
36
72
37
73
35
0
VERTEX
8
OBJECT__21
10
0
20
0
30
0
70
128
71
36
72
38
73
39
0
VERTEX
8
OBJECT__21
10
0
20
0
30
0
70
128
71
40
72
41
73
39
0
VERTEX
8
OBJECT__21
10
0
20
0
30
0
70
128
71
40
72
42
73
43
0
VERTEX
8
OBJECT__21
10
0
20
0
30
0
70
128
71
44
72
43
73
45
0
VERTEX
8
OBJECT__21
10
0
20
0
30
0
70
128
71
46
72
47
73
45
0
VERTEX
8
OBJECT__21
10
0
20
0
30
0
70
128
71
2
72
46
73
48
0
VERTEX
8
OBJECT__21
10
0
20
0
30
0
70
128
71
48
72
3
73
2
0
VERTEX
8
OBJECT__21
10
0
20
0
30
0
70
128
71
45
72
48
73
46
0
VERTEX
8
OBJECT__21
10
0
20
0
30
0
70
128
71
45
72
47
73
44
0
VERTEX
8
OBJECT__21
10
0
20
0
30
0
70
128
71
43
72
44
73
40
0
VERTEX
8
OBJECT__21
10
0
20
0
30
0
70
128
71
39
72
42
73
40
0
VERTEX
8
OBJECT__21
10
0
20
0
30
0
70
128
71
39
72
41
73
36
0
VERTEX
8
OBJECT__21
10
0
20
0
30
0
70
128
71
35
72
38
73
36
0
VERTEX
8
OBJECT__21
10
0
20
0
30
0
70
128
71
35
72
37
73
32
0
VERTEX
8
OBJECT__21
10
0
20
0
30
0
70
128
71
33
72
34
73
32
0
VERTEX
8
OBJECT__21
10
0
20
0
30
0
70
128
71
29
72
33
73
30
0
VERTEX
8
OBJECT__21
10
0
20
0
30
0
70
128
71
29
72
31
73
28
0
VERTEX
8
OBJECT__21
10
0
20
0
30
0
70
128
71
27
72
28
73
26
0
VERTEX
8
OBJECT__21
10
0
20
0
30
0
70
128
71
25
72
26
73
24
0
VERTEX
8
OBJECT__21
10
0
20
0
30
0
70
128
71
23
72
24
73
22
0
VERTEX
8
OBJECT__21
10
0
20
0
30
0
70
128
71
21
72
22
73
18
0
VERTEX
8
OBJECT__21
10
0
20
0
30
0
70
128
71
17
72
20
73
18
0
VERTEX
8
OBJECT__21
10
0
20
0
30
0
70
128
71
17
72
19
73
16
0
VERTEX
8
OBJECT__21
10
0
20
0
30
0
70
128
71
15
72
16
73
14
0
VERTEX
8
OBJECT__21
10
0
20
0
30
0
70
128
71
13
72
14
73
12
0
VERTEX
8
OBJECT__21
10
0
20
0
30
0
70
128
71
11
72
12
73
10
0
VERTEX
8
OBJECT__21
10
0
20
0
30
0
70
128
71
9
72
10
73
8
0
VERTEX
8
OBJECT__21
10
0
20
0
30
0
70
128
71
7
72
8
73
4
0
VERTEX
8
OBJECT__21
10
0
20
0
30
0
70
128
71
5
72
6
73
4
0
VERTEX
8
OBJECT__21
10
0
20
0
30
0
70
128
71
3
72
5
73
1
0
SEQEND
8
OBJECT__21
0
POLYLINE
8
OBJECT__22
66
1
70
64
71
24
72
22
62
253
0
VERTEX
8
OBJECT__22
10
0.000000
20
-98.524002
30
11.600000
70
192
0
VERTEX
8
OBJECT__22
10
0.000000
20
-102.000000
30
38.000000
70
192
0
VERTEX
8
OBJECT__22
10
0.000000
20
-98.524002
30
64.400002
70
192
0
VERTEX
8
OBJECT__22
10
0.000000
20
-88.334999
30
89.000000
70
192
0
VERTEX
8
OBJECT__22
10
0.000000
20
-88.334999
30
-13.000000
70
192
0
VERTEX
8
OBJECT__22
10
0.000000
20
-72.125000
30
-34.125000
70
192
0
VERTEX
8
OBJECT__22
10
0.000000
20
-72.125000
30
110.125000
70
192
0
VERTEX
8
OBJECT__22
10
0.000000
20
-26.400000
30
-60.523998
70
192
0
VERTEX
8
OBJECT__22
10
0.000000
20
-51.000000
30
-50.334999
70
192
0
VERTEX
8
OBJECT__22
10
0.000000
20
102.000000
30
38.000000
70
192
0
VERTEX
8
OBJECT__22
10
0.000000
20
98.524002
30
11.600000
70
192
0
VERTEX
8
OBJECT__22
10
0.000000
20
88.334999
30
-13.000000
70
192
0
VERTEX
8
OBJECT__22
10
0.000000
20
72.125000
30
-34.125000
70
192
0
VERTEX
8
OBJECT__22
10
0.000000
20
72.125000
30
110.125000
70
192
0
VERTEX
8
OBJECT__22
10
0.000000
20
88.334999
30
89.000000
70
192
0
VERTEX
8
OBJECT__22
10
0.000000
20
-51.000000
30
126.334999
70
192
0
VERTEX
8
OBJECT__22
10
0.000000
20
0.000000
30
-64.000000
70
192
0
VERTEX
8
OBJECT__22
10
0.000000
20
51.000000
30
-50.334999
70
192
0
VERTEX
8
OBJECT__22
10
0.000000
20
26.400000
30
-60.523998
70
192
0
VERTEX
8
OBJECT__22
10
0.000000
20
98.524002
30
64.400002
70
192
0
VERTEX
8
OBJECT__22
10
0.000000
20
51.000000
30
126.334999
70
192
0
VERTEX
8
OBJECT__22
10
0.000000
20
0.000000
30
140.000000
70
192
0
VERTEX
8
OBJECT__22
10
0.000000
20
26.400000
30
136.524002
70
192
0
VERTEX
8
OBJECT__22
10
0.000000
20
-26.400000
30
136.524002
70
192
0
VERTEX
8
OBJECT__22
10
0
20
0
30
0
70
128
71
1
72
2
73
3
0
VERTEX
8
OBJECT__22
10
0
20
0
30
0
70
128
71
4
72
5
73
1
0
VERTEX
8
OBJECT__22
10
0
20
0
30
0
70
128
71
4
72
6
73
5
0
VERTEX
8
OBJECT__22
10
0
20
0
30
0
70
128
71
7
72
8
73
9
0
VERTEX
8
OBJECT__22
10
0
20
0
30
0
70
128
71
10
72
11
73
12
0
VERTEX
8
OBJECT__22
10
0
20
0
30
0
70
128
71
13
72
14
73
15
0
VERTEX
8
OBJECT__22
10
0
20
0
30
0
70
128
71
13
72
7
73
16
0
VERTEX
8
OBJECT__22
10
0
20
0
30
0
70
128
71
3
72
4
73
1
0
VERTEX
8
OBJECT__22
10
0
20
0
30
0
70
128
71
7
72
17
73
8
0
VERTEX
8
OBJECT__22
10
0
20
0
30
0
70
128
71
7
72
18
73
19
0
VERTEX
8
OBJECT__22
10
0
20
0
30
0
70
128
71
13
72
20
73
10
0
VERTEX
8
OBJECT__22
10
0
20
0
30
0
70
128
71
13
72
21
73
14
0
VERTEX
8
OBJECT__22
10
0
20
0
30
0
70
128
71
13
72
22
73
23
0
VERTEX
8
OBJECT__22
10
0
20
0
30
0
70
128
71
16
72
24
73
13
0
VERTEX
8
OBJECT__22
10
0
20
0
30
0
70
128
71
9
72
6
73
7
0
VERTEX
8
OBJECT__22
10
0
20
0
30
0
70
128
71
7
72
13
73
18
0
VERTEX
8
OBJECT__22
10
0
20
0
30
0
70
128
71
15
72
20
73
13
0
VERTEX
8
OBJECT__22
10
0
20
0
30
0
70
128
71
24
72
22
73
13
0
VERTEX
8
OBJECT__22
10
0
20
0
30
0
70
128
71
19
72
17
73
7
0
VERTEX
8
OBJECT__22
10
0
20
0
30
0
70
128
71
23
72
21
73
13
0
VERTEX
8
OBJECT__22
10
0
20
0
30
0
70
128
71
12
72
13
73
10
0
VERTEX
8
OBJECT__22
10
0
20
0
30
0
70
128
71
4
72
7
73
6
0
SEQEND
8
OBJECT__22
0
POLYLINE
8
OBJECT__23
66
1
70
64
71
26
72
26
62
253
0
VERTEX
8
OBJECT__23
10
50.922001
20
1.271000
30
25.044001
70
192
0
VERTEX
8
OBJECT__23
10
46.326000
20
2.475000
30
24.687000
70
192
0
VERTEX
8
OBJECT__23
10
45.576000
20
0.118000
30
25.148001
70
192
0
VERTEX
8
OBJECT__23
10
45.591000
20
0.018000
30
25.139000
70
192
0
VERTEX
8
OBJECT__23
10
55.519001
20
0.017000
30
25.113001
70
192
0
VERTEX
8
OBJECT__23
10
47.472000
20
3.922000
30
24.076000
70
192
0
VERTEX
8
OBJECT__23
10
46.426998
20
2.793000
30
24.625000
70
192
0
VERTEX
8
OBJECT__23
10
50.563999
20
4.950000
30
23.344999
70
192
0
VERTEX
8
OBJECT__23
10
50.355000
20
4.996000
30
23.309000
70
192
0
VERTEX
8
OBJECT__23
10
49.040001
20
4.759000
30
23.503000
70
192
0
VERTEX
8
OBJECT__23
10
54.081001
20
3.566000
30
24.274000
70
192
0
VERTEX
8
OBJECT__23
10
52.887001
20
4.434000
30
23.745001
70
192
0
VERTEX
8
OBJECT__23
10
54.856998
20
2.467000
30
24.712999
70
192
0
VERTEX
8
OBJECT__23
10
55.526001
20
0.700000
30
25.117001
70
192
0
VERTEX
8
OBJECT__23
10
55.106998
20
2.114000
30
24.853001
70
192
0
VERTEX
8
OBJECT__23
10
50.917999
20
-1.245000
30
25.048000
70
192
0
VERTEX
8
OBJECT__23
10
54.737000
20
-2.419000
30
24.649000
70
192
0
VERTEX
8
OBJECT__23
10
55.509998
20
-0.803000
30
25.107000
70
192
0
VERTEX
8
OBJECT__23
10
53.013000
20
-4.364000
30
23.792000
70
192
0
VERTEX
8
OBJECT__23
10
54.299000
20
-3.336000
30
24.389000
70
192
0
VERTEX
8
OBJECT__23
10
51.622002
20
-4.888000
30
23.398001
70
192
0
VERTEX
8
OBJECT__23
10
46.692001
20
-3.149000
30
24.476000
70
192
0
VERTEX
8
OBJECT__23
10
49.132000
20
-4.786000
30
23.480000
70
192
0
VERTEX
8
OBJECT__23
10
46.317001
20
-2.460000
30
24.698000
70
192
0
VERTEX
8
OBJECT__23
10
50.575001
20
-4.999000
30
23.305000
70
192
0
VERTEX
8
OBJECT__23
10
45.820000
20
-1.546000
30
24.992001
70
192
0
VERTEX
8
OBJECT__23
10
0
20
0
30
0
70
128
71
1
72
2
73
3
0
VERTEX
8
OBJECT__23
10
0
20
0
30
0
70
128
71
4
72
5
73
1
0
VERTEX
8
OBJECT__23
10
0
20
0
30
0
70
128
71
1
72
6
73
7
0
VERTEX
8
OBJECT__23
10
0
20
0
30
0
70
128
71
1
72
8
73
9
0
VERTEX
8
OBJECT__23
10
0
20
0
30
0
70
128
71
9
72
10
73
1
0
VERTEX
8
OBJECT__23
10
0
20
0
30
0
70
128
71
10
72
6
73
1
0
VERTEX
8
OBJECT__23
10
0
20
0
30
0
70
128
71
1
72
11
73
12
0
VERTEX
8
OBJECT__23
10
0
20
0
30
0
70
128
71
1
72
13
73
11
0
VERTEX
8
OBJECT__23
10
0
20
0
30
0
70
128
71
12
72
8
73
1
0
VERTEX
8
OBJECT__23
10
0
20
0
30
0
70
128
71
1
72
14
73
15
0
VERTEX
8
OBJECT__23
10
0
20
0
30
0
70
128
71
1
72
5
73
14
0
VERTEX
8
OBJECT__23
10
0
20
0
30
0
70
128
71
15
72
13
73
1
0
VERTEX
8
OBJECT__23
10
0
20
0
30
0
70
128
71
7
72
2
73
1
0
VERTEX
8
OBJECT__23
10
0
20
0
30
0
70
128
71
16
72
17
73
18
0
VERTEX
8
OBJECT__23
10
0
20
0
30
0
70
128
71
16
72
19
73
20
0
VERTEX
8
OBJECT__23
10
0
20
0
30
0
70
128
71
16
72
21
73
19
0
VERTEX
8
OBJECT__23
10
0
20
0
30
0
70
128
71
16
72
22
73
23
0
VERTEX
8
OBJECT__23
10
0
20
0
30
0
70
128
71
16
72
24
73
22
0
VERTEX
8
OBJECT__23
10
0
20
0
30
0
70
128
71
23
72
25
73
16
0
VERTEX
8
OBJECT__23
10
0
20
0
30
0
70
128
71
25
72
21
73
16
0
VERTEX
8
OBJECT__23
10
0
20
0
30
0
70
128
71
20
72
17
73
16
0
VERTEX
8
OBJECT__23
10
0
20
0
30
0
70
128
71
16
72
4
73
26
0
VERTEX
8
OBJECT__23
10
0
20
0
30
0
70
128
71
26
72
24
73
16
0
VERTEX
8
OBJECT__23
10
0
20
0
30
0
70
128
71
16
72
5
73
4
0
VERTEX
8
OBJECT__23
10
0
20
0
30
0
70
128
71
18
72
5
73
16
0
VERTEX
8
OBJECT__23
10
0
20
0
30
0
70
128
71
3
72
4
73
1
0
SEQEND
8
OBJECT__23
0
POLYLINE
8
OBJECT__24
66
1
70
64
71
48
72
48
62
253
0
VERTEX
8
OBJECT__24
10
46.692001
20
-3.149000
30
24.476000
70
192
0
VERTEX
8
OBJECT__24
10
46.480000
20
-2.868000
30
23.834000
70
192
0
VERTEX
8
OBJECT__24
10
47.534000
20
-3.968000
30
23.215000
70
192
0
VERTEX
8
OBJECT__24
10
49.132000
20
-4.786000
30
23.480000
70
192
0
VERTEX
8
OBJECT__24
10
46.317001
20
-2.460000
30
24.698000
70
192
0
VERTEX
8
OBJECT__24
10
46.280998
20
-2.481000
30
23.966999
70
192
0
VERTEX
8
OBJECT__24
10
50.575001
20
-4.999000
30
23.305000
70
192
0
VERTEX
8
OBJECT__24
10
49.141998
20
-4.790000
30
22.552999
70
192
0
VERTEX
8
OBJECT__24
10
50.575001
20
-4.999000
30
22.348000
70
192
0
VERTEX
8
OBJECT__24
10
45.820000
20
-1.546000
30
24.992001
70
192
0
VERTEX
8
OBJECT__24
10
45.858002
20
-1.658000
30
24.250000
70
192
0
VERTEX
8
OBJECT__24
10
45.591000
20
0.018000
30
25.139000
70
192
0
VERTEX
8
OBJECT__24
10
45.584999
20
-0.310000
30
24.441999
70
192
0
VERTEX
8
OBJECT__24
10
45.576000
20
0.118000
30
25.148001
70
192
0
VERTEX
8
OBJECT__24
10
46.326000
20
2.475000
30
24.687000
70
192
0
VERTEX
8
OBJECT__24
10
45.730000
20
1.235000
30
24.339001
70
192
0
VERTEX
8
OBJECT__24
10
45.613998
20
-0.001000
30
24.422001
70
192
0
VERTEX
8
OBJECT__24
10
46.261002
20
2.494000
30
23.978001
70
192
0
VERTEX
8
OBJECT__24
10
48.868999
20
4.701000
30
22.636000
70
192
0
VERTEX
8
OBJECT__24
10
49.040001
20
4.759000
30
23.503000
70
192
0
VERTEX
8
OBJECT__24
10
50.355000
20
4.996000
30
23.309000
70
192
0
VERTEX
8
OBJECT__24
10
46.426998
20
2.793000
30
24.625000
70
192
0
VERTEX
8
OBJECT__24
10
46.311001
20
2.613000
30
23.944000
70
192
0
VERTEX
8
OBJECT__24
10
47.424999
20
3.884000
30
23.273001
70
192
0
VERTEX
8
OBJECT__24
10
47.472000
20
3.922000
30
24.076000
70
192
0
VERTEX
8
OBJECT__24
10
50.575001
20
5.001000
30
22.348000
70
192
0
VERTEX
8
OBJECT__24
10
52.936001
20
3.749000
30
22.618000
70
192
0
VERTEX
8
OBJECT__24
10
52.887001
20
4.434000
30
23.745001
70
192
0
VERTEX
8
OBJECT__24
10
54.081001
20
3.566000
30
24.274000
70
192
0
VERTEX
8
OBJECT__24
10
54.713001
20
2.808000
30
23.093000
70
192
0
VERTEX
8
OBJECT__24
10
50.563999
20
4.950000
30
23.344999
70
192
0
VERTEX
8
OBJECT__24
10
50.575001
20
5.001000
30
21.985001
70
192
0
VERTEX
8
OBJECT__24
10
54.856998
20
2.467000
30
24.712999
70
192
0
VERTEX
8
OBJECT__24
10
54.748001
20
2.484000
30
23.103001
70
192
0
VERTEX
8
OBJECT__24
10
55.026001
20
-0.059000
30
23.177000
70
192
0
VERTEX
8
OBJECT__24
10
55.106998
20
2.114000
30
24.853001
70
192
0
VERTEX
8
OBJECT__24
10
55.526001
20
0.700000
30
25.117001
70
192
0
VERTEX
8
OBJECT__24
10
55.509998
20
-0.803000
30
25.107000
70
192
0
VERTEX
8
OBJECT__24
10
54.737000
20
-2.419000
30
24.649000
70
192
0
VERTEX
8
OBJECT__24
10
55.221001
20
-1.847000
30
23.230000
70
192
0
VERTEX
8
OBJECT__24
10
55.519001
20
0.017000
30
25.113001
70
192
0
VERTEX
8
OBJECT__24
10
54.715000
20
-2.278000
30
23.094000
70
192
0
VERTEX
8
OBJECT__24
10
51.654999
20
-4.881000
30
22.274000
70
192
0
VERTEX
8
OBJECT__24
10
51.622002
20
-4.888000
30
23.398001
70
192
0
VERTEX
8
OBJECT__24
10
52.865002
20
-3.852000
30
22.598000
70
192
0
VERTEX
8
OBJECT__24
10
53.013000
20
-4.364000
30
23.792000
70
192
0
VERTEX
8
OBJECT__24
10
54.299000
20
-3.336000
30
24.389000
70
192
0
VERTEX
8
OBJECT__24
10
50.575001
20
-4.999000
30
21.985001
70
192
0
VERTEX
8
OBJECT__24
10
0
20
0
30
0
70
128
71
1
72
2
73
3
0
VERTEX
8
OBJECT__24
10
0
20
0
30
0
70
128
71
3
72
4
73
1
0
VERTEX
8
OBJECT__24
10
0
20
0
30
0
70
128
71
1
72
5
73
6
0
VERTEX
8
OBJECT__24
10
0
20
0
30
0
70
128
71
6
72
2
73
1
0
VERTEX
8
OBJECT__24
10
0
20
0
30
0
70
128
71
7
72
4
73
8
0
VERTEX
8
OBJECT__24
10
0
20
0
30
0
70
128
71
8
72
9
73
7
0
VERTEX
8
OBJECT__24
10
0
20
0
30
0
70
128
71
5
72
10
73
11
0
VERTEX
8
OBJECT__24
10
0
20
0
30
0
70
128
71
10
72
12
73
13
0
VERTEX
8
OBJECT__24
10
0
20
0
30
0
70
128
71
13
72
11
73
10
0
VERTEX
8
OBJECT__24
10
0
20
0
30
0
70
128
71
14
72
15
73
16
0
VERTEX
8
OBJECT__24
10
0
20
0
30
0
70
128
71
17
72
12
73
14
0
VERTEX
8
OBJECT__24
10
0
20
0
30
0
70
128
71
16
72
17
73
14
0
VERTEX
8
OBJECT__24
10
0
20
0
30
0
70
128
71
17
72
13
73
12
0
VERTEX
8
OBJECT__24
10
0
20
0
30
0
70
128
71
15
72
18
73
16
0
VERTEX
8
OBJECT__24
10
0
20
0
30
0
70
128
71
19
72
20
73
21
0
VERTEX
8
OBJECT__24
10
0
20
0
30
0
70
128
71
22
72
23
73
18
0
VERTEX
8
OBJECT__24
10
0
20
0
30
0
70
128
71
20
72
19
73
24
0
VERTEX
8
OBJECT__24
10
0
20
0
30
0
70
128
71
23
72
22
73
25
0
VERTEX
8
OBJECT__24
10
0
20
0
30
0
70
128
71
25
72
24
73
23
0
VERTEX
8
OBJECT__24
10
0
20
0
30
0
70
128
71
24
72
25
73
20
0
VERTEX
8
OBJECT__24
10
0
20
0
30
0
70
128
71
18
72
15
73
22
0
VERTEX
8
OBJECT__24
10
0
20
0
30
0
70
128
71
21
72
26
73
19
0
VERTEX
8
OBJECT__24
10
0
20
0
30
0
70
128
71
27
72
28
73
29
0
VERTEX
8
OBJECT__24
10
0
20
0
30
0
70
128
71
29
72
30
73
27
0
VERTEX
8
OBJECT__24
10
0
20
0
30
0
70
128
71
27
72
26
73
31
0
VERTEX
8
OBJECT__24
10
0
20
0
30
0
70
128
71
27
72
32
73
26
0
VERTEX
8
OBJECT__24
10
0
20
0
30
0
70
128
71
31
72
28
73
27
0
VERTEX
8
OBJECT__24
10
0
20
0
30
0
70
128
71
33
72
34
73
30
0
VERTEX
8
OBJECT__24
10
0
20
0
30
0
70
128
71
35
72
34
73
36
0
VERTEX
8
OBJECT__24
10
0
20
0
30
0
70
128
71
34
72
33
73
36
0
VERTEX
8
OBJECT__24
10
0
20
0
30
0
70
128
71
36
72
37
73
35
0
VERTEX
8
OBJECT__24
10
0
20
0
30
0
70
128
71
38
72
39
73
40
0
VERTEX
8
OBJECT__24
10
0
20
0
30
0
70
128
71
35
72
41
73
38
0
VERTEX
8
OBJECT__24
10
0
20
0
30
0
70
128
71
40
72
35
73
38
0
VERTEX
8
OBJECT__24
10
0
20
0
30
0
70
128
71
39
72
42
73
40
0
VERTEX
8
OBJECT__24
10
0
20
0
30
0
70
128
71
43
72
44
73
7
0
VERTEX
8
OBJECT__24
10
0
20
0
30
0
70
128
71
7
72
9
73
43
0
VERTEX
8
OBJECT__24
10
0
20
0
30
0
70
128
71
45
72
46
73
44
0
VERTEX
8
OBJECT__24
10
0
20
0
30
0
70
128
71
45
72
42
73
47
0
VERTEX
8
OBJECT__24
10
0
20
0
30
0
70
128
71
42
72
39
73
47
0
VERTEX
8
OBJECT__24
10
0
20
0
30
0
70
128
71
47
72
46
73
45
0
VERTEX
8
OBJECT__24
10
0
20
0
30
0
70
128
71
44
72
43
73
45
0
VERTEX
8
OBJECT__24
10
0
20
0
30
0
70
128
71
9
72
48
73
43
0
VERTEX
8
OBJECT__24
10
0
20
0
30
0
70
128
71
37
72
41
73
35
0
VERTEX
8
OBJECT__24
10
0
20
0
30
0
70
128
71
29
72
33
73
30
0
VERTEX
8
OBJECT__24
10
0
20
0
30
0
70
128
71
21
72
31
73
26
0
VERTEX
8
OBJECT__24
10
0
20
0
30
0
70
128
71
11
72
6
73
5
0
VERTEX
8
OBJECT__24
10
0
20
0
30
0
70
128
71
3
72
8
73
4
0
SEQEND
8
OBJECT__24
0
POLYLINE
8
OBJECT__26
66
1
70
64
71
23
72
21
62
253
0
VERTEX
8
OBJECT__26
10
52.936001
20
3.749000
30
22.618000
70
192
0
VERTEX
8
OBJECT__26
10
58.015999
20
3.859000
30
14.049000
70
192
0
VERTEX
8
OBJECT__26
10
54.348000
20
5.001000
30
15.451000
70
192
0
VERTEX
8
OBJECT__26
10
54.542000
20
4.972000
30
14.049000
70
192
0
VERTEX
8
OBJECT__26
10
52.701000
20
4.526000
30
14.049000
70
192
0
VERTEX
8
OBJECT__26
10
52.597000
20
4.574000
30
14.440000
70
192
0
VERTEX
8
OBJECT__26
10
60.591000
20
-0.087000
30
14.049000
70
192
0
VERTEX
8
OBJECT__26
10
59.359001
20
3.430000
30
14.049000
70
192
0
VERTEX
8
OBJECT__26
10
54.748001
20
2.484000
30
23.103001
70
192
0
VERTEX
8
OBJECT__26
10
54.713001
20
2.808000
30
23.093000
70
192
0
VERTEX
8
OBJECT__26
10
58.056999
20
-4.164000
30
14.049000
70
192
0
VERTEX
8
OBJECT__26
10
60.851002
20
-0.827000
30
14.049000
70
192
0
VERTEX
8
OBJECT__26
10
55.221001
20
-1.847000
30
23.230000
70
192
0
VERTEX
8
OBJECT__26
10
54.715000
20
-2.278000
30
23.094000
70
192
0
VERTEX
8
OBJECT__26
10
55.026001
20
-0.059000
30
23.177000
70
192
0
VERTEX
8
OBJECT__26
10
52.701000
20
-4.525000
30
14.049000
70
192
0
VERTEX
8
OBJECT__26
10
57.835999
20
-4.428000
30
14.049000
70
192
0
VERTEX
8
OBJECT__26
10
54.348000
20
-4.999000
30
15.451000
70
192
0
VERTEX
8
OBJECT__26
10
52.597000
20
-4.572000
30
14.440000
70
192
0
VERTEX
8
OBJECT__26
10
52.865002
20
-3.852000
30
22.598000
70
192
0
VERTEX
8
OBJECT__26
10
51.654999
20
-4.881000
30
22.274000
70
192
0
VERTEX
8
OBJECT__26
10
50.575001
20
-4.999000
30
21.985001
70
192
0
VERTEX
8
OBJECT__26
10
50.575001
20
5.001000
30
21.985001
70
192
0
VERTEX
8
OBJECT__26
10
0
20
0
30
0
70
128
71
1
72
2
73
3
0
VERTEX
8
OBJECT__26
10
0
20
0
30
0
70
128
71
4
72
5
73
6
0
VERTEX
8
OBJECT__26
10
0
20
0
30
0
70
128
71
3
72
2
73
4
0
VERTEX
8
OBJECT__26
10
0
20
0
30
0
70
128
71
6
72
3
73
4
0
VERTEX
8
OBJECT__26
10
0
20
0
30
0
70
128
71
7
72
8
73
9
0
VERTEX
8
OBJECT__26
10
0
20
0
30
0
70
128
71
9
72
8
73
2
0
VERTEX
8
OBJECT__26
10
0
20
0
30
0
70
128
71
2
72
10
73
9
0
VERTEX
8
OBJECT__26
10
0
20
0
30
0
70
128
71
2
72
1
73
10
0
VERTEX
8
OBJECT__26
10
0
20
0
30
0
70
128
71
11
72
12
73
13
0
VERTEX
8
OBJECT__26
10
0
20
0
30
0
70
128
71
13
72
14
73
11
0
VERTEX
8
OBJECT__26
10
0
20
0
30
0
70
128
71
13
72
12
73
7
0
VERTEX
8
OBJECT__26
10
0
20
0
30
0
70
128
71
7
72
15
73
13
0
VERTEX
8
OBJECT__26
10
0
20
0
30
0
70
128
71
16
72
17
73
18
0
VERTEX
8
OBJECT__26
10
0
20
0
30
0
70
128
71
18
72
19
73
16
0
VERTEX
8
OBJECT__26
10
0
20
0
30
0
70
128
71
20
72
21
73
18
0
VERTEX
8
OBJECT__26
10
0
20
0
30
0
70
128
71
18
72
11
73
20
0
VERTEX
8
OBJECT__26
10
0
20
0
30
0
70
128
71
21
72
22
73
18
0
VERTEX
8
OBJECT__26
10
0
20
0
30
0
70
128
71
17
72
11
73
18
0
VERTEX
8
OBJECT__26
10
0
20
0
30
0
70
128
71
14
72
20
73
11
0
VERTEX
8
OBJECT__26
10
0
20
0
30
0
70
128
71
9
72
15
73
7
0
VERTEX
8
OBJECT__26
10
0
20
0
30
0
70
128
71
3
72
23
73
1
0
SEQEND
8
OBJECT__26
0
POLYLINE
8
OBJECT__27
66
1
70
64
71
29
72
27
62
253
0
VERTEX
8
OBJECT__27
10
45.730000
20
1.235000
30
24.339001
70
192
0
VERTEX
8
OBJECT__27
10
46.261002
20
2.494000
30
23.978001
70
192
0
VERTEX
8
OBJECT__27
10
34.575001
20
5.001000
30
22.348000
70
192
0
VERTEX
8
OBJECT__27
10
33.180000
20
4.802000
30
22.542999
70
192
0
VERTEX
8
OBJECT__27
10
31.961000
20
4.263000
30
23.002001
70
192
0
VERTEX
8
OBJECT__27
10
46.311001
20
2.613000
30
23.944000
70
192
0
VERTEX
8
OBJECT__27
10
45.613998
20
-0.001000
30
24.422001
70
192
0
VERTEX
8
OBJECT__27
10
30.320999
20
2.457000
30
23.947001
70
192
0
VERTEX
8
OBJECT__27
10
29.854000
20
1.648000
30
24.252001
70
192
0
VERTEX
8
OBJECT__27
10
29.582001
20
0.273000
30
24.444000
70
192
0
VERTEX
8
OBJECT__27
10
30.785999
20
3.263000
30
23.643000
70
192
0
VERTEX
8
OBJECT__27
10
29.606001
20
0.002000
30
24.427000
70
192
0
VERTEX
8
OBJECT__27
10
47.424999
20
3.884000
30
23.273001
70
192
0
VERTEX
8
OBJECT__27
10
48.868999
20
4.701000
30
22.636000
70
192
0
VERTEX
8
OBJECT__27
10
29.705999
20
-1.136000
30
24.356001
70
192
0
VERTEX
8
OBJECT__27
10
45.584999
20
-0.310000
30
24.441999
70
192
0
VERTEX
8
OBJECT__27
10
33.720001
20
-4.926000
30
22.422001
70
192
0
VERTEX
8
OBJECT__27
10
34.575001
20
-4.999000
30
22.348000
70
192
0
VERTEX
8
OBJECT__27
10
31.047001
20
-3.542000
30
23.486000
70
192
0
VERTEX
8
OBJECT__27
10
32.425999
20
-4.514000
30
22.799000
70
192
0
VERTEX
8
OBJECT__27
10
30.257999
20
-2.489000
30
23.981001
70
192
0
VERTEX
8
OBJECT__27
10
30.184000
20
-2.391000
30
24.028000
70
192
0
VERTEX
8
OBJECT__27
10
46.480000
20
-2.868000
30
23.834000
70
192
0
VERTEX
8
OBJECT__27
10
46.280998
20
-2.481000
30
23.966999
70
192
0
VERTEX
8
OBJECT__27
10
47.534000
20
-3.968000
30
23.215000
70
192
0
VERTEX
8
OBJECT__27
10
45.858002
20
-1.658000
30
24.250000
70
192
0
VERTEX
8
OBJECT__27
10
49.141998
20
-4.790000
30
22.552999
70
192
0
VERTEX
8
OBJECT__27
10
50.575001
20
-4.999000
30
22.348000
70
192
0
VERTEX
8
OBJECT__27
10
50.575001
20
5.001000
30
22.348000
70
192
0
VERTEX
8
OBJECT__27
10
0
20
0
30
0
70
128
71
1
72
2
73
3
0
VERTEX
8
OBJECT__27
10
0
20
0
30
0
70
128
71
3
72
4
73
1
0
VERTEX
8
OBJECT__27
10
0
20
0
30
0
70
128
71
4
72
5
73
1
0
VERTEX
8
OBJECT__27
10
0
20
0
30
0
70
128
71
2
72
6
73
3
0
VERTEX
8
OBJECT__27
10
0
20
0
30
0
70
128
71
7
72
8
73
9
0
VERTEX
8
OBJECT__27
10
0
20
0
30
0
70
128
71
9
72
10
73
7
0
VERTEX
8
OBJECT__27
10
0
20
0
30
0
70
128
71
7
72
1
73
5
0
VERTEX
8
OBJECT__27
10
0
20
0
30
0
70
128
71
5
72
11
73
7
0
VERTEX
8
OBJECT__27
10
0
20
0
30
0
70
128
71
11
72
8
73
7
0
VERTEX
8
OBJECT__27
10
0
20
0
30
0
70
128
71
10
72
12
73
7
0
VERTEX
8
OBJECT__27
10
0
20
0
30
0
70
128
71
6
72
13
73
3
0
VERTEX
8
OBJECT__27
10
0
20
0
30
0
70
128
71
13
72
14
73
3
0
VERTEX
8
OBJECT__27
10
0
20
0
30
0
70
128
71
12
72
15
73
16
0
VERTEX
8
OBJECT__27
10
0
20
0
30
0
70
128
71
16
72
17
73
18
0
VERTEX
8
OBJECT__27
10
0
20
0
30
0
70
128
71
16
72
19
73
20
0
VERTEX
8
OBJECT__27
10
0
20
0
30
0
70
128
71
20
72
17
73
16
0
VERTEX
8
OBJECT__27
10
0
20
0
30
0
70
128
71
16
72
21
73
19
0
VERTEX
8
OBJECT__27
10
0
20
0
30
0
70
128
71
16
72
15
73
22
0
VERTEX
8
OBJECT__27
10
0
20
0
30
0
70
128
71
22
72
21
73
16
0
VERTEX
8
OBJECT__27
10
0
20
0
30
0
70
128
71
18
72
23
73
24
0
VERTEX
8
OBJECT__27
10
0
20
0
30
0
70
128
71
18
72
25
73
23
0
VERTEX
8
OBJECT__27
10
0
20
0
30
0
70
128
71
24
72
26
73
18
0
VERTEX
8
OBJECT__27
10
0
20
0
30
0
70
128
71
18
72
27
73
25
0
VERTEX
8
OBJECT__27
10
0
20
0
30
0
70
128
71
18
72
26
73
16
0
VERTEX
8
OBJECT__27
10
0
20
0
30
0
70
128
71
18
72
28
73
27
0
VERTEX
8
OBJECT__27
10
0
20
0
30
0
70
128
71
16
72
7
73
12
0
VERTEX
8
OBJECT__27
10
0
20
0
30
0
70
128
71
14
72
29
73
3
0
SEQEND
8
OBJECT__27
0
POLYLINE
8
OBJECT__28
66
1
70
64
71
6
72
4
62
253
0
VERTEX
8
OBJECT__28
10
34.575001
20
5.001000
30
14.049000
70
192
0
VERTEX
8
OBJECT__28
10
50.575001
20
5.001000
30
21.985001
70
192
0
VERTEX
8
OBJECT__28
10
54.348000
20
5.001000
30
15.451000
70
192
0
VERTEX
8
OBJECT__28
10
34.575001
20
5.001000
30
22.348000
70
192
0
VERTEX
8
OBJECT__28
10
50.575001
20
5.001000
30
22.348000
70
192
0
VERTEX
8
OBJECT__28
10
54.348000
20
5.001000
30
14.049000
70
192
0
VERTEX
8
OBJECT__28
10
0
20
0
30
0
70
128
71
1
72
2
73
3
0
VERTEX
8
OBJECT__28
10
0
20
0
30
0
70
128
71
4
72
5
73
2
0
VERTEX
8
OBJECT__28
10
0
20
0
30
0
70
128
71
2
72
1
73
4
0
VERTEX
8
OBJECT__28
10
0
20
0
30
0
70
128
71
3
72
6
73
1
0
SEQEND
8
OBJECT__28
0
POLYLINE
8
OBJECT__29
66
1
70
64
71
6
72
4
62
253
0
VERTEX
8
OBJECT__29
10
34.575001
20
-4.999000
30
22.348000
70
192
0
VERTEX
8
OBJECT__29
10
34.575001
20
-4.999000
30
14.049000
70
192
0
VERTEX
8
OBJECT__29
10
50.575001
20
-4.999000
30
21.985001
70
192
0
VERTEX
8
OBJECT__29
10
54.348000
20
-4.999000
30
14.049000
70
192
0
VERTEX
8
OBJECT__29
10
54.348000
20
-4.999000
30
15.451000
70
192
0
VERTEX
8
OBJECT__29
10
50.575001
20
-4.999000
30
22.348000
70
192
0
VERTEX
8
OBJECT__29
10
0
20
0
30
0
70
128
71
1
72
2
73
3
0
VERTEX
8
OBJECT__29
10
0
20
0
30
0
70
128
71
2
72
4
73
5
0
VERTEX
8
OBJECT__29
10
0
20
0
30
0
70
128
71
5
72
3
73
2
0
VERTEX
8
OBJECT__29
10
0
20
0
30
0
70
128
71
3
72
6
73
1
0
SEQEND
8
OBJECT__29
0
POLYLINE
8
OBJECT__30
66
1
70
64
71
19
72
17
62
253
0
VERTEX
8
OBJECT__30
10
30.245001
20
-2.499000
30
14.049000
70
192
0
VERTEX
8
OBJECT__30
10
32.425999
20
-4.514000
30
22.799000
70
192
0
VERTEX
8
OBJECT__30
10
31.047001
20
-3.542000
30
23.486000
70
192
0
VERTEX
8
OBJECT__30
10
34.575001
20
-4.999000
30
14.049000
70
192
0
VERTEX
8
OBJECT__30
10
33.720001
20
-4.926000
30
22.422001
70
192
0
VERTEX
8
OBJECT__30
10
34.575001
20
-4.999000
30
22.348000
70
192
0
VERTEX
8
OBJECT__30
10
30.245001
20
2.501000
30
14.049000
70
192
0
VERTEX
8
OBJECT__30
10
29.582001
20
0.273000
30
24.444000
70
192
0
VERTEX
8
OBJECT__30
10
29.854000
20
1.648000
30
24.252001
70
192
0
VERTEX
8
OBJECT__30
10
29.606001
20
0.002000
30
24.427000
70
192
0
VERTEX
8
OBJECT__30
10
30.184000
20
-2.391000
30
24.028000
70
192
0
VERTEX
8
OBJECT__30
10
29.705999
20
-1.136000
30
24.356001
70
192
0
VERTEX
8
OBJECT__30
10
30.257999
20
-2.489000
30
23.981001
70
192
0
VERTEX
8
OBJECT__30
10
34.575001
20
5.001000
30
14.049000
70
192
0
VERTEX
8
OBJECT__30
10
33.180000
20
4.802000
30
22.542999
70
192
0
VERTEX
8
OBJECT__30
10
30.320999
20
2.457000
30
23.947001
70
192
0
VERTEX
8
OBJECT__30
10
30.785999
20
3.263000
30
23.643000
70
192
0
VERTEX
8
OBJECT__30
10
31.961000
20
4.263000
30
23.002001
70
192
0
VERTEX
8
OBJECT__30
10
34.575001
20
5.001000
30
22.348000
70
192
0
VERTEX
8
OBJECT__30
10
0
20
0
30
0
70
128
71
1
72
2
73
3
0
VERTEX
8
OBJECT__30
10
0
20
0
30
0
70
128
71
1
72
4
73
5
0
VERTEX
8
OBJECT__30
10
0
20
0
30
0
70
128
71
5
72
2
73
1
0
VERTEX
8
OBJECT__30
10
0
20
0
30
0
70
128
71
4
72
6
73
5
0
VERTEX
8
OBJECT__30
10
0
20
0
30
0
70
128
71
7
72
8
73
9
0
VERTEX
8
OBJECT__30
10
0
20
0
30
0
70
128
71
7
72
10
73
8
0
VERTEX
8
OBJECT__30
10
0
20
0
30
0
70
128
71
7
72
11
73
12
0
VERTEX
8
OBJECT__30
10
0
20
0
30
0
70
128
71
7
72
1
73
13
0
VERTEX
8
OBJECT__30
10
0
20
0
30
0
70
128
71
13
72
11
73
7
0
VERTEX
8
OBJECT__30
10
0
20
0
30
0
70
128
71
12
72
10
73
7
0
VERTEX
8
OBJECT__30
10
0
20
0
30
0
70
128
71
14
72
7
73
15
0
VERTEX
8
OBJECT__30
10
0
20
0
30
0
70
128
71
7
72
16
73
17
0
VERTEX
8
OBJECT__30
10
0
20
0
30
0
70
128
71
17
72
18
73
7
0
VERTEX
8
OBJECT__30
10
0
20
0
30
0
70
128
71
18
72
15
73
7
0
VERTEX
8
OBJECT__30
10
0
20
0
30
0
70
128
71
15
72
19
73
14
0
VERTEX
8
OBJECT__30
10
0
20
0
30
0
70
128
71
9
72
16
73
7
0
VERTEX
8
OBJECT__30
10
0
20
0
30
0
70
128
71
3
72
13
73
1
0
SEQEND
8
OBJECT__30
0
POLYLINE
8
OBJECT__31
66
1
70
64
71
26
72
26
62
253
0
VERTEX
8
OBJECT__31
10
51.172001
20
1.270000
30
110.043999
70
192
0
VERTEX
8
OBJECT__31
10
46.576000
20
2.474000
30
109.688004
70
192
0
VERTEX
8
OBJECT__31
10
45.826000
20
0.117000
30
110.149002
70
192
0
VERTEX
8
OBJECT__31
10
45.841000
20
0.017000
30
110.139999
70
192
0
VERTEX
8
OBJECT__31
10
55.769001
20
0.017000
30
110.113998
70
192
0
VERTEX
8
OBJECT__31
10
47.722000
20
3.921000
30
109.077003
70
192
0
VERTEX
8
OBJECT__31
10
46.676998
20
2.792000
30
109.625999
70
192
0
VERTEX
8
OBJECT__31
10
50.813999
20
4.949000
30
108.346001
70
192
0
VERTEX
8
OBJECT__31
10
50.605000
20
4.995000
30
108.309998
70
192
0
VERTEX
8
OBJECT__31
10
49.290001
20
4.759000
30
108.503998
70
192
0
VERTEX
8
OBJECT__31
10
54.331001
20
3.565000
30
109.275002
70
192
0
VERTEX
8
OBJECT__31
10
53.137001
20
4.434000
30
108.746002
70
192
0
VERTEX
8
OBJECT__31
10
55.106998
20
2.466000
30
109.712997
70
192
0
VERTEX
8
OBJECT__31
10
55.776001
20
0.699000
30
110.117996
70
192
0
VERTEX
8
OBJECT__31
10
55.356998
20
2.113000
30
109.853996
70
192
0
VERTEX
8
OBJECT__31
10
50.414001
20
-1.235000
30
110.050003
70
192
0
VERTEX
8
OBJECT__31
10
54.987000
20
-2.419000
30
109.650002
70
192
0
VERTEX
8
OBJECT__31
10
55.759998
20
-0.803000
30
110.108002
70
192
0
VERTEX
8
OBJECT__31
10
53.263000
20
-4.365000
30
108.792999
70
192
0
VERTEX
8
OBJECT__31
10
54.549000
20
-3.336000
30
109.389999
70
192
0
VERTEX
8
OBJECT__31
10
51.872002
20
-4.889000
30
108.399002
70
192
0
VERTEX
8
OBJECT__31
10
46.942001
20
-3.149000
30
109.475998
70
192
0
VERTEX
8
OBJECT__31
10
49.382000
20
-4.787000
30
108.481003
70
192
0
VERTEX
8
OBJECT__31
10
46.567001
20
-2.461000
30
109.697998
70
192
0
VERTEX
8
OBJECT__31
10
50.825001
20
-5.000000
30
108.306000
70
192
0
VERTEX
8
OBJECT__31
10
46.070000
20
-1.547000
30
109.992996
70
192
0
VERTEX
8
OBJECT__31
10
0
20
0
30
0
70
128
71
1
72
2
73
3
0
VERTEX
8
OBJECT__31
10
0
20
0
30
0
70
128
71
4
72
5
73
1
0
VERTEX
8
OBJECT__31
10
0
20
0
30
0
70
128
71
1
72
6
73
7
0
VERTEX
8
OBJECT__31
10
0
20
0
30
0
70
128
71
1
72
8
73
9
0
VERTEX
8
OBJECT__31
10
0
20
0
30
0
70
128
71
9
72
10
73
1
0
VERTEX
8
OBJECT__31
10
0
20
0
30
0
70
128
71
10
72
6
73
1
0
VERTEX
8
OBJECT__31
10
0
20
0
30
0
70
128
71
1
72
11
73
12
0
VERTEX
8
OBJECT__31
10
0
20
0
30
0
70
128
71
1
72
13
73
11
0
VERTEX
8
OBJECT__31
10
0
20
0
30
0
70
128
71
1
72
14
73
15
0
VERTEX
8
OBJECT__31
10
0
20
0
30
0
70
128
71
1
72
5
73
14
0
VERTEX
8
OBJECT__31
10
0
20
0
30
0
70
128
71
15
72
13
73
1
0
VERTEX
8
OBJECT__31
10
0
20
0
30
0
70
128
71
12
72
8
73
1
0
VERTEX
8
OBJECT__31
10
0
20
0
30
0
70
128
71
7
72
2
73
1
0
VERTEX
8
OBJECT__31
10
0
20
0
30
0
70
128
71
16
72
17
73
18
0
VERTEX
8
OBJECT__31
10
0
20
0
30
0
70
128
71
5
72
4
73
16
0
VERTEX
8
OBJECT__31
10
0
20
0
30
0
70
128
71
16
72
19
73
20
0
VERTEX
8
OBJECT__31
10
0
20
0
30
0
70
128
71
16
72
21
73
19
0
VERTEX
8
OBJECT__31
10
0
20
0
30
0
70
128
71
16
72
22
73
23
0
VERTEX
8
OBJECT__31
10
0
20
0
30
0
70
128
71
16
72
24
73
22
0
VERTEX
8
OBJECT__31
10
0
20
0
30
0
70
128
71
23
72
25
73
16
0
VERTEX
8
OBJECT__31
10
0
20
0
30
0
70
128
71
25
72
21
73
16
0
VERTEX
8
OBJECT__31
10
0
20
0
30
0
70
128
71
16
72
4
73
26
0
VERTEX
8
OBJECT__31
10
0
20
0
30
0
70
128
71
26
72
24
73
16
0
VERTEX
8
OBJECT__31
10
0
20
0
30
0
70
128
71
20
72
17
73
16
0
VERTEX
8
OBJECT__31
10
0
20
0
30
0
70
128
71
18
72
5
73
16
0
VERTEX
8
OBJECT__31
10
0
20
0
30
0
70
128
71
3
72
4
73
1
0
SEQEND
8
OBJECT__31
0
POLYLINE
8
OBJECT__32
66
1
70
64
71
48
72
48
62
253
0
VERTEX
8
OBJECT__32
10
46.942001
20
-3.149000
30
109.475998
70
192
0
VERTEX
8
OBJECT__32
10
46.730000
20
-2.869000
30
108.834999
70
192
0
VERTEX
8
OBJECT__32
10
47.784000
20
-3.969000
30
108.216003
70
192
0
VERTEX
8
OBJECT__32
10
49.382000
20
-4.787000
30
108.481003
70
192
0
VERTEX
8
OBJECT__32
10
46.567001
20
-2.461000
30
109.697998
70
192
0
VERTEX
8
OBJECT__32
10
46.530998
20
-2.481000
30
108.968002
70
192
0
VERTEX
8
OBJECT__32
10
50.825001
20
-5.000000
30
108.306000
70
192
0
VERTEX
8
OBJECT__32
10
49.391998
20
-4.790000
30
107.554001
70
192
0
VERTEX
8
OBJECT__32
10
50.825001
20
-5.000000
30
107.348999
70
192
0
VERTEX
8
OBJECT__32
10
46.070000
20
-1.547000
30
109.992996
70
192
0
VERTEX
8
OBJECT__32
10
46.108002
20
-1.658000
30
109.250999
70
192
0
VERTEX
8
OBJECT__32
10
45.841000
20
0.017000
30
110.139999
70
192
0
VERTEX
8
OBJECT__32
10
45.834999
20
-0.310000
30
109.443001
70
192
0
VERTEX
8
OBJECT__32
10
45.826000
20
0.117000
30
110.149002
70
192
0
VERTEX
8
OBJECT__32
10
46.576000
20
2.474000
30
109.688004
70
192
0
VERTEX
8
OBJECT__32
10
45.980000
20
1.234000
30
109.339996
70
192
0
VERTEX
8
OBJECT__32
10
45.863998
20
-0.002000
30
109.422997
70
192
0
VERTEX
8
OBJECT__32
10
46.511002
20
2.493000
30
108.978996
70
192
0
VERTEX
8
OBJECT__32
10
49.118999
20
4.700000
30
107.637001
70
192
0
VERTEX
8
OBJECT__32
10
49.290001
20
4.759000
30
108.503998
70
192
0
VERTEX
8
OBJECT__32
10
50.605000
20
4.995000
30
108.309998
70
192
0
VERTEX
8
OBJECT__32
10
46.676998
20
2.792000
30
109.625999
70
192
0
VERTEX
8
OBJECT__32
10
46.561001
20
2.612000
30
108.944000
70
192
0
VERTEX
8
OBJECT__32
10
47.674999
20
3.883000
30
108.274002
70
192
0
VERTEX
8
OBJECT__32
10
47.722000
20
3.921000
30
109.077003
70
192
0
VERTEX
8
OBJECT__32
10
50.825001
20
5.000000
30
107.348999
70
192
0
VERTEX
8
OBJECT__32
10
53.186001
20
3.749000
30
107.617996
70
192
0
VERTEX
8
OBJECT__32
10
53.137001
20
4.434000
30
108.746002
70
192
0
VERTEX
8
OBJECT__32
10
54.331001
20
3.565000
30
109.275002
70
192
0
VERTEX
8
OBJECT__32
10
54.963001
20
2.807000
30
108.094002
70
192
0
VERTEX
8
OBJECT__32
10
50.813999
20
4.949000
30
108.346001
70
192
0
VERTEX
8
OBJECT__32
10
50.825001
20
5.000000
30
106.986000
70
192
0
VERTEX
8
OBJECT__32
10
55.106998
20
2.466000
30
109.712997
70
192
0
VERTEX
8
OBJECT__32
10
54.998001
20
2.483000
30
108.103996
70
192
0
VERTEX
8
OBJECT__32
10
55.759998
20
-0.803000
30
110.108002
70
192
0
VERTEX
8
OBJECT__32
10
54.987000
20
-2.419000
30
109.650002
70
192
0
VERTEX
8
OBJECT__32
10
55.471001
20
-1.848000
30
108.231003
70
192
0
VERTEX
8
OBJECT__32
10
55.276001
20
-0.060000
30
108.178001
70
192
0
VERTEX
8
OBJECT__32
10
55.769001
20
0.017000
30
110.113998
70
192
0
VERTEX
8
OBJECT__32
10
55.356998
20
2.113000
30
109.853996
70
192
0
VERTEX
8
OBJECT__32
10
55.776001
20
0.699000
30
110.117996
70
192
0
VERTEX
8
OBJECT__32
10
54.965000
20
-2.278000
30
108.095001
70
192
0
VERTEX
8
OBJECT__32
10
51.904999
20
-4.882000
30
107.275002
70
192
0
VERTEX
8
OBJECT__32
10
51.872002
20
-4.889000
30
108.399002
70
192
0
VERTEX
8
OBJECT__32
10
53.115002
20
-3.852000
30
107.598999
70
192
0
VERTEX
8
OBJECT__32
10
53.263000
20
-4.365000
30
108.792999
70
192
0
VERTEX
8
OBJECT__32
10
54.549000
20
-3.336000
30
109.389999
70
192
0
VERTEX
8
OBJECT__32
10
50.825001
20
-5.000000
30
106.986000
70
192
0
VERTEX
8
OBJECT__32
10
0
20
0
30
0
70
128
71
1
72
2
73
3
0
VERTEX
8
OBJECT__32
10
0
20
0
30
0
70
128
71
3
72
4
73
1
0
VERTEX
8
OBJECT__32
10
0
20
0
30
0
70
128
71
1
72
5
73
6
0
VERTEX
8
OBJECT__32
10
0
20
0
30
0
70
128
71
6
72
2
73
1
0
VERTEX
8
OBJECT__32
10
0
20
0
30
0
70
128
71
7
72
4
73
8
0
VERTEX
8
OBJECT__32
10
0
20
0
30
0
70
128
71
8
72
9
73
7
0
VERTEX
8
OBJECT__32
10
0
20
0
30
0
70
128
71
5
72
10
73
11
0
VERTEX
8
OBJECT__32
10
0
20
0
30
0
70
128
71
10
72
12
73
13
0
VERTEX
8
OBJECT__32
10
0
20
0
30
0
70
128
71
13
72
11
73
10
0
VERTEX
8
OBJECT__32
10
0
20
0
30
0
70
128
71
14
72
15
73
16
0
VERTEX
8
OBJECT__32
10
0
20
0
30
0
70
128
71
17
72
12
73
14
0
VERTEX
8
OBJECT__32
10
0
20
0
30
0
70
128
71
16
72
17
73
14
0
VERTEX
8
OBJECT__32
10
0
20
0
30
0
70
128
71
17
72
13
73
12
0
VERTEX
8
OBJECT__32
10
0
20
0
30
0
70
128
71
15
72
18
73
16
0
VERTEX
8
OBJECT__32
10
0
20
0
30
0
70
128
71
19
72
20
73
21
0
VERTEX
8
OBJECT__32
10
0
20
0
30
0
70
128
71
22
72
23
73
18
0
VERTEX
8
OBJECT__32
10
0
20
0
30
0
70
128
71
20
72
19
73
24
0
VERTEX
8
OBJECT__32
10
0
20
0
30
0
70
128
71
23
72
22
73
25
0
VERTEX
8
OBJECT__32
10
0
20
0
30
0
70
128
71
25
72
24
73
23
0
VERTEX
8
OBJECT__32
10
0
20
0
30
0
70
128
71
24
72
25
73
20
0
VERTEX
8
OBJECT__32
10
0
20
0
30
0
70
128
71
18
72
15
73
22
0
VERTEX
8
OBJECT__32
10
0
20
0
30
0
70
128
71
21
72
26
73
19
0
VERTEX
8
OBJECT__32
10
0
20
0
30
0
70
128
71
27
72
28
73
29
0
VERTEX
8
OBJECT__32
10
0
20
0
30
0
70
128
71
29
72
30
73
27
0
VERTEX
8
OBJECT__32
10
0
20
0
30
0
70
128
71
27
72
26
73
31
0
VERTEX
8
OBJECT__32
10
0
20
0
30
0
70
128
71
27
72
32
73
26
0
VERTEX
8
OBJECT__32
10
0
20
0
30
0
70
128
71
31
72
28
73
27
0
VERTEX
8
OBJECT__32
10
0
20
0
30
0
70
128
71
33
72
34
73
30
0
VERTEX
8
OBJECT__32
10
0
20
0
30
0
70
128
71
35
72
36
73
37
0
VERTEX
8
OBJECT__32
10
0
20
0
30
0
70
128
71
38
72
39
73
35
0
VERTEX
8
OBJECT__32
10
0
20
0
30
0
70
128
71
38
72
34
73
40
0
VERTEX
8
OBJECT__32
10
0
20
0
30
0
70
128
71
40
72
41
73
38
0
VERTEX
8
OBJECT__32
10
0
20
0
30
0
70
128
71
34
72
33
73
40
0
VERTEX
8
OBJECT__32
10
0
20
0
30
0
70
128
71
41
72
39
73
38
0
VERTEX
8
OBJECT__32
10
0
20
0
30
0
70
128
71
36
72
42
73
37
0
VERTEX
8
OBJECT__32
10
0
20
0
30
0
70
128
71
43
72
44
73
7
0
VERTEX
8
OBJECT__32
10
0
20
0
30
0
70
128
71
7
72
9
73
43
0
VERTEX
8
OBJECT__32
10
0
20
0
30
0
70
128
71
45
72
46
73
44
0
VERTEX
8
OBJECT__32
10
0
20
0
30
0
70
128
71
45
72
42
73
47
0
VERTEX
8
OBJECT__32
10
0
20
0
30
0
70
128
71
42
72
36
73
47
0
VERTEX
8
OBJECT__32
10
0
20
0
30
0
70
128
71
47
72
46
73
45
0
VERTEX
8
OBJECT__32
10
0
20
0
30
0
70
128
71
44
72
43
73
45
0
VERTEX
8
OBJECT__32
10
0
20
0
30
0
70
128
71
9
72
48
73
43
0
VERTEX
8
OBJECT__32
10
0
20
0
30
0
70
128
71
37
72
38
73
35
0
VERTEX
8
OBJECT__32
10
0
20
0
30
0
70
128
71
29
72
33
73
30
0
VERTEX
8
OBJECT__32
10
0
20
0
30
0
70
128
71
21
72
31
73
26
0
VERTEX
8
OBJECT__32
10
0
20
0
30
0
70
128
71
11
72
6
73
5
0
VERTEX
8
OBJECT__32
10
0
20
0
30
0
70
128
71
3
72
8
73
4
0
SEQEND
8
OBJECT__32
0
POLYLINE
8
OBJECT__34
66
1
70
64
71
23
72
21
62
253
0
VERTEX
8
OBJECT__34
10
53.186001
20
3.749000
30
107.617996
70
192
0
VERTEX
8
OBJECT__34
10
58.265999
20
3.859000
30
99.050003
70
192
0
VERTEX
8
OBJECT__34
10
54.598000
20
5.000000
30
100.452003
70
192
0
VERTEX
8
OBJECT__34
10
54.792000
20
4.972000
30
99.050003
70
192
0
VERTEX
8
OBJECT__34
10
52.951000
20
4.525000
30
99.050003
70
192
0
VERTEX
8
OBJECT__34
10
52.847000
20
4.573000
30
99.441002
70
192
0
VERTEX
8
OBJECT__34
10
60.841000
20
-0.088000
30
99.050003
70
192
0
VERTEX
8
OBJECT__34
10
59.609001
20
3.429000
30
99.050003
70
192
0
VERTEX
8
OBJECT__34
10
54.998001
20
2.483000
30
108.103996
70
192
0
VERTEX
8
OBJECT__34
10
54.963001
20
2.807000
30
108.094002
70
192
0
VERTEX
8
OBJECT__34
10
58.306999
20
-4.165000
30
99.050003
70
192
0
VERTEX
8
OBJECT__34
10
61.101002
20
-0.827000
30
99.050003
70
192
0
VERTEX
8
OBJECT__34
10
55.471001
20
-1.848000
30
108.231003
70
192
0
VERTEX
8
OBJECT__34
10
54.965000
20
-2.278000
30
108.095001
70
192
0
VERTEX
8
OBJECT__34
10
55.276001
20
-0.060000
30
108.178001
70
192
0
VERTEX
8
OBJECT__34
10
52.951000
20
-4.525000
30
99.050003
70
192
0
VERTEX
8
OBJECT__34
10
58.085999
20
-4.429000
30
99.050003
70
192
0
VERTEX
8
OBJECT__34
10
54.598000
20
-5.000000
30
100.452003
70
192
0
VERTEX
8
OBJECT__34
10
52.847000
20
-4.573000
30
99.441002
70
192
0
VERTEX
8
OBJECT__34
10
53.115002
20
-3.852000
30
107.598999
70
192
0
VERTEX
8
OBJECT__34
10
51.904999
20
-4.882000
30
107.275002
70
192
0
VERTEX
8
OBJECT__34
10
50.825001
20
-5.000000
30
106.986000
70
192
0
VERTEX
8
OBJECT__34
10
50.825001
20
5.000000
30
106.986000
70
192
0
VERTEX
8
OBJECT__34
10
0
20
0
30
0
70
128
71
1
72
2
73
3
0
VERTEX
8
OBJECT__34
10
0
20
0
30
0
70
128
71
4
72
5
73
6
0
VERTEX
8
OBJECT__34
10
0
20
0
30
0
70
128
71
3
72
2
73
4
0
VERTEX
8
OBJECT__34
10
0
20
0
30
0
70
128
71
6
72
3
73
4
0
VERTEX
8
OBJECT__34
10
0
20
0
30
0
70
128
71
7
72
8
73
9
0
VERTEX
8
OBJECT__34
10
0
20
0
30
0
70
128
71
9
72
8
73
2
0
VERTEX
8
OBJECT__34
10
0
20
0
30
0
70
128
71
2
72
10
73
9
0
VERTEX
8
OBJECT__34
10
0
20
0
30
0
70
128
71
2
72
1
73
10
0
VERTEX
8
OBJECT__34
10
0
20
0
30
0
70
128
71
11
72
12
73
13
0
VERTEX
8
OBJECT__34
10
0
20
0
30
0
70
128
71
13
72
14
73
11
0
VERTEX
8
OBJECT__34
10
0
20
0
30
0
70
128
71
13
72
12
73
7
0
VERTEX
8
OBJECT__34
10
0
20
0
30
0
70
128
71
7
72
15
73
13
0
VERTEX
8
OBJECT__34
10
0
20
0
30
0
70
128
71
16
72
17
73
18
0
VERTEX
8
OBJECT__34
10
0
20
0
30
0
70
128
71
18
72
19
73
16
0
VERTEX
8
OBJECT__34
10
0
20
0
30
0
70
128
71
20
72
21
73
18
0
VERTEX
8
OBJECT__34
10
0
20
0
30
0
70
128
71
18
72
11
73
20
0
VERTEX
8
OBJECT__34
10
0
20
0
30
0
70
128
71
21
72
22
73
18
0
VERTEX
8
OBJECT__34
10
0
20
0
30
0
70
128
71
17
72
11
73
18
0
VERTEX
8
OBJECT__34
10
0
20
0
30
0
70
128
71
14
72
20
73
11
0
VERTEX
8
OBJECT__34
10
0
20
0
30
0
70
128
71
9
72
15
73
7
0
VERTEX
8
OBJECT__34
10
0
20
0
30
0
70
128
71
3
72
23
73
1
0
SEQEND
8
OBJECT__34
0
POLYLINE
8
OBJECT__35
66
1
70
64
71
29
72
27
62
253
0
VERTEX
8
OBJECT__35
10
45.980000
20
1.234000
30
109.339996
70
192
0
VERTEX
8
OBJECT__35
10
46.511002
20
2.493000
30
108.978996
70
192
0
VERTEX
8
OBJECT__35
10
34.825001
20
5.000000
30
107.348999
70
192
0
VERTEX
8
OBJECT__35
10
33.430000
20
4.802000
30
107.543999
70
192
0
VERTEX
8
OBJECT__35
10
32.210999
20
4.262000
30
108.002998
70
192
0
VERTEX
8
OBJECT__35
10
46.561001
20
2.612000
30
108.944000
70
192
0
VERTEX
8
OBJECT__35
10
45.863998
20
-0.002000
30
109.422997
70
192
0
VERTEX
8
OBJECT__35
10
30.570999
20
2.456000
30
108.947998
70
192
0
VERTEX
8
OBJECT__35
10
30.104000
20
1.648000
30
109.252998
70
192
0
VERTEX
8
OBJECT__35
10
29.832001
20
0.272000
30
109.445000
70
192
0
VERTEX
8
OBJECT__35
10
31.035999
20
3.262000
30
108.642998
70
192
0
VERTEX
8
OBJECT__35
10
29.856001
20
0.001000
30
109.428001
70
192
0
VERTEX
8
OBJECT__35
10
47.674999
20
3.883000
30
108.274002
70
192
0
VERTEX
8
OBJECT__35
10
49.118999
20
4.700000
30
107.637001
70
192
0
VERTEX
8
OBJECT__35
10
29.955999
20
-1.137000
30
109.357002
70
192
0
VERTEX
8
OBJECT__35
10
45.834999
20
-0.310000
30
109.443001
70
192
0
VERTEX
8
OBJECT__35
10
33.970001
20
-4.926000
30
107.422997
70
192
0
VERTEX
8
OBJECT__35
10
34.825001
20
-5.000000
30
107.348999
70
192
0
VERTEX
8
OBJECT__35
10
31.297001
20
-3.543000
30
108.487000
70
192
0
VERTEX
8
OBJECT__35
10
32.675999
20
-4.514000
30
107.800003
70
192
0
VERTEX
8
OBJECT__35
10
30.507999
20
-2.490000
30
108.982002
70
192
0
VERTEX
8
OBJECT__35
10
30.434000
20
-2.392000
30
109.028999
70
192
0
VERTEX
8
OBJECT__35
10
46.730000
20
-2.869000
30
108.834999
70
192
0
VERTEX
8
OBJECT__35
10
46.530998
20
-2.481000
30
108.968002
70
192
0
VERTEX
8
OBJECT__35
10
47.784000
20
-3.969000
30
108.216003
70
192
0
VERTEX
8
OBJECT__35
10
46.108002
20
-1.658000
30
109.250999
70
192
0
VERTEX
8
OBJECT__35
10
49.391998
20
-4.790000
30
107.554001
70
192
0
VERTEX
8
OBJECT__35
10
50.825001
20
-5.000000
30
107.348999
70
192
0
VERTEX
8
OBJECT__35
10
50.825001
20
5.000000
30
107.348999
70
192
0
VERTEX
8
OBJECT__35
10
0
20
0
30
0
70
128
71
1
72
2
73
3
0
VERTEX
8
OBJECT__35
10
0
20
0
30
0
70
128
71
3
72
4
73
1
0
VERTEX
8
OBJECT__35
10
0
20
0
30
0
70
128
71
4
72
5
73
1
0
VERTEX
8
OBJECT__35
10
0
20
0
30
0
70
128
71
2
72
6
73
3
0
VERTEX
8
OBJECT__35
10
0
20
0
30
0
70
128
71
7
72
8
73
9
0
VERTEX
8
OBJECT__35
10
0
20
0
30
0
70
128
71
9
72
10
73
7
0
VERTEX
8
OBJECT__35
10
0
20
0
30
0
70
128
71
7
72
1
73
5
0
VERTEX
8
OBJECT__35
10
0
20
0
30
0
70
128
71
5
72
11
73
7
0
VERTEX
8
OBJECT__35
10
0
20
0
30
0
70
128
71
11
72
8
73
7
0
VERTEX
8
OBJECT__35
10
0
20
0
30
0
70
128
71
10
72
12
73
7
0
VERTEX
8
OBJECT__35
10
0
20
0
30
0
70
128
71
6
72
13
73
3
0
VERTEX
8
OBJECT__35
10
0
20
0
30
0
70
128
71
13
72
14
73
3
0
VERTEX
8
OBJECT__35
10
0
20
0
30
0
70
128
71
12
72
15
73
16
0
VERTEX
8
OBJECT__35
10
0
20
0
30
0
70
128
71
16
72
17
73
18
0
VERTEX
8
OBJECT__35
10
0
20
0
30
0
70
128
71
16
72
19
73
20
0
VERTEX
8
OBJECT__35
10
0
20
0
30
0
70
128
71
20
72
17
73
16
0
VERTEX
8
OBJECT__35
10
0
20
0
30
0
70
128
71
16
72
21
73
19
0
VERTEX
8
OBJECT__35
10
0
20
0
30
0
70
128
71
16
72
15
73
22
0
VERTEX
8
OBJECT__35
10
0
20
0
30
0
70
128
71
22
72
21
73
16
0
VERTEX
8
OBJECT__35
10
0
20
0
30
0
70
128
71
18
72
23
73
24
0
VERTEX
8
OBJECT__35
10
0
20
0
30
0
70
128
71
18
72
25
73
23
0
VERTEX
8
OBJECT__35
10
0
20
0
30
0
70
128
71
24
72
26
73
18
0
VERTEX
8
OBJECT__35
10
0
20
0
30
0
70
128
71
18
72
27
73
25
0
VERTEX
8
OBJECT__35
10
0
20
0
30
0
70
128
71
18
72
26
73
16
0
VERTEX
8
OBJECT__35
10
0
20
0
30
0
70
128
71
18
72
28
73
27
0
VERTEX
8
OBJECT__35
10
0
20
0
30
0
70
128
71
16
72
7
73
12
0
VERTEX
8
OBJECT__35
10
0
20
0
30
0
70
128
71
14
72
29
73
3
0
SEQEND
8
OBJECT__35
0
POLYLINE
8
OBJECT__36
66
1
70
64
71
6
72
4
62
253
0
VERTEX
8
OBJECT__36
10
34.825001
20
5.000000
30
99.050003
70
192
0
VERTEX
8
OBJECT__36
10
50.825001
20
5.000000
30
106.986000
70
192
0
VERTEX
8
OBJECT__36
10
54.598000
20
5.000000
30
100.452003
70
192
0
VERTEX
8
OBJECT__36
10
34.825001
20
5.000000
30
107.348999
70
192
0
VERTEX
8
OBJECT__36
10
50.825001
20
5.000000
30
107.348999
70
192
0
VERTEX
8
OBJECT__36
10
54.598000
20
5.000000
30
99.050003
70
192
0
VERTEX
8
OBJECT__36
10
0
20
0
30
0
70
128
71
1
72
2
73
3
0
VERTEX
8
OBJECT__36
10
0
20
0
30
0
70
128
71
4
72
5
73
2
0
VERTEX
8
OBJECT__36
10
0
20
0
30
0
70
128
71
2
72
1
73
4
0
VERTEX
8
OBJECT__36
10
0
20
0
30
0
70
128
71
3
72
6
73
1
0
SEQEND
8
OBJECT__36
0
POLYLINE
8
OBJECT__37
66
1
70
64
71
6
72
4
62
253
0
VERTEX
8
OBJECT__37
10
34.825001
20
-5.000000
30
107.348999
70
192
0
VERTEX
8
OBJECT__37
10
34.825001
20
-5.000000
30
99.050003
70
192
0
VERTEX
8
OBJECT__37
10
50.825001
20
-5.000000
30
106.986000
70
192
0
VERTEX
8
OBJECT__37
10
54.598000
20
-5.000000
30
99.050003
70
192
0
VERTEX
8
OBJECT__37
10
54.598000
20
-5.000000
30
100.452003
70
192
0
VERTEX
8
OBJECT__37
10
50.825001
20
-5.000000
30
107.348999
70
192
0
VERTEX
8
OBJECT__37
10
0
20
0
30
0
70
128
71
1
72
2
73
3
0
VERTEX
8
OBJECT__37
10
0
20
0
30
0
70
128
71
2
72
4
73
5
0
VERTEX
8
OBJECT__37
10
0
20
0
30
0
70
128
71
5
72
3
73
2
0
VERTEX
8
OBJECT__37
10
0
20
0
30
0
70
128
71
3
72
6
73
1
0
SEQEND
8
OBJECT__37
0
POLYLINE
8
OBJECT__38
66
1
70
64
71
19
72
17
62
253
0
VERTEX
8
OBJECT__38
10
30.495001
20
-2.500000
30
99.050003
70
192
0
VERTEX
8
OBJECT__38
10
32.675999
20
-4.514000
30
107.800003
70
192
0
VERTEX
8
OBJECT__38
10
31.297001
20
-3.543000
30
108.487000
70
192
0
VERTEX
8
OBJECT__38
10
34.825001
20
-5.000000
30
99.050003
70
192
0
VERTEX
8
OBJECT__38
10
33.970001
20
-4.926000
30
107.422997
70
192
0
VERTEX
8
OBJECT__38
10
34.825001
20
-5.000000
30
107.348999
70
192
0
VERTEX
8
OBJECT__38
10
30.495001
20
2.500000
30
99.050003
70
192
0
VERTEX
8
OBJECT__38
10
29.832001
20
0.272000
30
109.445000
70
192
0
VERTEX
8
OBJECT__38
10
30.104000
20
1.648000
30
109.252998
70
192
0
VERTEX
8
OBJECT__38
10
29.856001
20
0.001000
30
109.428001
70
192
0
VERTEX
8
OBJECT__38
10
30.434000
20
-2.392000
30
109.028999
70
192
0
VERTEX
8
OBJECT__38
10
29.955999
20
-1.137000
30
109.357002
70
192
0
VERTEX
8
OBJECT__38
10
30.507999
20
-2.490000
30
108.982002
70
192
0
VERTEX
8
OBJECT__38
10
34.825001
20
5.000000
30
99.050003
70
192
0
VERTEX
8
OBJECT__38
10
33.430000
20
4.802000
30
107.543999
70
192
0
VERTEX
8
OBJECT__38
10
30.570999
20
2.456000
30
108.947998
70
192
0
VERTEX
8
OBJECT__38
10
31.035999
20
3.262000
30
108.642998
70
192
0
VERTEX
8
OBJECT__38
10
32.210999
20
4.262000
30
108.002998
70
192
0
VERTEX
8
OBJECT__38
10
34.825001
20
5.000000
30
107.348999
70
192
0
VERTEX
8
OBJECT__38
10
0
20
0
30
0
70
128
71
1
72
2
73
3
0
VERTEX
8
OBJECT__38
10
0
20
0
30
0
70
128
71
1
72
4
73
5
0
VERTEX
8
OBJECT__38
10
0
20
0
30
0
70
128
71
5
72
2
73
1
0
VERTEX
8
OBJECT__38
10
0
20
0
30
0
70
128
71
4
72
6
73
5
0
VERTEX
8
OBJECT__38
10
0
20
0
30
0
70
128
71
7
72
8
73
9
0
VERTEX
8
OBJECT__38
10
0
20
0
30
0
70
128
71
7
72
10
73
8
0
VERTEX
8
OBJECT__38
10
0
20
0
30
0
70
128
71
7
72
11
73
12
0
VERTEX
8
OBJECT__38
10
0
20
0
30
0
70
128
71
7
72
1
73
13
0
VERTEX
8
OBJECT__38
10
0
20
0
30
0
70
128
71
13
72
11
73
7
0
VERTEX
8
OBJECT__38
10
0
20
0
30
0
70
128
71
12
72
10
73
7
0
VERTEX
8
OBJECT__38
10
0
20
0
30
0
70
128
71
14
72
7
73
15
0
VERTEX
8
OBJECT__38
10
0
20
0
30
0
70
128
71
7
72
16
73
17
0
VERTEX
8
OBJECT__38
10
0
20
0
30
0
70
128
71
17
72
18
73
7
0
VERTEX
8
OBJECT__38
10
0
20
0
30
0
70
128
71
18
72
15
73
7
0
VERTEX
8
OBJECT__38
10
0
20
0
30
0
70
128
71
15
72
19
73
14
0
VERTEX
8
OBJECT__38
10
0
20
0
30
0
70
128
71
9
72
16
73
7
0
VERTEX
8
OBJECT__38
10
0
20
0
30
0
70
128
71
3
72
13
73
1
0
SEQEND
8
OBJECT__38
0
POLYLINE
8
OBJECT__39
66
1
70
64
71
42
72
42
62
253
0
VERTEX
8
OBJECT__39
10
17.950001
20
0.000000
30
105.800003
70
192
0
VERTEX
8
OBJECT__39
10
18.150000
20
0.000000
30
106.000000
70
192
0
VERTEX
8
OBJECT__39
10
18.150000
20
5.854000
30
104.835999
70
192
0
VERTEX
8
OBJECT__39
10
17.950001
20
7.960000
30
104.217003
70
192
0
VERTEX
8
OBJECT__39
10
18.150000
20
14.849000
30
99.848999
70
192
0
VERTEX
8
OBJECT__39
10
17.950001
20
14.708000
30
99.708000
70
192
0
VERTEX
8
OBJECT__39
10
17.950001
20
19.216999
30
92.959999
70
192
0
VERTEX
8
OBJECT__39
10
18.150000
20
15.671000
30
98.619003
70
192
0
VERTEX
8
OBJECT__39
10
18.150000
20
19.400999
30
93.036003
70
192
0
VERTEX
8
OBJECT__39
10
18.150000
20
20.420000
30
87.916000
70
192
0
VERTEX
8
OBJECT__39
10
17.950001
20
20.799999
30
85.000000
70
192
0
VERTEX
8
OBJECT__39
10
18.150000
20
19.400999
30
76.963997
70
192
0
VERTEX
8
OBJECT__39
10
17.950001
20
19.216999
30
77.040001
70
192
0
VERTEX
8
OBJECT__39
10
17.950001
20
14.708000
30
70.292000
70
192
0
VERTEX
8
OBJECT__39
10
18.150000
20
18.992001
30
76.349998
70
192
0
VERTEX
8
OBJECT__39
10
18.150000
20
14.849000
30
70.151001
70
192
0
VERTEX
8
OBJECT__39
10
18.150000
20
11.131000
30
67.666000
70
192
0
VERTEX
8
OBJECT__39
10
17.950001
20
7.960000
30
65.782997
70
192
0
VERTEX
8
OBJECT__39
10
18.150000
20
0.000000
30
64.000000
70
192
0
VERTEX
8
OBJECT__39
10
17.950001
20
0.000000
30
64.199997
70
192
0
VERTEX
8
OBJECT__39
10
18.150000
20
-8.036000
30
65.598999
70
192
0
VERTEX
8
OBJECT__39
10
17.950001
20
-7.960000
30
65.782997
70
192
0
VERTEX
8
OBJECT__39
10
17.950001
20
-14.708000
30
70.292000
70
192
0
VERTEX
8
OBJECT__39
10
18.150000
20
-11.131000
30
67.666000
70
192
0
VERTEX
8
OBJECT__39
10
18.150000
20
-14.849000
30
70.151001
70
192
0
VERTEX
8
OBJECT__39
10
18.150000
20
-18.992001
30
76.349998
70
192
0
VERTEX
8
OBJECT__39
10
17.950001
20
-19.216999
30
77.040001
70
192
0
VERTEX
8
OBJECT__39
10
18.150000
20
-21.000000
30
85.000000
70
192
0
VERTEX
8
OBJECT__39
10
17.950001
20
-20.799999
30
85.000000
70
192
0
VERTEX
8
OBJECT__39
10
17.950001
20
-19.216999
30
92.959999
70
192
0
VERTEX
8
OBJECT__39
10
18.150000
20
-20.420000
30
87.916000
70
192
0
VERTEX
8
OBJECT__39
10
18.150000
20
-19.400999
30
93.036003
70
192
0
VERTEX
8
OBJECT__39
10
18.150000
20
-15.671000
30
98.619003
70
192
0
VERTEX
8
OBJECT__39
10
17.950001
20
-14.708000
30
99.708000
70
192
0
VERTEX
8
OBJECT__39
10
18.150000
20
-8.036000
30
104.401001
70
192
0
VERTEX
8
OBJECT__39
10
17.950001
20
-7.960000
30
104.217003
70
192
0
VERTEX
8
OBJECT__39
10
18.150000
20
-5.854000
30
104.835999
70
192
0
VERTEX
8
OBJECT__39
10
18.150000
20
-14.849000
30
99.848999
70
192
0
VERTEX
8
OBJECT__39
10
18.150000
20
-19.400999
30
76.963997
70
192
0
VERTEX
8
OBJECT__39
10
18.150000
20
8.036000
30
65.598999
70
192
0
VERTEX
8
OBJECT__39
10
18.150000
20
21.000000
30
85.000000
70
192
0
VERTEX
8
OBJECT__39
10
18.150000
20
8.036000
30
104.401001
70
192
0
VERTEX
8
OBJECT__39
10
0
20
0
30
0
70
128
71
1
72
2
73
3
0
VERTEX
8
OBJECT__39
10
0
20
0
30
0
70
128
71
3
72
4
73
1
0
VERTEX
8
OBJECT__39
10
0
20
0
30
0
70
128
71
5
72
6
73
4
0
VERTEX
8
OBJECT__39
10
0
20
0
30
0
70
128
71
7
72
6
73
8
0
VERTEX
8
OBJECT__39
10
0
20
0
30
0
70
128
71
6
72
5
73
8
0
VERTEX
8
OBJECT__39
10
0
20
0
30
0
70
128
71
7
72
9
73
10
0
VERTEX
8
OBJECT__39
10
0
20
0
30
0
70
128
71
10
72
11
73
7
0
VERTEX
8
OBJECT__39
10
0
20
0
30
0
70
128
71
12
72
13
73
11
0
VERTEX
8
OBJECT__39
10
0
20
0
30
0
70
128
71
14
72
13
73
15
0
VERTEX
8
OBJECT__39
10
0
20
0
30
0
70
128
71
13
72
12
73
15
0
VERTEX
8
OBJECT__39
10
0
20
0
30
0
70
128
71
14
72
16
73
17
0
VERTEX
8
OBJECT__39
10
0
20
0
30
0
70
128
71
17
72
18
73
14
0
VERTEX
8
OBJECT__39
10
0
20
0
30
0
70
128
71
19
72
20
73
18
0
VERTEX
8
OBJECT__39
10
0
20
0
30
0
70
128
71
19
72
21
73
22
0
VERTEX
8
OBJECT__39
10
0
20
0
30
0
70
128
71
23
72
22
73
24
0
VERTEX
8
OBJECT__39
10
0
20
0
30
0
70
128
71
22
72
21
73
24
0
VERTEX
8
OBJECT__39
10
0
20
0
30
0
70
128
71
23
72
25
73
26
0
VERTEX
8
OBJECT__39
10
0
20
0
30
0
70
128
71
26
72
27
73
23
0
VERTEX
8
OBJECT__39
10
0
20
0
30
0
70
128
71
28
72
29
73
27
0
VERTEX
8
OBJECT__39
10
0
20
0
30
0
70
128
71
30
72
29
73
31
0
VERTEX
8
OBJECT__39
10
0
20
0
30
0
70
128
71
29
72
28
73
31
0
VERTEX
8
OBJECT__39
10
0
20
0
30
0
70
128
71
30
72
32
73
33
0
VERTEX
8
OBJECT__39
10
0
20
0
30
0
70
128
71
33
72
34
73
30
0
VERTEX
8
OBJECT__39
10
0
20
0
30
0
70
128
71
35
72
36
73
34
0
VERTEX
8
OBJECT__39
10
0
20
0
30
0
70
128
71
1
72
36
73
37
0
VERTEX
8
OBJECT__39
10
0
20
0
30
0
70
128
71
36
72
35
73
37
0
VERTEX
8
OBJECT__39
10
0
20
0
30
0
70
128
71
37
72
2
73
1
0
VERTEX
8
OBJECT__39
10
0
20
0
30
0
70
128
71
34
72
38
73
35
0
VERTEX
8
OBJECT__39
10
0
20
0
30
0
70
128
71
33
72
38
73
34
0
VERTEX
8
OBJECT__39
10
0
20
0
30
0
70
128
71
31
72
32
73
30
0
VERTEX
8
OBJECT__39
10
0
20
0
30
0
70
128
71
27
72
39
73
28
0
VERTEX
8
OBJECT__39
10
0
20
0
30
0
70
128
71
26
72
39
73
27
0
VERTEX
8
OBJECT__39
10
0
20
0
30
0
70
128
71
24
72
25
73
23
0
VERTEX
8
OBJECT__39
10
0
20
0
30
0
70
128
71
22
72
20
73
19
0
VERTEX
8
OBJECT__39
10
0
20
0
30
0
70
128
71
18
72
40
73
19
0
VERTEX
8
OBJECT__39
10
0
20
0
30
0
70
128
71
17
72
40
73
18
0
VERTEX
8
OBJECT__39
10
0
20
0
30
0
70
128
71
15
72
16
73
14
0
VERTEX
8
OBJECT__39
10
0
20
0
30
0
70
128
71
11
72
41
73
12
0
VERTEX
8
OBJECT__39
10
0
20
0
30
0
70
128
71
10
72
41
73
11
0
VERTEX
8
OBJECT__39
10
0
20
0
30
0
70
128
71
8
72
9
73
7
0
VERTEX
8
OBJECT__39
10
0
20
0
30
0
70
128
71
4
72
42
73
5
0
VERTEX
8
OBJECT__39
10
0
20
0
30
0
70
128
71
3
72
42
73
4
0
SEQEND
8
OBJECT__39
0
POLYLINE
8
OBJECT__40
66
1
70
64
71
54
72
56
62
253
0
VERTEX
8
OBJECT__40
10
63.950001
20
0.000000
30
64.000000
70
192
0
VERTEX
8
OBJECT__40
10
18.150000
20
0.000000
30
64.000000
70
192
0
VERTEX
8
OBJECT__40
10
18.150000
20
8.036000
30
65.598999
70
192
0
VERTEX
8
OBJECT__40
10
63.950001
20
11.353000
30
67.334000
70
192
0
VERTEX
8
OBJECT__40
10
63.950001
20
19.101999
30
76.276001
70
192
0
VERTEX
8
OBJECT__40
10
18.150000
20
14.849000
30
70.151001
70
192
0
VERTEX
8
OBJECT__40
10
18.150000
20
11.131000
30
67.666000
70
192
0
VERTEX
8
OBJECT__40
10
18.150000
20
19.400999
30
76.963997
70
192
0
VERTEX
8
OBJECT__40
10
18.150000
20
21.000000
30
85.000000
70
192
0
VERTEX
8
OBJECT__40
10
63.950001
20
20.785999
30
87.988998
70
192
0
VERTEX
8
OBJECT__40
10
18.150000
20
18.992001
30
76.349998
70
192
0
VERTEX
8
OBJECT__40
10
63.950001
20
15.871000
30
98.751999
70
192
0
VERTEX
8
OBJECT__40
10
18.150000
20
19.400999
30
93.036003
70
192
0
VERTEX
8
OBJECT__40
10
18.150000
20
20.420000
30
87.916000
70
192
0
VERTEX
8
OBJECT__40
10
18.150000
20
14.849000
30
99.848999
70
192
0
VERTEX
8
OBJECT__40
10
18.150000
20
8.036000
30
104.401001
70
192
0
VERTEX
8
OBJECT__40
10
18.150000
20
15.671000
30
98.619003
70
192
0
VERTEX
8
OBJECT__40
10
63.950001
20
5.916000
30
105.149002
70
192
0
VERTEX
8
OBJECT__40
10
63.950001
20
-5.916000
30
105.149002
70
192
0
VERTEX
8
OBJECT__40
10
52.018002
20
-5.025000
30
105.389999
70
192
0
VERTEX
8
OBJECT__40
10
34.825001
20
-5.025000
30
105.389999
70
192
0
VERTEX
8
OBJECT__40
10
53.700001
20
-4.801000
30
105.444000
70
192
0
VERTEX
8
OBJECT__40
10
55.236000
20
-4.112000
30
105.594002
70
192
0
VERTEX
8
OBJECT__40
10
56.431999
20
-3.017000
30
105.781998
70
192
0
VERTEX
8
OBJECT__40
10
57.202000
20
-1.598000
30
105.939003
70
192
0
VERTEX
8
OBJECT__40
10
57.467999
20
0.000000
30
106.000000
70
192
0
VERTEX
8
OBJECT__40
10
57.181999
20
1.655000
30
105.934998
70
192
0
VERTEX
8
OBJECT__40
10
56.334000
20
3.137000
30
105.764000
70
192
0
VERTEX
8
OBJECT__40
10
54.841000
20
4.346000
30
105.544998
70
192
0
VERTEX
8
OBJECT__40
10
18.150000
20
5.854000
30
104.835999
70
192
0
VERTEX
8
OBJECT__40
10
34.825001
20
5.025000
30
105.389999
70
192
0
VERTEX
8
OBJECT__40
10
52.018002
20
5.025000
30
105.389999
70
192
0
VERTEX
8
OBJECT__40
10
31.889999
20
4.078000
30
105.599998
70
192
0
VERTEX
8
OBJECT__40
10
18.150000
20
0.000000
30
106.000000
70
192
0
VERTEX
8
OBJECT__40
10
18.150000
20
-5.854000
30
104.835999
70
192
0
VERTEX
8
OBJECT__40
10
30.073999
20
-1.637000
30
105.935997
70
192
0
VERTEX
8
OBJECT__40
10
29.985001
20
1.350000
30
105.957001
70
192
0
VERTEX
8
OBJECT__40
10
33.665001
20
-4.889000
30
105.422997
70
192
0
VERTEX
8
OBJECT__40
10
32.098000
20
-4.221000
30
105.570999
70
192
0
VERTEX
8
OBJECT__40
10
63.950001
20
-15.871000
30
98.751999
70
192
0
VERTEX
8
OBJECT__40
10
18.150000
20
-8.036000
30
104.401001
70
192
0
VERTEX
8
OBJECT__40
10
18.150000
20
-14.849000
30
99.848999
70
192
0
VERTEX
8
OBJECT__40
10
18.150000
20
-15.671000
30
98.619003
70
192
0
VERTEX
8
OBJECT__40
10
18.150000
20
-19.400999
30
93.036003
70
192
0
VERTEX
8
OBJECT__40
10
63.950001
20
-20.785999
30
87.988998
70
192
0
VERTEX
8
OBJECT__40
10
63.950001
20
-19.101999
30
76.276001
70
192
0
VERTEX
8
OBJECT__40
10
18.150000
20
-21.000000
30
85.000000
70
192
0
VERTEX
8
OBJECT__40
10
18.150000
20
-19.400999
30
76.963997
70
192
0
VERTEX
8
OBJECT__40
10
18.150000
20
-20.420000
30
87.916000
70
192
0
VERTEX
8
OBJECT__40
10
18.150000
20
-18.992001
30
76.349998
70
192
0
VERTEX
8
OBJECT__40
10
18.150000
20
-14.849000
30
70.151001
70
192
0
VERTEX
8
OBJECT__40
10
63.950001
20
-11.353000
30
67.334000
70
192
0
VERTEX
8
OBJECT__40
10
18.150000
20
-8.036000
30
65.598999
70
192
0
VERTEX
8
OBJECT__40
10
18.150000
20
-11.131000
30
67.666000
70
192
0
VERTEX
8
OBJECT__40
10
0
20
0
30
0
70
128
71
1
72
2
73
3
0
VERTEX
8
OBJECT__40
10
0
20
0
30
0
70
128
71
3
72
4
73
1
0
VERTEX
8
OBJECT__40
10
0
20
0
30
0
70
128
71
5
72
4
73
6
0
VERTEX
8
OBJECT__40
10
0
20
0
30
0
70
128
71
4
72
7
73
6
0
VERTEX
8
OBJECT__40
10
0
20
0
30
0
70
128
71
5
72
8
73
9
0
VERTEX
8
OBJECT__40
10
0
20
0
30
0
70
128
71
9
72
10
73
5
0
VERTEX
8
OBJECT__40
10
0
20
0
30
0
70
128
71
5
72
11
73
8
0
VERTEX
8
OBJECT__40
10
0
20
0
30
0
70
128
71
12
72
10
73
13
0
VERTEX
8
OBJECT__40
10
0
20
0
30
0
70
128
71
10
72
14
73
13
0
VERTEX
8
OBJECT__40
10
0
20
0
30
0
70
128
71
12
72
15
73
16
0
VERTEX
8
OBJECT__40
10
0
20
0
30
0
70
128
71
12
72
17
73
15
0
VERTEX
8
OBJECT__40
10
0
20
0
30
0
70
128
71
16
72
18
73
12
0
VERTEX
8
OBJECT__40
10
0
20
0
30
0
70
128
71
19
72
20
73
21
0
VERTEX
8
OBJECT__40
10
0
20
0
30
0
70
128
71
19
72
22
73
20
0
VERTEX
8
OBJECT__40
10
0
20
0
30
0
70
128
71
19
72
23
73
22
0
VERTEX
8
OBJECT__40
10
0
20
0
30
0
70
128
71
19
72
24
73
23
0
VERTEX
8
OBJECT__40
10
0
20
0
30
0
70
128
71
19
72
25
73
24
0
VERTEX
8
OBJECT__40
10
0
20
0
30
0
70
128
71
19
72
18
73
26
0
VERTEX
8
OBJECT__40
10
0
20
0
30
0
70
128
71
26
72
25
73
19
0
VERTEX
8
OBJECT__40
10
0
20
0
30
0
70
128
71
18
72
27
73
26
0
VERTEX
8
OBJECT__40
10
0
20
0
30
0
70
128
71
18
72
28
73
27
0
VERTEX
8
OBJECT__40
10
0
20
0
30
0
70
128
71
18
72
29
73
28
0
VERTEX
8
OBJECT__40
10
0
20
0
30
0
70
128
71
18
72
30
73
31
0
VERTEX
8
OBJECT__40
10
0
20
0
30
0
70
128
71
31
72
32
73
18
0
VERTEX
8
OBJECT__40
10
0
20
0
30
0
70
128
71
30
72
33
73
31
0
VERTEX
8
OBJECT__40
10
0
20
0
30
0
70
128
71
32
72
29
73
18
0
VERTEX
8
OBJECT__40
10
0
20
0
30
0
70
128
71
34
72
35
73
36
0
VERTEX
8
OBJECT__40
10
0
20
0
30
0
70
128
71
37
72
30
73
34
0
VERTEX
8
OBJECT__40
10
0
20
0
30
0
70
128
71
35
72
21
73
38
0
VERTEX
8
OBJECT__40
10
0
20
0
30
0
70
128
71
38
72
39
73
35
0
VERTEX
8
OBJECT__40
10
0
20
0
30
0
70
128
71
39
72
36
73
35
0
VERTEX
8
OBJECT__40
10
0
20
0
30
0
70
128
71
36
72
37
73
34
0
VERTEX
8
OBJECT__40
10
0
20
0
30
0
70
128
71
37
72
33
73
30
0
VERTEX
8
OBJECT__40
10
0
20
0
30
0
70
128
71
40
72
19
73
41
0
VERTEX
8
OBJECT__40
10
0
20
0
30
0
70
128
71
41
72
42
73
40
0
VERTEX
8
OBJECT__40
10
0
20
0
30
0
70
128
71
19
72
35
73
41
0
VERTEX
8
OBJECT__40
10
0
20
0
30
0
70
128
71
40
72
43
73
44
0
VERTEX
8
OBJECT__40
10
0
20
0
30
0
70
128
71
44
72
45
73
40
0
VERTEX
8
OBJECT__40
10
0
20
0
30
0
70
128
71
46
72
45
73
47
0
VERTEX
8
OBJECT__40
10
0
20
0
30
0
70
128
71
47
72
48
73
46
0
VERTEX
8
OBJECT__40
10
0
20
0
30
0
70
128
71
45
72
49
73
47
0
VERTEX
8
OBJECT__40
10
0
20
0
30
0
70
128
71
46
72
50
73
51
0
VERTEX
8
OBJECT__40
10
0
20
0
30
0
70
128
71
51
72
52
73
46
0
VERTEX
8
OBJECT__40
10
0
20
0
30
0
70
128
71
1
72
52
73
53
0
VERTEX
8
OBJECT__40
10
0
20
0
30
0
70
128
71
52
72
54
73
53
0
VERTEX
8
OBJECT__40
10
0
20
0
30
0
70
128
71
53
72
2
73
1
0
VERTEX
8
OBJECT__40
10
0
20
0
30
0
70
128
71
51
72
54
73
52
0
VERTEX
8
OBJECT__40
10
0
20
0
30
0
70
128
71
48
72
50
73
46
0
VERTEX
8
OBJECT__40
10
0
20
0
30
0
70
128
71
44
72
49
73
45
0
VERTEX
8
OBJECT__40
10
0
20
0
30
0
70
128
71
42
72
43
73
40
0
VERTEX
8
OBJECT__40
10
0
20
0
30
0
70
128
71
21
72
35
73
19
0
VERTEX
8
OBJECT__40
10
0
20
0
30
0
70
128
71
16
72
30
73
18
0
VERTEX
8
OBJECT__40
10
0
20
0
30
0
70
128
71
13
72
17
73
12
0
VERTEX
8
OBJECT__40
10
0
20
0
30
0
70
128
71
9
72
14
73
10
0
VERTEX
8
OBJECT__40
10
0
20
0
30
0
70
128
71
6
72
11
73
5
0
VERTEX
8
OBJECT__40
10
0
20
0
30
0
70
128
71
3
72
7
73
4
0
SEQEND
8
OBJECT__40
0
POLYLINE
8
OBJECT__42
66
1
70
64
71
24
72
24
62
253
0
VERTEX
8
OBJECT__42
10
63.950001
20
11.353000
30
67.334000
70
192
0
VERTEX
8
OBJECT__42
10
63.950001
20
19.101999
30
76.276001
70
192
0
VERTEX
8
OBJECT__42
10
63.950001
20
12.345000
30
76.478996
70
192
0
VERTEX
8
OBJECT__42
10
63.950001
20
-19.101999
30
76.276001
70
192
0
VERTEX
8
OBJECT__42
10
63.950001
20
-12.345000
30
76.478996
70
192
0
VERTEX
8
OBJECT__42
10
63.950001
20
-14.891000
30
83.192001
70
192
0
VERTEX
8
OBJECT__42
10
63.950001
20
6.971000
30
71.718002
70
192
0
VERTEX
8
OBJECT__42
10
63.950001
20
20.785999
30
87.988998
70
192
0
VERTEX
8
OBJECT__42
10
63.950001
20
14.891000
30
83.192001
70
192
0
VERTEX
8
OBJECT__42
10
63.950001
20
-15.871000
30
98.751999
70
192
0
VERTEX
8
OBJECT__42
10
63.950001
20
-20.785999
30
87.988998
70
192
0
VERTEX
8
OBJECT__42
10
63.950001
20
-14.025000
30
90.319000
70
192
0
VERTEX
8
OBJECT__42
10
63.950001
20
15.871000
30
98.751999
70
192
0
VERTEX
8
OBJECT__42
10
63.950001
20
9.947000
30
96.227997
70
192
0
VERTEX
8
OBJECT__42
10
63.950001
20
14.025000
30
90.319000
70
192
0
VERTEX
8
OBJECT__42
10
63.950001
20
5.916000
30
105.149002
70
192
0
VERTEX
8
OBJECT__42
10
63.950001
20
3.590000
30
99.564003
70
192
0
VERTEX
8
OBJECT__42
10
63.950001
20
-5.916000
30
105.149002
70
192
0
VERTEX
8
OBJECT__42
10
63.950001
20
-3.590000
30
99.564003
70
192
0
VERTEX
8
OBJECT__42
10
63.950001
20
-9.947000
30
96.227997
70
192
0
VERTEX
8
OBJECT__42
10
63.950001
20
-11.353000
30
67.334000
70
192
0
VERTEX
8
OBJECT__42
10
63.950001
20
-6.971000
30
71.718002
70
192
0
VERTEX
8
OBJECT__42
10
63.950001
20
0.000000
30
64.000000
70
192
0
VERTEX
8
OBJECT__42
10
63.950001
20
0.000000
30
70.000000
70
192
0
VERTEX
8
OBJECT__42
10
0
20
0
30
0
70
128
71
1
72
2
73
3
0
VERTEX
8
OBJECT__42
10
0
20
0
30
0
70
128
71
4
72
5
73
6
0
VERTEX
8
OBJECT__42
10
0
20
0
30
0
70
128
71
3
72
7
73
1
0
VERTEX
8
OBJECT__42
10
0
20
0
30
0
70
128
71
2
72
8
73
9
0
VERTEX
8
OBJECT__42
10
0
20
0
30
0
70
128
71
10
72
11
73
12
0
VERTEX
8
OBJECT__42
10
0
20
0
30
0
70
128
71
6
72
11
73
4
0
VERTEX
8
OBJECT__42
10
0
20
0
30
0
70
128
71
9
72
3
73
2
0
VERTEX
8
OBJECT__42
10
0
20
0
30
0
70
128
71
13
72
14
73
15
0
VERTEX
8
OBJECT__42
10
0
20
0
30
0
70
128
71
16
72
17
73
14
0
VERTEX
8
OBJECT__42
10
0
20
0
30
0
70
128
71
16
72
18
73
19
0
VERTEX
8
OBJECT__42
10
0
20
0
30
0
70
128
71
18
72
10
73
20
0
VERTEX
8
OBJECT__42
10
0
20
0
30
0
70
128
71
6
72
12
73
11
0
VERTEX
8
OBJECT__42
10
0
20
0
30
0
70
128
71
21
72
22
73
5
0
VERTEX
8
OBJECT__42
10
0
20
0
30
0
70
128
71
8
72
15
73
9
0
VERTEX
8
OBJECT__42
10
0
20
0
30
0
70
128
71
14
72
13
73
16
0
VERTEX
8
OBJECT__42
10
0
20
0
30
0
70
128
71
20
72
19
73
18
0
VERTEX
8
OBJECT__42
10
0
20
0
30
0
70
128
71
5
72
4
73
21
0
VERTEX
8
OBJECT__42
10
0
20
0
30
0
70
128
71
15
72
8
73
13
0
VERTEX
8
OBJECT__42
10
0
20
0
30
0
70
128
71
12
72
20
73
10
0
VERTEX
8
OBJECT__42
10
0
20
0
30
0
70
128
71
19
72
17
73
16
0
VERTEX
8
OBJECT__42
10
0
20
0
30
0
70
128
71
23
72
24
73
22
0
VERTEX
8
OBJECT__42
10
0
20
0
30
0
70
128
71
22
72
21
73
23
0
VERTEX
8
OBJECT__42
10
0
20
0
30
0
70
128
71
7
72
24
73
1
0
VERTEX
8
OBJECT__42
10
0
20
0
30
0
70
128
71
24
72
23
73
1
0
SEQEND
8
OBJECT__42
0
POLYLINE
8
OBJECT__43
66
1
70
64
71
34
72
34
62
253
0
VERTEX
8
OBJECT__43
10
63.950001
20
0.000000
30
70.000000
70
192
0
VERTEX
8
OBJECT__43
10
63.950001
20
6.971000
30
71.718002
70
192
0
VERTEX
8
OBJECT__43
10
64.949997
20
6.506000
30
72.603996
70
192
0
VERTEX
8
OBJECT__43
10
63.950001
20
12.345000
30
76.478996
70
192
0
VERTEX
8
OBJECT__43
10
64.949997
20
11.522000
30
77.046997
70
192
0
VERTEX
8
OBJECT__43
10
64.949997
20
8.733000
30
74.575996
70
192
0
VERTEX
8
OBJECT__43
10
63.950001
20
14.891000
30
83.192001
70
192
0
VERTEX
8
OBJECT__43
10
64.949997
20
13.637000
30
82.625999
70
192
0
VERTEX
8
OBJECT__43
10
64.949997
20
13.898000
30
83.311996
70
192
0
VERTEX
8
OBJECT__43
10
63.950001
20
14.025000
30
90.319000
70
192
0
VERTEX
8
OBJECT__43
10
64.949997
20
13.090000
30
89.963997
70
192
0
VERTEX
8
OBJECT__43
10
63.950001
20
9.947000
30
96.227997
70
192
0
VERTEX
8
OBJECT__43
10
64.949997
20
9.284000
30
95.478996
70
192
0
VERTEX
8
OBJECT__43
10
64.949997
20
11.827000
30
91.794998
70
192
0
VERTEX
8
OBJECT__43
10
63.950001
20
3.590000
30
99.564003
70
192
0
VERTEX
8
OBJECT__43
10
64.949997
20
4.658000
30
97.906998
70
192
0
VERTEX
8
OBJECT__43
10
64.949997
20
3.350000
30
98.593002
70
192
0
VERTEX
8
OBJECT__43
10
63.950001
20
-3.590000
30
99.564003
70
192
0
VERTEX
8
OBJECT__43
10
64.949997
20
-3.350000
30
98.593002
70
192
0
VERTEX
8
OBJECT__43
10
63.950001
20
-9.947000
30
96.227997
70
192
0
VERTEX
8
OBJECT__43
10
64.949997
20
-9.284000
30
95.478996
70
192
0
VERTEX
8
OBJECT__43
10
64.949997
20
-4.658000
30
97.906998
70
192
0
VERTEX
8
OBJECT__43
10
63.950001
20
-14.025000
30
90.319000
70
192
0
VERTEX
8
OBJECT__43
10
64.949997
20
-11.827000
30
91.794998
70
192
0
VERTEX
8
OBJECT__43
10
64.949997
20
-13.090000
30
89.963997
70
192
0
VERTEX
8
OBJECT__43
10
63.950001
20
-14.891000
30
83.192001
70
192
0
VERTEX
8
OBJECT__43
10
64.949997
20
-13.898000
30
83.311996
70
192
0
VERTEX
8
OBJECT__43
10
63.950001
20
-12.345000
30
76.478996
70
192
0
VERTEX
8
OBJECT__43
10
64.949997
20
-11.522000
30
77.046997
70
192
0
VERTEX
8
OBJECT__43
10
64.949997
20
-13.637000
30
82.625999
70
192
0
VERTEX
8
OBJECT__43
10
63.950001
20
-6.971000
30
71.718002
70
192
0
VERTEX
8
OBJECT__43
10
64.949997
20
-8.733000
30
74.575996
70
192
0
VERTEX
8
OBJECT__43
10
64.949997
20
-6.506000
30
72.603996
70
192
0
VERTEX
8
OBJECT__43
10
64.949997
20
0.000000
30
71.000000
70
192
0
VERTEX
8
OBJECT__43
10
0
20
0
30
0
70
128
71
1
72
2
73
3
0
VERTEX
8
OBJECT__43
10
0
20
0
30
0
70
128
71
4
72
5
73
6
0
VERTEX
8
OBJECT__43
10
0
20
0
30
0
70
128
71
6
72
2
73
4
0
VERTEX
8
OBJECT__43
10
0
20
0
30
0
70
128
71
4
72
7
73
8
0
VERTEX
8
OBJECT__43
10
0
20
0
30
0
70
128
71
7
72
9
73
8
0
VERTEX
8
OBJECT__43
10
0
20
0
30
0
70
128
71
7
72
10
73
11
0
VERTEX
8
OBJECT__43
10
0
20
0
30
0
70
128
71
12
72
13
73
14
0
VERTEX
8
OBJECT__43
10
0
20
0
30
0
70
128
71
14
72
10
73
12
0
VERTEX
8
OBJECT__43
10
0
20
0
30
0
70
128
71
12
72
15
73
16
0
VERTEX
8
OBJECT__43
10
0
20
0
30
0
70
128
71
15
72
17
73
16
0
VERTEX
8
OBJECT__43
10
0
20
0
30
0
70
128
71
15
72
18
73
19
0
VERTEX
8
OBJECT__43
10
0
20
0
30
0
70
128
71
20
72
21
73
22
0
VERTEX
8
OBJECT__43
10
0
20
0
30
0
70
128
71
22
72
18
73
20
0
VERTEX
8
OBJECT__43
10
0
20
0
30
0
70
128
71
20
72
23
73
24
0
VERTEX
8
OBJECT__43
10
0
20
0
30
0
70
128
71
23
72
25
73
24
0
VERTEX
8
OBJECT__43
10
0
20
0
30
0
70
128
71
23
72
26
73
27
0
VERTEX
8
OBJECT__43
10
0
20
0
30
0
70
128
71
28
72
29
73
30
0
VERTEX
8
OBJECT__43
10
0
20
0
30
0
70
128
71
30
72
26
73
28
0
VERTEX
8
OBJECT__43
10
0
20
0
30
0
70
128
71
28
72
31
73
32
0
VERTEX
8
OBJECT__43
10
0
20
0
30
0
70
128
71
31
72
33
73
32
0
VERTEX
8
OBJECT__43
10
0
20
0
30
0
70
128
71
31
72
1
73
34
0
VERTEX
8
OBJECT__43
10
0
20
0
30
0
70
128
71
34
72
33
73
31
0
VERTEX
8
OBJECT__43
10
0
20
0
30
0
70
128
71
32
72
29
73
28
0
VERTEX
8
OBJECT__43
10
0
20
0
30
0
70
128
71
30
72
27
73
26
0
VERTEX
8
OBJECT__43
10
0
20
0
30
0
70
128
71
27
72
25
73
23
0
VERTEX
8
OBJECT__43
10
0
20
0
30
0
70
128
71
24
72
21
73
20
0
VERTEX
8
OBJECT__43
10
0
20
0
30
0
70
128
71
22
72
19
73
18
0
VERTEX
8
OBJECT__43
10
0
20
0
30
0
70
128
71
19
72
17
73
15
0
VERTEX
8
OBJECT__43
10
0
20
0
30
0
70
128
71
16
72
13
73
12
0
VERTEX
8
OBJECT__43
10
0
20
0
30
0
70
128
71
14
72
11
73
10
0
VERTEX
8
OBJECT__43
10
0
20
0
30
0
70
128
71
11
72
9
73
7
0
VERTEX
8
OBJECT__43
10
0
20
0
30
0
70
128
71
8
72
5
73
4
0
VERTEX
8
OBJECT__43
10
0
20
0
30
0
70
128
71
6
72
3
73
2
0
VERTEX
8
OBJECT__43
10
0
20
0
30
0
70
128
71
3
72
34
73
1
0
SEQEND
8
OBJECT__43
0
POLYLINE
8
OBJECT__44
66
1
70
64
71
30
72
30
62
253
0
VERTEX
8
OBJECT__44
10
71.449997
20
0.000000
30
71.000000
70
192
0
VERTEX
8
OBJECT__44
10
64.949997
20
0.000000
30
71.000000
70
192
0
VERTEX
8
OBJECT__44
10
64.949997
20
6.506000
30
72.603996
70
192
0
VERTEX
8
OBJECT__44
10
71.449997
20
8.999000
30
74.275002
70
192
0
VERTEX
8
OBJECT__44
10
71.449997
20
13.787000
30
82.569000
70
192
0
VERTEX
8
OBJECT__44
10
64.949997
20
11.522000
30
77.046997
70
192
0
VERTEX
8
OBJECT__44
10
64.949997
20
8.733000
30
74.575996
70
192
0
VERTEX
8
OBJECT__44
10
64.949997
20
13.898000
30
83.311996
70
192
0
VERTEX
8
OBJECT__44
10
64.949997
20
13.090000
30
89.963997
70
192
0
VERTEX
8
OBJECT__44
10
71.449997
20
12.124000
30
92.000000
70
192
0
VERTEX
8
OBJECT__44
10
64.949997
20
13.637000
30
82.625999
70
192
0
VERTEX
8
OBJECT__44
10
71.449997
20
4.788000
30
98.155998
70
192
0
VERTEX
8
OBJECT__44
10
64.949997
20
9.284000
30
95.478996
70
192
0
VERTEX
8
OBJECT__44
10
64.949997
20
11.827000
30
91.794998
70
192
0
VERTEX
8
OBJECT__44
10
64.949997
20
3.350000
30
98.593002
70
192
0
VERTEX
8
OBJECT__44
10
64.949997
20
-3.350000
30
98.593002
70
192
0
VERTEX
8
OBJECT__44
10
71.449997
20
-4.788000
30
98.155998
70
192
0
VERTEX
8
OBJECT__44
10
64.949997
20
4.658000
30
97.906998
70
192
0
VERTEX
8
OBJECT__44
10
64.949997
20
-4.658000
30
97.906998
70
192
0
VERTEX
8
OBJECT__44
10
64.949997
20
-9.284000
30
95.478996
70
192
0
VERTEX
8
OBJECT__44
10
71.449997
20
-12.124000
30
92.000000
70
192
0
VERTEX
8
OBJECT__44
10
71.449997
20
-13.787000
30
82.569000
70
192
0
VERTEX
8
OBJECT__44
10
64.949997
20
-13.090000
30
89.963997
70
192
0
VERTEX
8
OBJECT__44
10
64.949997
20
-13.898000
30
83.311996
70
192
0
VERTEX
8
OBJECT__44
10
64.949997
20
-11.827000
30
91.794998
70
192
0
VERTEX
8
OBJECT__44
10
64.949997
20
-13.637000
30
82.625999
70
192
0
VERTEX
8
OBJECT__44
10
64.949997
20
-11.522000
30
77.046997
70
192
0
VERTEX
8
OBJECT__44
10
71.449997
20
-8.999000
30
74.275002
70
192
0
VERTEX
8
OBJECT__44
10
64.949997
20
-6.506000
30
72.603996
70
192
0
VERTEX
8
OBJECT__44
10
64.949997
20
-8.733000
30
74.575996
70
192
0
VERTEX
8
OBJECT__44
10
0
20
0
30
0
70
128
71
1
72
2
73
3
0
VERTEX
8
OBJECT__44
10
0
20
0
30
0
70
128
71
3
72
4
73
1
0
VERTEX
8
OBJECT__44
10
0
20
0
30
0
70
128
71
5
72
4
73
6
0
VERTEX
8
OBJECT__44
10
0
20
0
30
0
70
128
71
4
72
7
73
6
0
VERTEX
8
OBJECT__44
10
0
20
0
30
0
70
128
71
5
72
8
73
9
0
VERTEX
8
OBJECT__44
10
0
20
0
30
0
70
128
71
9
72
10
73
5
0
VERTEX
8
OBJECT__44
10
0
20
0
30
0
70
128
71
5
72
11
73
8
0
VERTEX
8
OBJECT__44
10
0
20
0
30
0
70
128
71
12
72
10
73
13
0
VERTEX
8
OBJECT__44
10
0
20
0
30
0
70
128
71
10
72
14
73
13
0
VERTEX
8
OBJECT__44
10
0
20
0
30
0
70
128
71
12
72
15
73
16
0
VERTEX
8
OBJECT__44
10
0
20
0
30
0
70
128
71
16
72
17
73
12
0
VERTEX
8
OBJECT__44
10
0
20
0
30
0
70
128
71
12
72
18
73
15
0
VERTEX
8
OBJECT__44
10
0
20
0
30
0
70
128
71
17
72
19
73
20
0
VERTEX
8
OBJECT__44
10
0
20
0
30
0
70
128
71
20
72
21
73
17
0
VERTEX
8
OBJECT__44
10
0
20
0
30
0
70
128
71
22
72
21
73
23
0
VERTEX
8
OBJECT__44
10
0
20
0
30
0
70
128
71
23
72
24
73
22
0
VERTEX
8
OBJECT__44
10
0
20
0
30
0
70
128
71
21
72
25
73
23
0
VERTEX
8
OBJECT__44
10
0
20
0
30
0
70
128
71
22
72
26
73
27
0
VERTEX
8
OBJECT__44
10
0
20
0
30
0
70
128
71
27
72
28
73
22
0
VERTEX
8
OBJECT__44
10
0
20
0
30
0
70
128
71
1
72
28
73
29
0
VERTEX
8
OBJECT__44
10
0
20
0
30
0
70
128
71
28
72
30
73
29
0
VERTEX
8
OBJECT__44
10
0
20
0
30
0
70
128
71
29
72
2
73
1
0
VERTEX
8
OBJECT__44
10
0
20
0
30
0
70
128
71
27
72
30
73
28
0
VERTEX
8
OBJECT__44
10
0
20
0
30
0
70
128
71
24
72
26
73
22
0
VERTEX
8
OBJECT__44
10
0
20
0
30
0
70
128
71
20
72
25
73
21
0
VERTEX
8
OBJECT__44
10
0
20
0
30
0
70
128
71
16
72
19
73
17
0
VERTEX
8
OBJECT__44
10
0
20
0
30
0
70
128
71
13
72
18
73
12
0
VERTEX
8
OBJECT__44
10
0
20
0
30
0
70
128
71
9
72
14
73
10
0
VERTEX
8
OBJECT__44
10
0
20
0
30
0
70
128
71
6
72
11
73
5
0
VERTEX
8
OBJECT__44
10
0
20
0
30
0
70
128
71
3
72
7
73
4
0
SEQEND
8
OBJECT__44
0
POLYLINE
8
OBJECT__45
66
1
70
64
71
18
72
18
62
253
0
VERTEX
8
OBJECT__45
10
71.449997
20
8.999000
30
74.275002
70
192
0
VERTEX
8
OBJECT__45
10
71.449997
20
13.787000
30
82.569000
70
192
0
VERTEX
8
OBJECT__45
10
71.449997
20
8.227000
30
80.250000
70
192
0
VERTEX
8
OBJECT__45
10
71.449997
20
3.249000
30
76.072998
70
192
0
VERTEX
8
OBJECT__45
10
71.449997
20
12.124000
30
92.000000
70
192
0
VERTEX
8
OBJECT__45
10
71.449997
20
9.356000
30
86.650002
70
192
0
VERTEX
8
OBJECT__45
10
71.449997
20
4.788000
30
98.155998
70
192
0
VERTEX
8
OBJECT__45
10
71.449997
20
6.106000
30
92.277000
70
192
0
VERTEX
8
OBJECT__45
10
71.449997
20
-4.788000
30
98.155998
70
192
0
VERTEX
8
OBJECT__45
10
71.449997
20
0.000000
30
94.500000
70
192
0
VERTEX
8
OBJECT__45
10
71.449997
20
-12.124000
30
92.000000
70
192
0
VERTEX
8
OBJECT__45
10
71.449997
20
-6.106000
30
92.277000
70
192
0
VERTEX
8
OBJECT__45
10
71.449997
20
-13.787000
30
82.569000
70
192
0
VERTEX
8
OBJECT__45
10
71.449997
20
-9.356000
30
86.650002
70
192
0
VERTEX
8
OBJECT__45
10
71.449997
20
-8.999000
30
74.275002
70
192
0
VERTEX
8
OBJECT__45
10
71.449997
20
-8.227000
30
80.250000
70
192
0
VERTEX
8
OBJECT__45
10
71.449997
20
0.000000
30
71.000000
70
192
0
VERTEX
8
OBJECT__45
10
71.449997
20
-3.249000
30
76.072998
70
192
0
VERTEX
8
OBJECT__45
10
0
20
0
30
0
70
128
71
1
72
2
73
3
0
VERTEX
8
OBJECT__45
10
0
20
0
30
0
70
128
71
3
72
4
73
1
0
VERTEX
8
OBJECT__45
10
0
20
0
30
0
70
128
71
2
72
5
73
6
0
VERTEX
8
OBJECT__45
10
0
20
0
30
0
70
128
71
5
72
7
73
8
0
VERTEX
8
OBJECT__45
10
0
20
0
30
0
70
128
71
7
72
9
73
10
0
VERTEX
8
OBJECT__45
10
0
20
0
30
0
70
128
71
9
72
11
73
12
0
VERTEX
8
OBJECT__45
10
0
20
0
30
0
70
128
71
11
72
13
73
14
0
VERTEX
8
OBJECT__45
10
0
20
0
30
0
70
128
71
13
72
15
73
16
0
VERTEX
8
OBJECT__45
10
0
20
0
30
0
70
128
71
15
72
17
73
18
0
VERTEX
8
OBJECT__45
10
0
20
0
30
0
70
128
71
6
72
3
73
2
0
VERTEX
8
OBJECT__45
10
0
20
0
30
0
70
128
71
10
72
8
73
7
0
VERTEX
8
OBJECT__45
10
0
20
0
30
0
70
128
71
14
72
12
73
11
0
VERTEX
8
OBJECT__45
10
0
20
0
30
0
70
128
71
18
72
16
73
15
0
VERTEX
8
OBJECT__45
10
0
20
0
30
0
70
128
71
8
72
6
73
5
0
VERTEX
8
OBJECT__45
10
0
20
0
30
0
70
128
71
16
72
14
73
13
0
VERTEX
8
OBJECT__45
10
0
20
0
30
0
70
128
71
12
72
10
73
9
0
VERTEX
8
OBJECT__45
10
0
20
0
30
0
70
128
71
4
72
18
73
1
0
VERTEX
8
OBJECT__45
10
0
20
0
30
0
70
128
71
18
72
17
73
1
0
SEQEND
8
OBJECT__45
0
POLYLINE
8
OBJECT__46
66
1
70
64
71
40
72
40
62
253
0
VERTEX
8
OBJECT__46
10
7.966000
20
13.125000
30
107.733002
70
192
0
VERTEX
8
OBJECT__46
10
7.966000
20
0.000000
30
111.250000
70
192
0
VERTEX
8
OBJECT__46
10
14.850000
20
4.823000
30
110.803001
70
192
0
VERTEX
8
OBJECT__46
10
14.850000
20
0.000000
30
110.803001
70
192
0
VERTEX
8
OBJECT__46
10
14.850000
20
13.819000
30
107.318001
70
192
0
VERTEX
8
OBJECT__46
10
14.850000
20
20.948000
30
100.819000
70
192
0
VERTEX
8
OBJECT__46
10
7.966000
20
22.733000
30
98.125000
70
192
0
VERTEX
8
OBJECT__46
10
14.850000
20
13.076000
30
107.606003
70
192
0
VERTEX
8
OBJECT__46
10
7.966000
20
26.250000
30
85.000000
70
192
0
VERTEX
8
OBJECT__46
10
14.850000
20
25.247999
30
92.183998
70
192
0
VERTEX
8
OBJECT__46
10
14.850000
20
22.378000
30
97.947998
70
192
0
VERTEX
8
OBJECT__46
10
7.966000
20
22.733000
30
71.875000
70
192
0
VERTEX
8
OBJECT__46
10
14.850000
20
26.138000
30
82.578003
70
192
0
VERTEX
8
OBJECT__46
10
14.850000
20
23.497999
30
73.299004
70
192
0
VERTEX
8
OBJECT__46
10
14.850000
20
25.916000
30
84.969002
70
192
0
VERTEX
8
OBJECT__46
10
14.850000
20
22.535000
30
72.024002
70
192
0
VERTEX
8
OBJECT__46
10
14.850000
20
17.684999
30
65.600998
70
192
0
VERTEX
8
OBJECT__46
10
7.966000
20
13.125000
30
62.266998
70
192
0
VERTEX
8
OBJECT__46
10
7.966000
20
0.000000
30
58.750000
70
192
0
VERTEX
8
OBJECT__46
10
14.850000
20
9.483000
30
60.522999
70
192
0
VERTEX
8
OBJECT__46
10
14.850000
20
12.896000
30
62.636002
70
192
0
VERTEX
8
OBJECT__46
10
14.850000
20
0.000000
30
58.750000
70
192
0
VERTEX
8
OBJECT__46
10
14.850000
20
-9.483000
30
60.522999
70
192
0
VERTEX
8
OBJECT__46
10
7.966000
20
-13.125000
30
62.266998
70
192
0
VERTEX
8
OBJECT__46
10
7.966000
20
-22.733000
30
71.875000
70
192
0
VERTEX
8
OBJECT__46
10
14.850000
20
-17.684999
30
65.600998
70
192
0
VERTEX
8
OBJECT__46
10
14.850000
20
-12.896000
30
62.636002
70
192
0
VERTEX
8
OBJECT__46
10
14.850000
20
-23.497999
30
73.299004
70
192
0
VERTEX
8
OBJECT__46
10
14.850000
20
-26.138000
30
82.578003
70
192
0
VERTEX
8
OBJECT__46
10
7.966000
20
-26.250000
30
85.000000
70
192
0
VERTEX
8
OBJECT__46
10
14.850000
20
-22.535000
30
72.024002
70
192
0
VERTEX
8
OBJECT__46
10
14.850000
20
-25.916000
30
84.969002
70
192
0
VERTEX
8
OBJECT__46
10
14.850000
20
-25.247999
30
92.183998
70
192
0
VERTEX
8
OBJECT__46
10
7.966000
20
-22.733000
30
98.125000
70
192
0
VERTEX
8
OBJECT__46
10
7.966000
20
-13.125000
30
107.733002
70
192
0
VERTEX
8
OBJECT__46
10
14.850000
20
-20.948000
30
100.819000
70
192
0
VERTEX
8
OBJECT__46
10
14.850000
20
-13.819000
30
107.318001
70
192
0
VERTEX
8
OBJECT__46
10
14.850000
20
-22.378000
30
97.947998
70
192
0
VERTEX
8
OBJECT__46
10
14.850000
20
-13.076000
30
107.606003
70
192
0
VERTEX
8
OBJECT__46
10
14.850000
20
-4.823000
30
110.803001
70
192
0
VERTEX
8
OBJECT__46
10
0
20
0
30
0
70
128
71
1
72
2
73
3
0
VERTEX
8
OBJECT__46
10
0
20
0
30
0
70
128
71
2
72
4
73
3
0
VERTEX
8
OBJECT__46
10
0
20
0
30
0
70
128
71
1
72
5
73
6
0
VERTEX
8
OBJECT__46
10
0
20
0
30
0
70
128
71
6
72
7
73
1
0
VERTEX
8
OBJECT__46
10
0
20
0
30
0
70
128
71
1
72
8
73
5
0
VERTEX
8
OBJECT__46
10
0
20
0
30
0
70
128
71
9
72
7
73
10
0
VERTEX
8
OBJECT__46
10
0
20
0
30
0
70
128
71
7
72
11
73
10
0
VERTEX
8
OBJECT__46
10
0
20
0
30
0
70
128
71
12
72
9
73
13
0
VERTEX
8
OBJECT__46
10
0
20
0
30
0
70
128
71
13
72
14
73
12
0
VERTEX
8
OBJECT__46
10
0
20
0
30
0
70
128
71
9
72
15
73
13
0
VERTEX
8
OBJECT__46
10
0
20
0
30
0
70
128
71
12
72
16
73
17
0
VERTEX
8
OBJECT__46
10
0
20
0
30
0
70
128
71
17
72
18
73
12
0
VERTEX
8
OBJECT__46
10
0
20
0
30
0
70
128
71
19
72
18
73
20
0
VERTEX
8
OBJECT__46
10
0
20
0
30
0
70
128
71
18
72
21
73
20
0
VERTEX
8
OBJECT__46
10
0
20
0
30
0
70
128
71
19
72
22
73
23
0
VERTEX
8
OBJECT__46
10
0
20
0
30
0
70
128
71
23
72
24
73
19
0
VERTEX
8
OBJECT__46
10
0
20
0
30
0
70
128
71
25
72
24
73
26
0
VERTEX
8
OBJECT__46
10
0
20
0
30
0
70
128
71
24
72
27
73
26
0
VERTEX
8
OBJECT__46
10
0
20
0
30
0
70
128
71
25
72
28
73
29
0
VERTEX
8
OBJECT__46
10
0
20
0
30
0
70
128
71
29
72
30
73
25
0
VERTEX
8
OBJECT__46
10
0
20
0
30
0
70
128
71
25
72
31
73
28
0
VERTEX
8
OBJECT__46
10
0
20
0
30
0
70
128
71
30
72
32
73
33
0
VERTEX
8
OBJECT__46
10
0
20
0
30
0
70
128
71
33
72
34
73
30
0
VERTEX
8
OBJECT__46
10
0
20
0
30
0
70
128
71
35
72
34
73
36
0
VERTEX
8
OBJECT__46
10
0
20
0
30
0
70
128
71
36
72
37
73
35
0
VERTEX
8
OBJECT__46
10
0
20
0
30
0
70
128
71
34
72
38
73
36
0
VERTEX
8
OBJECT__46
10
0
20
0
30
0
70
128
71
35
72
39
73
40
0
VERTEX
8
OBJECT__46
10
0
20
0
30
0
70
128
71
40
72
2
73
35
0
VERTEX
8
OBJECT__46
10
0
20
0
30
0
70
128
71
40
72
4
73
2
0
VERTEX
8
OBJECT__46
10
0
20
0
30
0
70
128
71
37
72
39
73
35
0
VERTEX
8
OBJECT__46
10
0
20
0
30
0
70
128
71
33
72
38
73
34
0
VERTEX
8
OBJECT__46
10
0
20
0
30
0
70
128
71
29
72
32
73
30
0
VERTEX
8
OBJECT__46
10
0
20
0
30
0
70
128
71
26
72
31
73
25
0
VERTEX
8
OBJECT__46
10
0
20
0
30
0
70
128
71
23
72
27
73
24
0
VERTEX
8
OBJECT__46
10
0
20
0
30
0
70
128
71
20
72
22
73
19
0
VERTEX
8
OBJECT__46
10
0
20
0
30
0
70
128
71
17
72
21
73
18
0
VERTEX
8
OBJECT__46
10
0
20
0
30
0
70
128
71
14
72
16
73
12
0
VERTEX
8
OBJECT__46
10
0
20
0
30
0
70
128
71
10
72
15
73
9
0
VERTEX
8
OBJECT__46
10
0
20
0
30
0
70
128
71
6
72
11
73
7
0
VERTEX
8
OBJECT__46
10
0
20
0
30
0
70
128
71
3
72
8
73
1
0
SEQEND
8
OBJECT__46
0
POLYLINE
8
OBJECT__47
66
1
70
64
71
62
72
79
62
253
0
VERTEX
8
OBJECT__47
10
14.850000
20
0.000000
30
58.750000
70
192
0
VERTEX
8
OBJECT__47
10
14.850000
20
9.483000
30
60.522999
70
192
0
VERTEX
8
OBJECT__47
10
16.264000
20
9.271000
30
61.069000
70
192
0
VERTEX
8
OBJECT__47
10
16.264000
20
17.290001
30
66.033997
70
192
0
VERTEX
8
OBJECT__47
10
14.850000
20
12.896000
30
62.636002
70
192
0
VERTEX
8
OBJECT__47
10
14.850000
20
17.684999
30
65.600998
70
192
0
VERTEX
8
OBJECT__47
10
14.850000
20
22.535000
30
72.024002
70
192
0
VERTEX
8
OBJECT__47
10
16.264000
20
22.974001
30
73.559998
70
192
0
VERTEX
8
OBJECT__47
10
14.850000
20
23.497999
30
73.299004
70
192
0
VERTEX
8
OBJECT__47
10
14.850000
20
26.138000
30
82.578003
70
192
0
VERTEX
8
OBJECT__47
10
16.264000
20
25.555000
30
82.632004
70
192
0
VERTEX
8
OBJECT__47
10
16.264000
20
24.684000
30
92.023003
70
192
0
VERTEX
8
OBJECT__47
10
14.850000
20
25.916000
30
84.969002
70
192
0
VERTEX
8
OBJECT__47
10
14.850000
20
25.247999
30
92.183998
70
192
0
VERTEX
8
OBJECT__47
10
14.850000
20
22.378000
30
97.947998
70
192
0
VERTEX
8
OBJECT__47
10
16.264000
20
20.480000
30
100.466003
70
192
0
VERTEX
8
OBJECT__47
10
14.850000
20
20.948000
30
100.819000
70
192
0
VERTEX
8
OBJECT__47
10
14.850000
20
13.819000
30
107.318001
70
192
0
VERTEX
8
OBJECT__47
10
16.264000
20
13.510000
30
106.820000
70
192
0
VERTEX
8
OBJECT__47
10
16.264000
20
4.716000
30
110.226997
70
192
0
VERTEX
8
OBJECT__47
10
14.850000
20
13.076000
30
107.606003
70
192
0
VERTEX
8
OBJECT__47
10
14.850000
20
4.823000
30
110.803001
70
192
0
VERTEX
8
OBJECT__47
10
14.850000
20
0.000000
30
110.803001
70
192
0
VERTEX
8
OBJECT__47
10
16.264000
20
-4.716000
30
110.226997
70
192
0
VERTEX
8
OBJECT__47
10
14.850000
20
-4.823000
30
110.803001
70
192
0
VERTEX
8
OBJECT__47
10
14.850000
20
-13.076000
30
107.606003
70
192
0
VERTEX
8
OBJECT__47
10
16.264000
20
-13.510000
30
106.820000
70
192
0
VERTEX
8
OBJECT__47
10
14.850000
20
-13.819000
30
107.318001
70
192
0
VERTEX
8
OBJECT__47
10
14.850000
20
-20.948000
30
100.819000
70
192
0
VERTEX
8
OBJECT__47
10
16.264000
20
-20.480000
30
100.466003
70
192
0
VERTEX
8
OBJECT__47
10
16.264000
20
-24.684000
30
92.023003
70
192
0
VERTEX
8
OBJECT__47
10
14.850000
20
-22.378000
30
97.947998
70
192
0
VERTEX
8
OBJECT__47
10
14.850000
20
-25.247999
30
92.183998
70
192
0
VERTEX
8
OBJECT__47
10
14.850000
20
-25.916000
30
84.969002
70
192
0
VERTEX
8
OBJECT__47
10
16.264000
20
-25.555000
30
82.632004
70
192
0
VERTEX
8
OBJECT__47
10
14.850000
20
-23.497999
30
73.299004
70
192
0
VERTEX
8
OBJECT__47
10
16.264000
20
-22.974001
30
73.559998
70
192
0
VERTEX
8
OBJECT__47
10
16.264000
20
-17.290001
30
66.033997
70
192
0
VERTEX
8
OBJECT__47
10
14.850000
20
-22.535000
30
72.024002
70
192
0
VERTEX
8
OBJECT__47
10
14.850000
20
-17.684999
30
65.600998
70
192
0
VERTEX
8
OBJECT__47
10
14.850000
20
-12.896000
30
62.636002
70
192
0
VERTEX
8
OBJECT__47
10
16.264000
20
-9.271000
30
61.069000
70
192
0
VERTEX
8
OBJECT__47
10
14.850000
20
-9.483000
30
60.522999
70
192
0
VERTEX
8
OBJECT__47
10
16.264000
20
0.000000
30
59.335999
70
192
0
VERTEX
8
OBJECT__47
10
16.850000
20
8.760000
30
62.388000
70
192
0
VERTEX
8
OBJECT__47
10
16.850000
20
16.337000
30
67.079002
70
192
0
VERTEX
8
OBJECT__47
10
16.850000
20
21.708000
30
74.191002
70
192
0
VERTEX
8
OBJECT__47
10
16.850000
20
24.146999
30
82.762001
70
192
0
VERTEX
8
OBJECT__47
10
16.850000
20
23.323999
30
91.636002
70
192
0
VERTEX
8
OBJECT__47
10
16.850000
20
19.351999
30
99.613998
70
192
0
VERTEX
8
OBJECT__47
10
16.850000
20
12.766000
30
105.617996
70
192
0
VERTEX
8
OBJECT__47
10
16.850000
20
4.456000
30
108.836998
70
192
0
VERTEX
8
OBJECT__47
10
16.850000
20
-4.456000
30
108.836998
70
192
0
VERTEX
8
OBJECT__47
10
16.850000
20
-12.766000
30
105.617996
70
192
0
VERTEX
8
OBJECT__47
10
16.850000
20
-19.351999
30
99.613998
70
192
0
VERTEX
8
OBJECT__47
10
16.850000
20
-23.323999
30
91.636002
70
192
0
VERTEX
8
OBJECT__47
10
16.850000
20
-24.146999
30
82.762001
70
192
0
VERTEX
8
OBJECT__47
10
16.850000
20
-21.708000
30
74.191002
70
192
0
VERTEX
8
OBJECT__47
10
16.850000
20
-16.337000
30
67.079002
70
192
0
VERTEX
8
OBJECT__47
10
16.850000
20
-8.760000
30
62.388000
70
192
0
VERTEX
8
OBJECT__47
10
16.850000
20
0.000000
30
60.750000
70
192
0
VERTEX
8
OBJECT__47
10
14.850000
20
-26.138000
30
82.578003
70
192
0
VERTEX
8
OBJECT__47
10
0
20
0
30
0
70
128
71
1
72
2
73
3
0
VERTEX
8
OBJECT__47
10
0
20
0
30
0
70
128
71
4
72
3
73
5
0
VERTEX
8
OBJECT__47
10
0
20
0
30
0
70
128
71
3
72
2
73
5
0
VERTEX
8
OBJECT__47
10
0
20
0
30
0
70
128
71
4
72
6
73
7
0
VERTEX
8
OBJECT__47
10
0
20
0
30
0
70
128
71
7
72
8
73
4
0
VERTEX
8
OBJECT__47
10
0
20
0
30
0
70
128
71
9
72
10
73
11
0
VERTEX
8
OBJECT__47
10
0
20
0
30
0
70
128
71
12
72
11
73
13
0
VERTEX
8
OBJECT__47
10
0
20
0
30
0
70
128
71
11
72
10
73
13
0
VERTEX
8
OBJECT__47
10
0
20
0
30
0
70
128
71
12
72
14
73
15
0
VERTEX
8
OBJECT__47
10
0
20
0
30
0
70
128
71
15
72
16
73
12
0
VERTEX
8
OBJECT__47
10
0
20
0
30
0
70
128
71
17
72
18
73
19
0
VERTEX
8
OBJECT__47
10
0
20
0
30
0
70
128
71
20
72
19
73
21
0
VERTEX
8
OBJECT__47
10
0
20
0
30
0
70
128
71
19
72
18
73
21
0
VERTEX
8
OBJECT__47
10
0
20
0
30
0
70
128
71
20
72
22
73
23
0
VERTEX
8
OBJECT__47
10
0
20
0
30
0
70
128
71
23
72
24
73
20
0
VERTEX
8
OBJECT__47
10
0
20
0
30
0
70
128
71
24
72
25
73
26
0
VERTEX
8
OBJECT__47
10
0
20
0
30
0
70
128
71
26
72
27
73
24
0
VERTEX
8
OBJECT__47
10
0
20
0
30
0
70
128
71
28
72
29
73
30
0
VERTEX
8
OBJECT__47
10
0
20
0
30
0
70
128
71
31
72
30
73
32
0
VERTEX
8
OBJECT__47
10
0
20
0
30
0
70
128
71
30
72
29
73
32
0
VERTEX
8
OBJECT__47
10
0
20
0
30
0
70
128
71
31
72
33
73
34
0
VERTEX
8
OBJECT__47
10
0
20
0
30
0
70
128
71
34
72
35
73
31
0
VERTEX
8
OBJECT__47
10
0
20
0
30
0
70
128
71
36
72
37
73
35
0
VERTEX
8
OBJECT__47
10
0
20
0
30
0
70
128
71
38
72
37
73
39
0
VERTEX
8
OBJECT__47
10
0
20
0
30
0
70
128
71
37
72
36
73
39
0
VERTEX
8
OBJECT__47
10
0
20
0
30
0
70
128
71
38
72
40
73
41
0
VERTEX
8
OBJECT__47
10
0
20
0
30
0
70
128
71
41
72
42
73
38
0
VERTEX
8
OBJECT__47
10
0
20
0
30
0
70
128
71
43
72
1
73
44
0
VERTEX
8
OBJECT__47
10
0
20
0
30
0
70
128
71
44
72
3
73
45
0
VERTEX
8
OBJECT__47
10
0
20
0
30
0
70
128
71
3
72
4
73
46
0
VERTEX
8
OBJECT__47
10
0
20
0
30
0
70
128
71
4
72
8
73
47
0
VERTEX
8
OBJECT__47
10
0
20
0
30
0
70
128
71
8
72
11
73
48
0
VERTEX
8
OBJECT__47
10
0
20
0
30
0
70
128
71
12
72
49
73
48
0
VERTEX
8
OBJECT__47
10
0
20
0
30
0
70
128
71
16
72
50
73
49
0
VERTEX
8
OBJECT__47
10
0
20
0
30
0
70
128
71
16
72
19
73
51
0
VERTEX
8
OBJECT__47
10
0
20
0
30
0
70
128
71
20
72
52
73
51
0
VERTEX
8
OBJECT__47
10
0
20
0
30
0
70
128
71
24
72
53
73
52
0
VERTEX
8
OBJECT__47
10
0
20
0
30
0
70
128
71
27
72
54
73
53
0
VERTEX
8
OBJECT__47
10
0
20
0
30
0
70
128
71
27
72
30
73
55
0
VERTEX
8
OBJECT__47
10
0
20
0
30
0
70
128
71
30
72
31
73
56
0
VERTEX
8
OBJECT__47
10
0
20
0
30
0
70
128
71
35
72
57
73
56
0
VERTEX
8
OBJECT__47
10
0
20
0
30
0
70
128
71
37
72
58
73
57
0
VERTEX
8
OBJECT__47
10
0
20
0
30
0
70
128
71
37
72
38
73
59
0
VERTEX
8
OBJECT__47
10
0
20
0
30
0
70
128
71
38
72
42
73
60
0
VERTEX
8
OBJECT__47
10
0
20
0
30
0
70
128
71
42
72
44
73
61
0
VERTEX
8
OBJECT__47
10
0
20
0
30
0
70
128
71
61
72
60
73
42
0
VERTEX
8
OBJECT__47
10
0
20
0
30
0
70
128
71
60
72
59
73
38
0
VERTEX
8
OBJECT__47
10
0
20
0
30
0
70
128
71
59
72
58
73
37
0
VERTEX
8
OBJECT__47
10
0
20
0
30
0
70
128
71
57
72
35
73
37
0
VERTEX
8
OBJECT__47
10
0
20
0
30
0
70
128
71
56
72
31
73
35
0
VERTEX
8
OBJECT__47
10
0
20
0
30
0
70
128
71
56
72
55
73
30
0
VERTEX
8
OBJECT__47
10
0
20
0
30
0
70
128
71
55
72
54
73
27
0
VERTEX
8
OBJECT__47
10
0
20
0
30
0
70
128
71
53
72
24
73
27
0
VERTEX
8
OBJECT__47
10
0
20
0
30
0
70
128
71
52
72
20
73
24
0
VERTEX
8
OBJECT__47
10
0
20
0
30
0
70
128
71
51
72
19
73
20
0
VERTEX
8
OBJECT__47
10
0
20
0
30
0
70
128
71
51
72
50
73
16
0
VERTEX
8
OBJECT__47
10
0
20
0
30
0
70
128
71
49
72
12
73
16
0
VERTEX
8
OBJECT__47
10
0
20
0
30
0
70
128
71
48
72
11
73
12
0
VERTEX
8
OBJECT__47
10
0
20
0
30
0
70
128
71
48
72
47
73
8
0
VERTEX
8
OBJECT__47
10
0
20
0
30
0
70
128
71
47
72
46
73
4
0
VERTEX
8
OBJECT__47
10
0
20
0
30
0
70
128
71
46
72
45
73
3
0
VERTEX
8
OBJECT__47
10
0
20
0
30
0
70
128
71
45
72
61
73
44
0
VERTEX
8
OBJECT__47
10
0
20
0
30
0
70
128
71
44
72
42
73
43
0
VERTEX
8
OBJECT__47
10
0
20
0
30
0
70
128
71
41
72
43
73
42
0
VERTEX
8
OBJECT__47
10
0
20
0
30
0
70
128
71
39
72
40
73
38
0
VERTEX
8
OBJECT__47
10
0
20
0
30
0
70
128
71
35
72
62
73
36
0
VERTEX
8
OBJECT__47
10
0
20
0
30
0
70
128
71
34
72
62
73
35
0
VERTEX
8
OBJECT__47
10
0
20
0
30
0
70
128
71
32
72
33
73
31
0
VERTEX
8
OBJECT__47
10
0
20
0
30
0
70
128
71
30
72
27
73
28
0
VERTEX
8
OBJECT__47
10
0
20
0
30
0
70
128
71
26
72
28
73
27
0
VERTEX
8
OBJECT__47
10
0
20
0
30
0
70
128
71
23
72
25
73
24
0
VERTEX
8
OBJECT__47
10
0
20
0
30
0
70
128
71
21
72
22
73
20
0
VERTEX
8
OBJECT__47
10
0
20
0
30
0
70
128
71
19
72
16
73
17
0
VERTEX
8
OBJECT__47
10
0
20
0
30
0
70
128
71
15
72
17
73
16
0
VERTEX
8
OBJECT__47
10
0
20
0
30
0
70
128
71
13
72
14
73
12
0
VERTEX
8
OBJECT__47
10
0
20
0
30
0
70
128
71
11
72
8
73
9
0
VERTEX
8
OBJECT__47
10
0
20
0
30
0
70
128
71
7
72
9
73
8
0
VERTEX
8
OBJECT__47
10
0
20
0
30
0
70
128
71
5
72
6
73
4
0
VERTEX
8
OBJECT__47
10
0
20
0
30
0
70
128
71
3
72
44
73
1
0
SEQEND
8
OBJECT__47
0
POLYLINE
8
OBJECT__49
66
1
70
64
71
17
72
15
62
253
0
VERTEX
8
OBJECT__49
10
16.850000
20
0.000000
30
60.750000
70
192
0
VERTEX
8
OBJECT__49
10
16.850000
20
-24.146999
30
82.762001
70
192
0
VERTEX
8
OBJECT__49
10
16.850000
20
-21.708000
30
74.191002
70
192
0
VERTEX
8
OBJECT__49
10
16.850000
20
-19.351999
30
99.613998
70
192
0
VERTEX
8
OBJECT__49
10
16.850000
20
-23.323999
30
91.636002
70
192
0
VERTEX
8
OBJECT__49
10
16.850000
20
23.323999
30
91.636002
70
192
0
VERTEX
8
OBJECT__49
10
16.850000
20
16.337000
30
67.079002
70
192
0
VERTEX
8
OBJECT__49
10
16.850000
20
21.708000
30
74.191002
70
192
0
VERTEX
8
OBJECT__49
10
16.850000
20
8.760000
30
62.388000
70
192
0
VERTEX
8
OBJECT__49
10
16.850000
20
-16.337000
30
67.079002
70
192
0
VERTEX
8
OBJECT__49
10
16.850000
20
-12.766000
30
105.617996
70
192
0
VERTEX
8
OBJECT__49
10
16.850000
20
4.456000
30
108.836998
70
192
0
VERTEX
8
OBJECT__49
10
16.850000
20
-4.456000
30
108.836998
70
192
0
VERTEX
8
OBJECT__49
10
16.850000
20
19.351999
30
99.613998
70
192
0
VERTEX
8
OBJECT__49
10
16.850000
20
12.766000
30
105.617996
70
192
0
VERTEX
8
OBJECT__49
10
16.850000
20
24.146999
30
82.762001
70
192
0
VERTEX
8
OBJECT__49
10
16.850000
20
-8.760000
30
62.388000
70
192
0
VERTEX
8
OBJECT__49
10
0
20
0
30
0
70
128
71
1
72
2
73
3
0
VERTEX
8
OBJECT__49
10
0
20
0
30
0
70
128
71
1
72
4
73
5
0
VERTEX
8
OBJECT__49
10
0
20
0
30
0
70
128
71
6
72
7
73
8
0
VERTEX
8
OBJECT__49
10
0
20
0
30
0
70
128
71
6
72
1
73
9
0
VERTEX
8
OBJECT__49
10
0
20
0
30
0
70
128
71
3
72
10
73
1
0
VERTEX
8
OBJECT__49
10
0
20
0
30
0
70
128
71
1
72
11
73
4
0
VERTEX
8
OBJECT__49
10
0
20
0
30
0
70
128
71
9
72
7
73
6
0
VERTEX
8
OBJECT__49
10
0
20
0
30
0
70
128
71
5
72
2
73
1
0
VERTEX
8
OBJECT__49
10
0
20
0
30
0
70
128
71
1
72
12
73
13
0
VERTEX
8
OBJECT__49
10
0
20
0
30
0
70
128
71
1
72
14
73
15
0
VERTEX
8
OBJECT__49
10
0
20
0
30
0
70
128
71
8
72
16
73
6
0
VERTEX
8
OBJECT__49
10
0
20
0
30
0
70
128
71
13
72
11
73
1
0
VERTEX
8
OBJECT__49
10
0
20
0
30
0
70
128
71
6
72
14
73
1
0
VERTEX
8
OBJECT__49
10
0
20
0
30
0
70
128
71
15
72
12
73
1
0
VERTEX
8
OBJECT__49
10
0
20
0
30
0
70
128
71
10
72
17
73
1
0
SEQEND
8
OBJECT__49
0
POLYLINE
8
OBJECT__50
66
1
70
64
71
7
72
5
62
253
0
VERTEX
8
OBJECT__50
10
94.949997
20
5.196000
30
69.000000
70
192
0
VERTEX
8
OBJECT__50
10
97.949997
20
0.000000
30
69.000000
70
192
0
VERTEX
8
OBJECT__50
10
94.949997
20
-5.196000
30
69.000000
70
192
0
VERTEX
8
OBJECT__50
10
88.949997
20
-5.196000
30
69.000000
70
192
0
VERTEX
8
OBJECT__50
10
91.949997
20
6.000000
30
69.000000
70
192
0
VERTEX
8
OBJECT__50
10
85.949997
20
0.000000
30
69.000000
70
192
0
VERTEX
8
OBJECT__50
10
88.949997
20
5.196000
30
69.000000
70
192
0
VERTEX
8
OBJECT__50
10
0
20
0
30
0
70
128
71
1
72
2
73
3
0
VERTEX
8
OBJECT__50
10
0
20
0
30
0
70
128
71
4
72
5
73
1
0
VERTEX
8
OBJECT__50
10
0
20
0
30
0
70
128
71
4
72
6
73
7
0
VERTEX
8
OBJECT__50
10
0
20
0
30
0
70
128
71
7
72
5
73
4
0
VERTEX
8
OBJECT__50
10
0
20
0
30
0
70
128
71
3
72
4
73
1
0
SEQEND
8
OBJECT__50
0
POLYLINE
8
OBJECT__51
66
1
70
64
71
44
72
46
62
253
0
VERTEX
8
OBJECT__51
10
97.949997
20
0.000000
30
69.000000
70
192
0
VERTEX
8
OBJECT__51
10
94.949997
20
5.196000
30
69.000000
70
192
0
VERTEX
8
OBJECT__51
10
94.949997
20
5.196000
30
145.000000
70
192
0
VERTEX
8
OBJECT__51
10
94.949997
20
-5.196000
30
69.000000
70
192
0
VERTEX
8
OBJECT__51
10
97.949997
20
0.000000
30
145.000000
70
192
0
VERTEX
8
OBJECT__51
10
85.949997
20
0.000000
30
69.000000
70
192
0
VERTEX
8
OBJECT__51
10
86.139000
20
-1.496000
30
74.101997
70
192
0
VERTEX
8
OBJECT__51
10
86.009003
20
0.001000
30
74.031998
70
192
0
VERTEX
8
OBJECT__51
10
88.949997
20
-5.196000
30
69.000000
70
192
0
VERTEX
8
OBJECT__51
10
87.028999
20
-3.433000
30
74.549004
70
192
0
VERTEX
8
OBJECT__51
10
88.976997
20
-5.145000
30
75.287003
70
192
0
VERTEX
8
OBJECT__51
10
88.403999
20
-4.840000
30
75.122002
70
192
0
VERTEX
8
OBJECT__51
10
88.949997
20
5.196000
30
69.000000
70
192
0
VERTEX
8
OBJECT__51
10
87.258003
20
3.740000
30
74.654999
70
192
0
VERTEX
8
OBJECT__51
10
88.708000
20
5.049000
30
75.226997
70
192
0
VERTEX
8
OBJECT__51
10
86.367996
20
2.200000
30
74.222000
70
192
0
VERTEX
8
OBJECT__51
10
85.968002
20
0.471000
30
74.010002
70
192
0
VERTEX
8
OBJECT__51
10
86.009003
20
0.005000
30
74.031998
70
192
0
VERTEX
8
OBJECT__51
10
91.949997
20
6.000000
30
145.000000
70
192
0
VERTEX
8
OBJECT__51
10
90.480003
20
5.817000
30
94.335999
70
192
0
VERTEX
8
OBJECT__51
10
88.976997
20
5.136000
30
94.718002
70
192
0
VERTEX
8
OBJECT__51
10
91.949997
20
6.000000
30
94.220001
70
192
0
VERTEX
8
OBJECT__51
10
88.949997
20
5.196000
30
145.000000
70
192
0
VERTEX
8
OBJECT__51
10
91.949997
20
6.000000
30
75.779999
70
192
0
VERTEX
8
OBJECT__51
10
91.949997
20
6.000000
30
69.000000
70
192
0
VERTEX
8
OBJECT__51
10
88.967003
20
5.156000
30
75.288002
70
192
0
VERTEX
8
OBJECT__51
10
90.679001
20
5.864000
30
75.693001
70
192
0
VERTEX
8
OBJECT__51
10
86.308998
20
2.045000
30
95.807999
70
192
0
VERTEX
8
OBJECT__51
10
85.957001
20
0.294000
30
95.996002
70
192
0
VERTEX
8
OBJECT__51
10
88.543999
20
4.940000
30
94.828003
70
192
0
VERTEX
8
OBJECT__51
10
87.151001
20
3.602000
30
95.393997
70
192
0
VERTEX
8
OBJECT__51
10
85.949997
20
0.000000
30
145.000000
70
192
0
VERTEX
8
OBJECT__51
10
88.949997
20
-5.196000
30
145.000000
70
192
0
VERTEX
8
OBJECT__51
10
87.146004
20
-3.595000
30
95.396004
70
192
0
VERTEX
8
OBJECT__51
10
88.540001
20
-4.937000
30
94.830002
70
192
0
VERTEX
8
OBJECT__51
10
86.193001
20
-1.690000
30
95.869003
70
192
0
VERTEX
8
OBJECT__51
10
85.990997
20
0.005000
30
95.977997
70
192
0
VERTEX
8
OBJECT__51
10
85.991997
20
0.001000
30
95.976997
70
192
0
VERTEX
8
OBJECT__51
10
91.949997
20
-6.000000
30
75.779999
70
192
0
VERTEX
8
OBJECT__51
10
89.920998
20
-5.647000
30
75.559998
70
192
0
VERTEX
8
OBJECT__51
10
94.949997
20
-5.196000
30
145.000000
70
192
0
VERTEX
8
OBJECT__51
10
91.949997
20
-6.000000
30
94.220001
70
192
0
VERTEX
8
OBJECT__51
10
88.973000
20
-5.149000
30
94.711998
70
192
0
VERTEX
8
OBJECT__51
10
90.139000
20
-5.720000
30
94.396004
70
192
0
VERTEX
8
OBJECT__51
10
0
20
0
30
0
70
128
71
1
72
2
73
3
0
VERTEX
8
OBJECT__51
10
0
20
0
30
0
70
128
71
4
72
1
73
5
0
VERTEX
8
OBJECT__51
10
0
20
0
30
0
70
128
71
6
72
7
73
8
0
VERTEX
8
OBJECT__51
10
0
20
0
30
0
70
128
71
9
72
10
73
7
0
VERTEX
8
OBJECT__51
10
0
20
0
30
0
70
128
71
9
72
11
73
12
0
VERTEX
8
OBJECT__51
10
0
20
0
30
0
70
128
71
12
72
10
73
9
0
VERTEX
8
OBJECT__51
10
0
20
0
30
0
70
128
71
7
72
6
73
9
0
VERTEX
8
OBJECT__51
10
0
20
0
30
0
70
128
71
13
72
14
73
15
0
VERTEX
8
OBJECT__51
10
0
20
0
30
0
70
128
71
13
72
16
73
14
0
VERTEX
8
OBJECT__51
10
0
20
0
30
0
70
128
71
6
72
17
73
16
0
VERTEX
8
OBJECT__51
10
0
20
0
30
0
70
128
71
16
72
13
73
6
0
VERTEX
8
OBJECT__51
10
0
20
0
30
0
70
128
71
6
72
18
73
17
0
VERTEX
8
OBJECT__51
10
0
20
0
30
0
70
128
71
19
72
20
73
21
0
VERTEX
8
OBJECT__51
10
0
20
0
30
0
70
128
71
19
72
22
73
20
0
VERTEX
8
OBJECT__51
10
0
20
0
30
0
70
128
71
21
72
23
73
19
0
VERTEX
8
OBJECT__51
10
0
20
0
30
0
70
128
71
2
72
24
73
22
0
VERTEX
8
OBJECT__51
10
0
20
0
30
0
70
128
71
22
72
3
73
2
0
VERTEX
8
OBJECT__51
10
0
20
0
30
0
70
128
71
25
72
13
73
26
0
VERTEX
8
OBJECT__51
10
0
20
0
30
0
70
128
71
26
72
27
73
25
0
VERTEX
8
OBJECT__51
10
0
20
0
30
0
70
128
71
24
72
2
73
25
0
VERTEX
8
OBJECT__51
10
0
20
0
30
0
70
128
71
27
72
24
73
25
0
VERTEX
8
OBJECT__51
10
0
20
0
30
0
70
128
71
23
72
28
73
29
0
VERTEX
8
OBJECT__51
10
0
20
0
30
0
70
128
71
23
72
21
73
30
0
VERTEX
8
OBJECT__51
10
0
20
0
30
0
70
128
71
30
72
31
73
23
0
VERTEX
8
OBJECT__51
10
0
20
0
30
0
70
128
71
31
72
28
73
23
0
VERTEX
8
OBJECT__51
10
0
20
0
30
0
70
128
71
29
72
32
73
23
0
VERTEX
8
OBJECT__51
10
0
20
0
30
0
70
128
71
33
72
34
73
35
0
VERTEX
8
OBJECT__51
10
0
20
0
30
0
70
128
71
33
72
36
73
34
0
VERTEX
8
OBJECT__51
10
0
20
0
30
0
70
128
71
33
72
32
73
37
0
VERTEX
8
OBJECT__51
10
0
20
0
30
0
70
128
71
37
72
38
73
33
0
VERTEX
8
OBJECT__51
10
0
20
0
30
0
70
128
71
38
72
36
73
33
0
VERTEX
8
OBJECT__51
10
0
20
0
30
0
70
128
71
9
72
4
73
39
0
VERTEX
8
OBJECT__51
10
0
20
0
30
0
70
128
71
39
72
40
73
9
0
VERTEX
8
OBJECT__51
10
0
20
0
30
0
70
128
71
4
72
41
73
42
0
VERTEX
8
OBJECT__51
10
0
20
0
30
0
70
128
71
42
72
39
73
4
0
VERTEX
8
OBJECT__51
10
0
20
0
30
0
70
128
71
41
72
33
73
43
0
VERTEX
8
OBJECT__51
10
0
20
0
30
0
70
128
71
43
72
44
73
41
0
VERTEX
8
OBJECT__51
10
0
20
0
30
0
70
128
71
44
72
42
73
41
0
VERTEX
8
OBJECT__51
10
0
20
0
30
0
70
128
71
40
72
11
73
9
0
VERTEX
8
OBJECT__51
10
0
20
0
30
0
70
128
71
35
72
43
73
33
0
VERTEX
8
OBJECT__51
10
0
20
0
30
0
70
128
71
29
72
37
73
32
0
VERTEX
8
OBJECT__51
10
0
20
0
30
0
70
128
71
19
72
3
73
22
0
VERTEX
8
OBJECT__51
10
0
20
0
30
0
70
128
71
15
72
26
73
13
0
VERTEX
8
OBJECT__51
10
0
20
0
30
0
70
128
71
8
72
18
73
6
0
VERTEX
8
OBJECT__51
10
0
20
0
30
0
70
128
71
5
72
41
73
4
0
VERTEX
8
OBJECT__51
10
0
20
0
30
0
70
128
71
3
72
5
73
1
0
SEQEND
8
OBJECT__51
0
POLYLINE
8
OBJECT__53
66
1
70
64
71
44
72
44
62
253
0
VERTEX
8
OBJECT__53
10
91.949997
20
11.000000
30
85.000000
70
192
0
VERTEX
8
OBJECT__53
10
71.449997
20
11.000000
30
85.000000
70
192
0
VERTEX
8
OBJECT__53
10
71.449997
20
7.778000
30
92.778000
70
192
0
VERTEX
8
OBJECT__53
10
71.449997
20
7.778000
30
77.222000
70
192
0
VERTEX
8
OBJECT__53
10
71.449997
20
-11.000000
30
85.000000
70
192
0
VERTEX
8
OBJECT__53
10
71.449997
20
-7.778000
30
77.222000
70
192
0
VERTEX
8
OBJECT__53
10
91.949997
20
-7.778000
30
77.222000
70
192
0
VERTEX
8
OBJECT__53
10
91.949997
20
-7.778000
30
92.778000
70
192
0
VERTEX
8
OBJECT__53
10
71.449997
20
-7.778000
30
92.778000
70
192
0
VERTEX
8
OBJECT__53
10
71.449997
20
0.000000
30
74.000000
70
192
0
VERTEX
8
OBJECT__53
10
85.968002
20
0.471000
30
74.010002
70
192
0
VERTEX
8
OBJECT__53
10
86.009003
20
0.005000
30
74.031998
70
192
0
VERTEX
8
OBJECT__53
10
86.367996
20
2.200000
30
74.222000
70
192
0
VERTEX
8
OBJECT__53
10
87.258003
20
3.740000
30
74.654999
70
192
0
VERTEX
8
OBJECT__53
10
88.708000
20
5.049000
30
75.226997
70
192
0
VERTEX
8
OBJECT__53
10
91.949997
20
7.778000
30
77.222000
70
192
0
VERTEX
8
OBJECT__53
10
90.679001
20
5.864000
30
75.693001
70
192
0
VERTEX
8
OBJECT__53
10
88.967003
20
5.156000
30
75.288002
70
192
0
VERTEX
8
OBJECT__53
10
91.949997
20
6.000000
30
75.779999
70
192
0
VERTEX
8
OBJECT__53
10
88.976997
20
-5.145000
30
75.287003
70
192
0
VERTEX
8
OBJECT__53
10
89.920998
20
-5.647000
30
75.559998
70
192
0
VERTEX
8
OBJECT__53
10
88.403999
20
-4.840000
30
75.122002
70
192
0
VERTEX
8
OBJECT__53
10
87.028999
20
-3.433000
30
74.549004
70
192
0
VERTEX
8
OBJECT__53
10
86.139000
20
-1.496000
30
74.101997
70
192
0
VERTEX
8
OBJECT__53
10
86.009003
20
0.001000
30
74.031998
70
192
0
VERTEX
8
OBJECT__53
10
71.449997
20
0.000000
30
96.000000
70
192
0
VERTEX
8
OBJECT__53
10
86.193001
20
-1.690000
30
95.869003
70
192
0
VERTEX
8
OBJECT__53
10
90.139000
20
-5.720000
30
94.396004
70
192
0
VERTEX
8
OBJECT__53
10
88.973000
20
-5.149000
30
94.711998
70
192
0
VERTEX
8
OBJECT__53
10
88.540001
20
-4.937000
30
94.830002
70
192
0
VERTEX
8
OBJECT__53
10
87.146004
20
-3.595000
30
95.396004
70
192
0
VERTEX
8
OBJECT__53
10
91.949997
20
-6.000000
30
94.220001
70
192
0
VERTEX
8
OBJECT__53
10
88.976997
20
5.136000
30
94.718002
70
192
0
VERTEX
8
OBJECT__53
10
90.480003
20
5.817000
30
94.335999
70
192
0
VERTEX
8
OBJECT__53
10
88.543999
20
4.940000
30
94.828003
70
192
0
VERTEX
8
OBJECT__53
10
85.957001
20
0.294000
30
95.996002
70
192
0
VERTEX
8
OBJECT__53
10
86.308998
20
2.045000
30
95.807999
70
192
0
VERTEX
8
OBJECT__53
10
87.151001
20
3.602000
30
95.393997
70
192
0
VERTEX
8
OBJECT__53
10
91.949997
20
7.778000
30
92.778000
70
192
0
VERTEX
8
OBJECT__53
10
85.991997
20
0.001000
30
95.976997
70
192
0
VERTEX
8
OBJECT__53
10
85.990997
20
0.005000
30
95.977997
70
192
0
VERTEX
8
OBJECT__53
10
91.949997
20
6.000000
30
94.220001
70
192
0
VERTEX
8
OBJECT__53
10
91.949997
20
-6.000000
30
75.779999
70
192
0
VERTEX
8
OBJECT__53
10
91.949997
20
-11.000000
30
85.000000
70
192
0
VERTEX
8
OBJECT__53
10
0
20
0
30
0
70
128
71
1
72
2
73
3
0
VERTEX
8
OBJECT__53
10
0
20
0
30
0
70
128
71
4
72
2
73
1
0
VERTEX
8
OBJECT__53
10
0
20
0
30
0
70
128
71
5
72
6
73
7
0
VERTEX
8
OBJECT__53
10
0
20
0
30
0
70
128
71
8
72
9
73
5
0
VERTEX
8
OBJECT__53
10
0
20
0
30
0
70
128
71
10
72
11
73
12
0
VERTEX
8
OBJECT__53
10
0
20
0
30
0
70
128
71
4
72
13
73
11
0
VERTEX
8
OBJECT__53
10
0
20
0
30
0
70
128
71
4
72
14
73
13
0
VERTEX
8
OBJECT__53
10
0
20
0
30
0
70
128
71
4
72
15
73
14
0
VERTEX
8
OBJECT__53
10
0
20
0
30
0
70
128
71
11
72
10
73
4
0
VERTEX
8
OBJECT__53
10
0
20
0
30
0
70
128
71
16
72
17
73
18
0
VERTEX
8
OBJECT__53
10
0
20
0
30
0
70
128
71
18
72
4
73
16
0
VERTEX
8
OBJECT__53
10
0
20
0
30
0
70
128
71
16
72
19
73
17
0
VERTEX
8
OBJECT__53
10
0
20
0
30
0
70
128
71
18
72
15
73
4
0
VERTEX
8
OBJECT__53
10
0
20
0
30
0
70
128
71
6
72
20
73
21
0
VERTEX
8
OBJECT__53
10
0
20
0
30
0
70
128
71
6
72
22
73
20
0
VERTEX
8
OBJECT__53
10
0
20
0
30
0
70
128
71
6
72
23
73
22
0
VERTEX
8
OBJECT__53
10
0
20
0
30
0
70
128
71
6
72
24
73
23
0
VERTEX
8
OBJECT__53
10
0
20
0
30
0
70
128
71
10
72
25
73
24
0
VERTEX
8
OBJECT__53
10
0
20
0
30
0
70
128
71
24
72
6
73
10
0
VERTEX
8
OBJECT__53
10
0
20
0
30
0
70
128
71
21
72
7
73
6
0
VERTEX
8
OBJECT__53
10
0
20
0
30
0
70
128
71
26
72
9
73
27
0
VERTEX
8
OBJECT__53
10
0
20
0
30
0
70
128
71
9
72
8
73
28
0
VERTEX
8
OBJECT__53
10
0
20
0
30
0
70
128
71
28
72
29
73
9
0
VERTEX
8
OBJECT__53
10
0
20
0
30
0
70
128
71
29
72
30
73
9
0
VERTEX
8
OBJECT__53
10
0
20
0
30
0
70
128
71
30
72
31
73
9
0
VERTEX
8
OBJECT__53
10
0
20
0
30
0
70
128
71
8
72
32
73
28
0
VERTEX
8
OBJECT__53
10
0
20
0
30
0
70
128
71
31
72
27
73
9
0
VERTEX
8
OBJECT__53
10
0
20
0
30
0
70
128
71
3
72
33
73
34
0
VERTEX
8
OBJECT__53
10
0
20
0
30
0
70
128
71
3
72
35
73
33
0
VERTEX
8
OBJECT__53
10
0
20
0
30
0
70
128
71
3
72
26
73
36
0
VERTEX
8
OBJECT__53
10
0
20
0
30
0
70
128
71
36
72
37
73
3
0
VERTEX
8
OBJECT__53
10
0
20
0
30
0
70
128
71
37
72
38
73
3
0
VERTEX
8
OBJECT__53
10
0
20
0
30
0
70
128
71
38
72
35
73
3
0
VERTEX
8
OBJECT__53
10
0
20
0
30
0
70
128
71
34
72
39
73
3
0
VERTEX
8
OBJECT__53
10
0
20
0
30
0
70
128
71
26
72
40
73
41
0
VERTEX
8
OBJECT__53
10
0
20
0
30
0
70
128
71
41
72
36
73
26
0
VERTEX
8
OBJECT__53
10
0
20
0
30
0
70
128
71
34
72
42
73
39
0
VERTEX
8
OBJECT__53
10
0
20
0
30
0
70
128
71
27
72
40
73
26
0
VERTEX
8
OBJECT__53
10
0
20
0
30
0
70
128
71
21
72
43
73
7
0
VERTEX
8
OBJECT__53
10
0
20
0
30
0
70
128
71
12
72
25
73
10
0
VERTEX
8
OBJECT__53
10
0
20
0
30
0
70
128
71
5
72
44
73
8
0
VERTEX
8
OBJECT__53
10
0
20
0
30
0
70
128
71
7
72
44
73
5
0
VERTEX
8
OBJECT__53
10
0
20
0
30
0
70
128
71
1
72
16
73
4
0
VERTEX
8
OBJECT__53
10
0
20
0
30
0
70
128
71
3
72
39
73
1
0
SEQEND
8
OBJECT__53
0
POLYLINE
8
OBJECT__54
66
1
70
64
71
5
72
3
62
253
0
VERTEX
8
OBJECT__54
10
91.949997
20
-7.778000
30
77.222000
70
192
0
VERTEX
8
OBJECT__54
10
91.949997
20
-6.000000
30
94.220001
70
192
0
VERTEX
8
OBJECT__54
10
91.949997
20
-7.778000
30
92.778000
70
192
0
VERTEX
8
OBJECT__54
10
91.949997
20
-11.000000
30
85.000000
70
192
0
VERTEX
8
OBJECT__54
10
91.949997
20
-6.000000
30
75.779999
70
192
0
VERTEX
8
OBJECT__54
10
0
20
0
30
0
70
128
71
1
72
2
73
3
0
VERTEX
8
OBJECT__54
10
0
20
0
30
0
70
128
71
3
72
4
73
1
0
VERTEX
8
OBJECT__54
10
0
20
0
30
0
70
128
71
1
72
5
73
2
0
SEQEND
8
OBJECT__54
0
POLYLINE
8
OBJECT__55
66
1
70
64
71
5
72
3
62
253
0
VERTEX
8
OBJECT__55
10
91.949997
20
7.778000
30
92.778000
70
192
0
VERTEX
8
OBJECT__55
10
91.949997
20
6.000000
30
75.779999
70
192
0
VERTEX
8
OBJECT__55
10
91.949997
20
7.778000
30
77.222000
70
192
0
VERTEX
8
OBJECT__55
10
91.949997
20
11.000000
30
85.000000
70
192
0
VERTEX
8
OBJECT__55
10
91.949997
20
6.000000
30
94.220001
70
192
0
VERTEX
8
OBJECT__55
10
0
20
0
30
0
70
128
71
1
72
2
73
3
0
VERTEX
8
OBJECT__55
10
0
20
0
30
0
70
128
71
3
72
4
73
1
0
VERTEX
8
OBJECT__55
10
0
20
0
30
0
70
128
71
1
72
5
73
2
0
SEQEND
8
OBJECT__55
0
POLYLINE
8
OBJECT__56
66
1
70
64
71
7
72
5
62
253
0
VERTEX
8
OBJECT__56
10
94.949997
20
5.196000
30
145.000000
70
192
0
VERTEX
8
OBJECT__56
10
88.949997
20
-5.196000
30
145.000000
70
192
0
VERTEX
8
OBJECT__56
10
94.949997
20
-5.196000
30
145.000000
70
192
0
VERTEX
8
OBJECT__56
10
91.949997
20
6.000000
30
145.000000
70
192
0
VERTEX
8
OBJECT__56
10
88.949997
20
5.196000
30
145.000000
70
192
0
VERTEX
8
OBJECT__56
10
97.949997
20
0.000000
30
145.000000
70
192
0
VERTEX
8
OBJECT__56
10
85.949997
20
0.000000
30
145.000000
70
192
0
VERTEX
8
OBJECT__56
10
0
20
0
30
0
70
128
71
1
72
2
73
3
0
VERTEX
8
OBJECT__56
10
0
20
0
30
0
70
128
71
2
72
4
73
5
0
VERTEX
8
OBJECT__56
10
0
20
0
30
0
70
128
71
3
72
6
73
1
0
VERTEX
8
OBJECT__56
10
0
20
0
30
0
70
128
71
1
72
4
73
2
0
VERTEX
8
OBJECT__56
10
0
20
0
30
0
70
128
71
5
72
7
73
2
0
SEQEND
8
OBJECT__56
0
POLYLINE
8
OBJECT__57
66
1
70
64
71
40
72
40
62
253
0
VERTEX
8
OBJECT__57
10
7.916000
20
-13.125000
30
-22.733000
70
192
0
VERTEX
8
OBJECT__57
10
7.916000
20
0.000000
30
-26.250000
70
192
0
VERTEX
8
OBJECT__57
10
14.800000
20
-4.823000
30
-25.802999
70
192
0
VERTEX
8
OBJECT__57
10
14.800000
20
0.000000
30
-25.802999
70
192
0
VERTEX
8
OBJECT__57
10
14.800000
20
-13.819000
30
-22.318001
70
192
0
VERTEX
8
OBJECT__57
10
14.800000
20
-20.948000
30
-15.819000
70
192
0
VERTEX
8
OBJECT__57
10
7.916000
20
-22.733000
30
-13.125000
70
192
0
VERTEX
8
OBJECT__57
10
14.800000
20
-13.076000
30
-22.606001
70
192
0
VERTEX
8
OBJECT__57
10
7.916000
20
-26.250000
30
0.000000
70
192
0
VERTEX
8
OBJECT__57
10
14.800000
20
-25.247999
30
-7.184000
70
192
0
VERTEX
8
OBJECT__57
10
14.800000
20
-22.378000
30
-12.948000
70
192
0
VERTEX
8
OBJECT__57
10
7.916000
20
-22.733000
30
13.125000
70
192
0
VERTEX
8
OBJECT__57
10
14.800000
20
-26.138000
30
2.422000
70
192
0
VERTEX
8
OBJECT__57
10
14.800000
20
-25.916000
30
0.031000
70
192
0
VERTEX
8
OBJECT__57
10
14.800000
20
-23.497999
30
11.701000
70
192
0
VERTEX
8
OBJECT__57
10
14.800000
20
-22.535000
30
12.976000
70
192
0
VERTEX
8
OBJECT__57
10
14.800000
20
-17.684999
30
19.399000
70
192
0
VERTEX
8
OBJECT__57
10
7.916000
20
-13.125000
30
22.733000
70
192
0
VERTEX
8
OBJECT__57
10
7.916000
20
0.000000
30
26.250000
70
192
0
VERTEX
8
OBJECT__57
10
14.800000
20
-9.483000
30
24.476999
70
192
0
VERTEX
8
OBJECT__57
10
14.800000
20
-12.896000
30
22.364000
70
192
0
VERTEX
8
OBJECT__57
10
14.800000
20
0.000000
30
26.250000
70
192
0
VERTEX
8
OBJECT__57
10
14.800000
20
9.483000
30
24.476999
70
192
0
VERTEX
8
OBJECT__57
10
7.916000
20
13.125000
30
22.733000
70
192
0
VERTEX
8
OBJECT__57
10
7.916000
20
22.733000
30
13.125000
70
192
0
VERTEX
8
OBJECT__57
10
14.800000
20
17.684999
30
19.399000
70
192
0
VERTEX
8
OBJECT__57
10
14.800000
20
12.896000
30
22.364000
70
192
0
VERTEX
8
OBJECT__57
10
14.800000
20
23.497999
30
11.701000
70
192
0
VERTEX
8
OBJECT__57
10
14.800000
20
26.138000
30
2.422000
70
192
0
VERTEX
8
OBJECT__57
10
7.916000
20
26.250000
30
0.000000
70
192
0
VERTEX
8
OBJECT__57
10
14.800000
20
22.535000
30
12.976000
70
192
0
VERTEX
8
OBJECT__57
10
14.800000
20
25.916000
30
0.031000
70
192
0
VERTEX
8
OBJECT__57
10
14.800000
20
25.247999
30
-7.184000
70
192
0
VERTEX
8
OBJECT__57
10
7.916000
20
22.733000
30
-13.125000
70
192
0
VERTEX
8
OBJECT__57
10
7.916000
20
13.125000
30
-22.733000
70
192
0
VERTEX
8
OBJECT__57
10
14.800000
20
20.948000
30
-15.819000
70
192
0
VERTEX
8
OBJECT__57
10
14.800000
20
13.819000
30
-22.318001
70
192
0
VERTEX
8
OBJECT__57
10
14.800000
20
22.378000
30
-12.948000
70
192
0
VERTEX
8
OBJECT__57
10
14.800000
20
13.076000
30
-22.606001
70
192
0
VERTEX
8
OBJECT__57
10
14.800000
20
4.823000
30
-25.802999
70
192
0
VERTEX
8
OBJECT__57
10
0
20
0
30
0
70
128
71
1
72
2
73
3
0
VERTEX
8
OBJECT__57
10
0
20
0
30
0
70
128
71
2
72
4
73
3
0
VERTEX
8
OBJECT__57
10
0
20
0
30
0
70
128
71
1
72
5
73
6
0
VERTEX
8
OBJECT__57
10
0
20
0
30
0
70
128
71
6
72
7
73
1
0
VERTEX
8
OBJECT__57
10
0
20
0
30
0
70
128
71
1
72
8
73
5
0
VERTEX
8
OBJECT__57
10
0
20
0
30
0
70
128
71
9
72
7
73
10
0
VERTEX
8
OBJECT__57
10
0
20
0
30
0
70
128
71
7
72
11
73
10
0
VERTEX
8
OBJECT__57
10
0
20
0
30
0
70
128
71
12
72
9
73
13
0
VERTEX
8
OBJECT__57
10
0
20
0
30
0
70
128
71
9
72
14
73
13
0
VERTEX
8
OBJECT__57
10
0
20
0
30
0
70
128
71
13
72
15
73
12
0
VERTEX
8
OBJECT__57
10
0
20
0
30
0
70
128
71
12
72
16
73
17
0
VERTEX
8
OBJECT__57
10
0
20
0
30
0
70
128
71
17
72
18
73
12
0
VERTEX
8
OBJECT__57
10
0
20
0
30
0
70
128
71
19
72
18
73
20
0
VERTEX
8
OBJECT__57
10
0
20
0
30
0
70
128
71
18
72
21
73
20
0
VERTEX
8
OBJECT__57
10
0
20
0
30
0
70
128
71
19
72
22
73
23
0
VERTEX
8
OBJECT__57
10
0
20
0
30
0
70
128
71
23
72
24
73
19
0
VERTEX
8
OBJECT__57
10
0
20
0
30
0
70
128
71
25
72
24
73
26
0
VERTEX
8
OBJECT__57
10
0
20
0
30
0
70
128
71
24
72
27
73
26
0
VERTEX
8
OBJECT__57
10
0
20
0
30
0
70
128
71
25
72
28
73
29
0
VERTEX
8
OBJECT__57
10
0
20
0
30
0
70
128
71
29
72
30
73
25
0
VERTEX
8
OBJECT__57
10
0
20
0
30
0
70
128
71
25
72
31
73
28
0
VERTEX
8
OBJECT__57
10
0
20
0
30
0
70
128
71
30
72
32
73
33
0
VERTEX
8
OBJECT__57
10
0
20
0
30
0
70
128
71
33
72
34
73
30
0
VERTEX
8
OBJECT__57
10
0
20
0
30
0
70
128
71
35
72
34
73
36
0
VERTEX
8
OBJECT__57
10
0
20
0
30
0
70
128
71
36
72
37
73
35
0
VERTEX
8
OBJECT__57
10
0
20
0
30
0
70
128
71
34
72
38
73
36
0
VERTEX
8
OBJECT__57
10
0
20
0
30
0
70
128
71
35
72
39
73
40
0
VERTEX
8
OBJECT__57
10
0
20
0
30
0
70
128
71
40
72
2
73
35
0
VERTEX
8
OBJECT__57
10
0
20
0
30
0
70
128
71
40
72
4
73
2
0
VERTEX
8
OBJECT__57
10
0
20
0
30
0
70
128
71
37
72
39
73
35
0
VERTEX
8
OBJECT__57
10
0
20
0
30
0
70
128
71
33
72
38
73
34
0
VERTEX
8
OBJECT__57
10
0
20
0
30
0
70
128
71
29
72
32
73
30
0
VERTEX
8
OBJECT__57
10
0
20
0
30
0
70
128
71
26
72
31
73
25
0
VERTEX
8
OBJECT__57
10
0
20
0
30
0
70
128
71
23
72
27
73
24
0
VERTEX
8
OBJECT__57
10
0
20
0
30
0
70
128
71
20
72
22
73
19
0
VERTEX
8
OBJECT__57
10
0
20
0
30
0
70
128
71
17
72
21
73
18
0
VERTEX
8
OBJECT__57
10
0
20
0
30
0
70
128
71
15
72
16
73
12
0
VERTEX
8
OBJECT__57
10
0
20
0
30
0
70
128
71
10
72
14
73
9
0
VERTEX
8
OBJECT__57
10
0
20
0
30
0
70
128
71
6
72
11
73
7
0
VERTEX
8
OBJECT__57
10
0
20
0
30
0
70
128
71
3
72
8
73
1
0
SEQEND
8
OBJECT__57
0
POLYLINE
8
OBJECT__58
66
1
70
64
71
62
72
79
62
253
0
VERTEX
8
OBJECT__58
10
14.800000
20
0.000000
30
26.250000
70
192
0
VERTEX
8
OBJECT__58
10
14.800000
20
-9.483000
30
24.476999
70
192
0
VERTEX
8
OBJECT__58
10
16.214001
20
-9.271000
30
23.931000
70
192
0
VERTEX
8
OBJECT__58
10
16.214001
20
-17.290001
30
18.966000
70
192
0
VERTEX
8
OBJECT__58
10
14.800000
20
-12.896000
30
22.364000
70
192
0
VERTEX
8
OBJECT__58
10
14.800000
20
-17.684999
30
19.399000
70
192
0
VERTEX
8
OBJECT__58
10
14.800000
20
-22.535000
30
12.976000
70
192
0
VERTEX
8
OBJECT__58
10
16.214001
20
-22.974001
30
11.440000
70
192
0
VERTEX
8
OBJECT__58
10
14.800000
20
-26.138000
30
2.422000
70
192
0
VERTEX
8
OBJECT__58
10
16.214001
20
-25.555000
30
2.368000
70
192
0
VERTEX
8
OBJECT__58
10
16.214001
20
-24.684000
30
-7.023000
70
192
0
VERTEX
8
OBJECT__58
10
14.800000
20
-25.916000
30
0.031000
70
192
0
VERTEX
8
OBJECT__58
10
14.800000
20
-25.247999
30
-7.184000
70
192
0
VERTEX
8
OBJECT__58
10
14.800000
20
-22.378000
30
-12.948000
70
192
0
VERTEX
8
OBJECT__58
10
16.214001
20
-20.480000
30
-15.466000
70
192
0
VERTEX
8
OBJECT__58
10
14.800000
20
-20.948000
30
-15.819000
70
192
0
VERTEX
8
OBJECT__58
10
14.800000
20
-13.819000
30
-22.318001
70
192
0
VERTEX
8
OBJECT__58
10
16.214001
20
-13.510000
30
-21.820000
70
192
0
VERTEX
8
OBJECT__58
10
16.214001
20
-4.716000
30
-25.226999
70
192
0
VERTEX
8
OBJECT__58
10
14.800000
20
-13.076000
30
-22.606001
70
192
0
VERTEX
8
OBJECT__58
10
14.800000
20
-4.823000
30
-25.802999
70
192
0
VERTEX
8
OBJECT__58
10
14.800000
20
0.000000
30
-25.802999
70
192
0
VERTEX
8
OBJECT__58
10
16.214001
20
4.716000
30
-25.226999
70
192
0
VERTEX
8
OBJECT__58
10
14.800000
20
4.823000
30
-25.802999
70
192
0
VERTEX
8
OBJECT__58
10
14.800000
20
13.076000
30
-22.606001
70
192
0
VERTEX
8
OBJECT__58
10
16.214001
20
13.510000
30
-21.820000
70
192
0
VERTEX
8
OBJECT__58
10
14.800000
20
13.819000
30
-22.318001
70
192
0
VERTEX
8
OBJECT__58
10
14.800000
20
20.948000
30
-15.819000
70
192
0
VERTEX
8
OBJECT__58
10
16.214001
20
20.480000
30
-15.466000
70
192
0
VERTEX
8
OBJECT__58
10
16.214001
20
24.684000
30
-7.023000
70
192
0
VERTEX
8
OBJECT__58
10
14.800000
20
22.378000
30
-12.948000
70
192
0
VERTEX
8
OBJECT__58
10
14.800000
20
25.247999
30
-7.184000
70
192
0
VERTEX
8
OBJECT__58
10
14.800000
20
25.916000
30
0.031000
70
192
0
VERTEX
8
OBJECT__58
10
16.214001
20
25.555000
30
2.368000
70
192
0
VERTEX
8
OBJECT__58
10
14.800000
20
26.138000
30
2.422000
70
192
0
VERTEX
8
OBJECT__58
10
14.800000
20
23.497999
30
11.701000
70
192
0
VERTEX
8
OBJECT__58
10
16.214001
20
22.974001
30
11.440000
70
192
0
VERTEX
8
OBJECT__58
10
16.214001
20
17.290001
30
18.966000
70
192
0
VERTEX
8
OBJECT__58
10
14.800000
20
22.535000
30
12.976000
70
192
0
VERTEX
8
OBJECT__58
10
14.800000
20
17.684999
30
19.399000
70
192
0
VERTEX
8
OBJECT__58
10
14.800000
20
12.896000
30
22.364000
70
192
0
VERTEX
8
OBJECT__58
10
16.214001
20
9.271000
30
23.931000
70
192
0
VERTEX
8
OBJECT__58
10
14.800000
20
9.483000
30
24.476999
70
192
0
VERTEX
8
OBJECT__58
10
16.214001
20
0.000000
30
25.664000
70
192
0
VERTEX
8
OBJECT__58
10
16.799999
20
-8.760000
30
22.612000
70
192
0
VERTEX
8
OBJECT__58
10
16.799999
20
0.000000
30
24.250000
70
192
0
VERTEX
8
OBJECT__58
10
16.799999
20
-16.337000
30
17.921000
70
192
0
VERTEX
8
OBJECT__58
10
16.799999
20
-21.708000
30
10.809000
70
192
0
VERTEX
8
OBJECT__58
10
16.799999
20
-24.146999
30
2.238000
70
192
0
VERTEX
8
OBJECT__58
10
16.799999
20
-23.323999
30
-6.636000
70
192
0
VERTEX
8
OBJECT__58
10
16.799999
20
-19.351999
30
-14.614000
70
192
0
VERTEX
8
OBJECT__58
10
16.799999
20
-12.766000
30
-20.618000
70
192
0
VERTEX
8
OBJECT__58
10
16.799999
20
-4.456000
30
-23.837000
70
192
0
VERTEX
8
OBJECT__58
10
16.799999
20
4.456000
30
-23.837000
70
192
0
VERTEX
8
OBJECT__58
10
16.799999
20
12.766000
30
-20.618000
70
192
0
VERTEX
8
OBJECT__58
10
16.799999
20
19.351999
30
-14.614000
70
192
0
VERTEX
8
OBJECT__58
10
16.799999
20
23.323999
30
-6.636000
70
192
0
VERTEX
8
OBJECT__58
10
16.799999
20
24.146999
30
2.238000
70
192
0
VERTEX
8
OBJECT__58
10
16.799999
20
21.708000
30
10.809000
70
192
0
VERTEX
8
OBJECT__58
10
16.799999
20
16.337000
30
17.921000
70
192
0
VERTEX
8
OBJECT__58
10
16.799999
20
8.760000
30
22.612000
70
192
0
VERTEX
8
OBJECT__58
10
14.800000
20
-23.497999
30
11.701000
70
192
0
VERTEX
8
OBJECT__58
10
0
20
0
30
0
70
128
71
1
72
2
73
3
0
VERTEX
8
OBJECT__58
10
0
20
0
30
0
70
128
71
4
72
3
73
5
0
VERTEX
8
OBJECT__58
10
0
20
0
30
0
70
128
71
3
72
2
73
5
0
VERTEX
8
OBJECT__58
10
0
20
0
30
0
70
128
71
4
72
6
73
7
0
VERTEX
8
OBJECT__58
10
0
20
0
30
0
70
128
71
7
72
8
73
4
0
VERTEX
8
OBJECT__58
10
0
20
0
30
0
70
128
71
9
72
10
73
8
0
VERTEX
8
OBJECT__58
10
0
20
0
30
0
70
128
71
11
72
10
73
12
0
VERTEX
8
OBJECT__58
10
0
20
0
30
0
70
128
71
10
72
9
73
12
0
VERTEX
8
OBJECT__58
10
0
20
0
30
0
70
128
71
11
72
13
73
14
0
VERTEX
8
OBJECT__58
10
0
20
0
30
0
70
128
71
14
72
15
73
11
0
VERTEX
8
OBJECT__58
10
0
20
0
30
0
70
128
71
16
72
17
73
18
0
VERTEX
8
OBJECT__58
10
0
20
0
30
0
70
128
71
19
72
18
73
20
0
VERTEX
8
OBJECT__58
10
0
20
0
30
0
70
128
71
18
72
17
73
20
0
VERTEX
8
OBJECT__58
10
0
20
0
30
0
70
128
71
19
72
21
73
22
0
VERTEX
8
OBJECT__58
10
0
20
0
30
0
70
128
71
22
72
23
73
19
0
VERTEX
8
OBJECT__58
10
0
20
0
30
0
70
128
71
23
72
24
73
25
0
VERTEX
8
OBJECT__58
10
0
20
0
30
0
70
128
71
25
72
26
73
23
0
VERTEX
8
OBJECT__58
10
0
20
0
30
0
70
128
71
27
72
28
73
29
0
VERTEX
8
OBJECT__58
10
0
20
0
30
0
70
128
71
30
72
29
73
31
0
VERTEX
8
OBJECT__58
10
0
20
0
30
0
70
128
71
29
72
28
73
31
0
VERTEX
8
OBJECT__58
10
0
20
0
30
0
70
128
71
30
72
32
73
33
0
VERTEX
8
OBJECT__58
10
0
20
0
30
0
70
128
71
33
72
34
73
30
0
VERTEX
8
OBJECT__58
10
0
20
0
30
0
70
128
71
35
72
36
73
37
0
VERTEX
8
OBJECT__58
10
0
20
0
30
0
70
128
71
38
72
37
73
39
0
VERTEX
8
OBJECT__58
10
0
20
0
30
0
70
128
71
37
72
36
73
39
0
VERTEX
8
OBJECT__58
10
0
20
0
30
0
70
128
71
38
72
40
73
41
0
VERTEX
8
OBJECT__58
10
0
20
0
30
0
70
128
71
41
72
42
73
38
0
VERTEX
8
OBJECT__58
10
0
20
0
30
0
70
128
71
43
72
1
73
44
0
VERTEX
8
OBJECT__58
10
0
20
0
30
0
70
128
71
3
72
45
73
46
0
VERTEX
8
OBJECT__58
10
0
20
0
30
0
70
128
71
4
72
47
73
45
0
VERTEX
8
OBJECT__58
10
0
20
0
30
0
70
128
71
4
72
8
73
48
0
VERTEX
8
OBJECT__58
10
0
20
0
30
0
70
128
71
10
72
49
73
48
0
VERTEX
8
OBJECT__58
10
0
20
0
30
0
70
128
71
11
72
50
73
49
0
VERTEX
8
OBJECT__58
10
0
20
0
30
0
70
128
71
11
72
15
73
51
0
VERTEX
8
OBJECT__58
10
0
20
0
30
0
70
128
71
15
72
18
73
52
0
VERTEX
8
OBJECT__58
10
0
20
0
30
0
70
128
71
18
72
19
73
53
0
VERTEX
8
OBJECT__58
10
0
20
0
30
0
70
128
71
19
72
23
73
54
0
VERTEX
8
OBJECT__58
10
0
20
0
30
0
70
128
71
26
72
55
73
54
0
VERTEX
8
OBJECT__58
10
0
20
0
30
0
70
128
71
29
72
56
73
55
0
VERTEX
8
OBJECT__58
10
0
20
0
30
0
70
128
71
30
72
57
73
56
0
VERTEX
8
OBJECT__58
10
0
20
0
30
0
70
128
71
34
72
58
73
57
0
VERTEX
8
OBJECT__58
10
0
20
0
30
0
70
128
71
34
72
37
73
59
0
VERTEX
8
OBJECT__58
10
0
20
0
30
0
70
128
71
37
72
38
73
60
0
VERTEX
8
OBJECT__58
10
0
20
0
30
0
70
128
71
38
72
42
73
61
0
VERTEX
8
OBJECT__58
10
0
20
0
30
0
70
128
71
42
72
44
73
46
0
VERTEX
8
OBJECT__58
10
0
20
0
30
0
70
128
71
46
72
61
73
42
0
VERTEX
8
OBJECT__58
10
0
20
0
30
0
70
128
71
61
72
60
73
38
0
VERTEX
8
OBJECT__58
10
0
20
0
30
0
70
128
71
60
72
59
73
37
0
VERTEX
8
OBJECT__58
10
0
20
0
30
0
70
128
71
59
72
58
73
34
0
VERTEX
8
OBJECT__58
10
0
20
0
30
0
70
128
71
57
72
30
73
34
0
VERTEX
8
OBJECT__58
10
0
20
0
30
0
70
128
71
56
72
29
73
30
0
VERTEX
8
OBJECT__58
10
0
20
0
30
0
70
128
71
55
72
26
73
29
0
VERTEX
8
OBJECT__58
10
0
20
0
30
0
70
128
71
54
72
23
73
26
0
VERTEX
8
OBJECT__58
10
0
20
0
30
0
70
128
71
54
72
53
73
19
0
VERTEX
8
OBJECT__58
10
0
20
0
30
0
70
128
71
53
72
52
73
18
0
VERTEX
8
OBJECT__58
10
0
20
0
30
0
70
128
71
52
72
51
73
15
0
VERTEX
8
OBJECT__58
10
0
20
0
30
0
70
128
71
51
72
50
73
11
0
VERTEX
8
OBJECT__58
10
0
20
0
30
0
70
128
71
49
72
10
73
11
0
VERTEX
8
OBJECT__58
10
0
20
0
30
0
70
128
71
48
72
8
73
10
0
VERTEX
8
OBJECT__58
10
0
20
0
30
0
70
128
71
48
72
47
73
4
0
VERTEX
8
OBJECT__58
10
0
20
0
30
0
70
128
71
45
72
3
73
4
0
VERTEX
8
OBJECT__58
10
0
20
0
30
0
70
128
71
46
72
44
73
3
0
VERTEX
8
OBJECT__58
10
0
20
0
30
0
70
128
71
44
72
42
73
43
0
VERTEX
8
OBJECT__58
10
0
20
0
30
0
70
128
71
41
72
43
73
42
0
VERTEX
8
OBJECT__58
10
0
20
0
30
0
70
128
71
39
72
40
73
38
0
VERTEX
8
OBJECT__58
10
0
20
0
30
0
70
128
71
37
72
34
73
35
0
VERTEX
8
OBJECT__58
10
0
20
0
30
0
70
128
71
33
72
35
73
34
0
VERTEX
8
OBJECT__58
10
0
20
0
30
0
70
128
71
31
72
32
73
30
0
VERTEX
8
OBJECT__58
10
0
20
0
30
0
70
128
71
29
72
26
73
27
0
VERTEX
8
OBJECT__58
10
0
20
0
30
0
70
128
71
25
72
27
73
26
0
VERTEX
8
OBJECT__58
10
0
20
0
30
0
70
128
71
22
72
24
73
23
0
VERTEX
8
OBJECT__58
10
0
20
0
30
0
70
128
71
20
72
21
73
19
0
VERTEX
8
OBJECT__58
10
0
20
0
30
0
70
128
71
18
72
15
73
16
0
VERTEX
8
OBJECT__58
10
0
20
0
30
0
70
128
71
14
72
16
73
15
0
VERTEX
8
OBJECT__58
10
0
20
0
30
0
70
128
71
12
72
13
73
11
0
VERTEX
8
OBJECT__58
10
0
20
0
30
0
70
128
71
8
72
62
73
9
0
VERTEX
8
OBJECT__58
10
0
20
0
30
0
70
128
71
7
72
62
73
8
0
VERTEX
8
OBJECT__58
10
0
20
0
30
0
70
128
71
5
72
6
73
4
0
VERTEX
8
OBJECT__58
10
0
20
0
30
0
70
128
71
3
72
44
73
1
0
SEQEND
8
OBJECT__58
0
POLYLINE
8
OBJECT__60
66
1
70
64
71
17
72
15
62
253
0
VERTEX
8
OBJECT__60
10
16.799999
20
-4.456000
30
-23.837000
70
192
0
VERTEX
8
OBJECT__60
10
16.799999
20
12.766000
30
-20.618000
70
192
0
VERTEX
8
OBJECT__60
10
16.799999
20
19.351999
30
-14.614000
70
192
0
VERTEX
8
OBJECT__60
10
16.799999
20
16.337000
30
17.921000
70
192
0
VERTEX
8
OBJECT__60
10
16.799999
20
-16.337000
30
17.921000
70
192
0
VERTEX
8
OBJECT__60
10
16.799999
20
-21.708000
30
10.809000
70
192
0
VERTEX
8
OBJECT__60
10
16.799999
20
-19.351999
30
-14.614000
70
192
0
VERTEX
8
OBJECT__60
10
16.799999
20
24.146999
30
2.238000
70
192
0
VERTEX
8
OBJECT__60
10
16.799999
20
21.708000
30
10.809000
70
192
0
VERTEX
8
OBJECT__60
10
16.799999
20
4.456000
30
-23.837000
70
192
0
VERTEX
8
OBJECT__60
10
16.799999
20
23.323999
30
-6.636000
70
192
0
VERTEX
8
OBJECT__60
10
16.799999
20
-12.766000
30
-20.618000
70
192
0
VERTEX
8
OBJECT__60
10
16.799999
20
-8.760000
30
22.612000
70
192
0
VERTEX
8
OBJECT__60
10
16.799999
20
8.760000
30
22.612000
70
192
0
VERTEX
8
OBJECT__60
10
16.799999
20
-24.146999
30
2.238000
70
192
0
VERTEX
8
OBJECT__60
10
16.799999
20
-23.323999
30
-6.636000
70
192
0
VERTEX
8
OBJECT__60
10
16.799999
20
0.000000
30
24.250000
70
192
0
VERTEX
8
OBJECT__60
10
0
20
0
30
0
70
128
71
1
72
2
73
3
0
VERTEX
8
OBJECT__60
10
0
20
0
30
0
70
128
71
4
72
5
73
6
0
VERTEX
8
OBJECT__60
10
0
20
0
30
0
70
128
71
7
72
8
73
9
0
VERTEX
8
OBJECT__60
10
0
20
0
30
0
70
128
71
1
72
10
73
2
0
VERTEX
8
OBJECT__60
10
0
20
0
30
0
70
128
71
11
72
7
73
12
0
VERTEX
8
OBJECT__60
10
0
20
0
30
0
70
128
71
4
72
13
73
5
0
VERTEX
8
OBJECT__60
10
0
20
0
30
0
70
128
71
13
72
4
73
14
0
VERTEX
8
OBJECT__60
10
0
20
0
30
0
70
128
71
7
72
11
73
8
0
VERTEX
8
OBJECT__60
10
0
20
0
30
0
70
128
71
12
72
1
73
11
0
VERTEX
8
OBJECT__60
10
0
20
0
30
0
70
128
71
4
72
15
73
16
0
VERTEX
8
OBJECT__60
10
0
20
0
30
0
70
128
71
14
72
17
73
13
0
VERTEX
8
OBJECT__60
10
0
20
0
30
0
70
128
71
3
72
11
73
1
0
VERTEX
8
OBJECT__60
10
0
20
0
30
0
70
128
71
6
72
15
73
4
0
VERTEX
8
OBJECT__60
10
0
20
0
30
0
70
128
71
16
72
7
73
4
0
VERTEX
8
OBJECT__60
10
0
20
0
30
0
70
128
71
9
72
4
73
7
0
SEQEND
8
OBJECT__60
0
POLYLINE
8
OBJECT__61
66
1
70
64
71
7
72
5
62
253
0
VERTEX
8
OBJECT__61
10
94.699997
20
-5.195000
30
15.999000
70
192
0
VERTEX
8
OBJECT__61
10
97.699997
20
0.001000
30
15.999000
70
192
0
VERTEX
8
OBJECT__61
10
94.699997
20
5.197000
30
15.999000
70
192
0
VERTEX
8
OBJECT__61
10
88.699997
20
5.197000
30
15.999000
70
192
0
VERTEX
8
OBJECT__61
10
91.699997
20
-5.999000
30
15.999000
70
192
0
VERTEX
8
OBJECT__61
10
85.699997
20
0.001000
30
15.999000
70
192
0
VERTEX
8
OBJECT__61
10
88.699997
20
-5.195000
30
15.999000
70
192
0
VERTEX
8
OBJECT__61
10
0
20
0
30
0
70
128
71
1
72
2
73
3
0
VERTEX
8
OBJECT__61
10
0
20
0
30
0
70
128
71
4
72
5
73
1
0
VERTEX
8
OBJECT__61
10
0
20
0
30
0
70
128
71
4
72
6
73
7
0
VERTEX
8
OBJECT__61
10
0
20
0
30
0
70
128
71
7
72
5
73
4
0
VERTEX
8
OBJECT__61
10
0
20
0
30
0
70
128
71
3
72
4
73
1
0
SEQEND
8
OBJECT__61
0
POLYLINE
8
OBJECT__62
66
1
70
64
71
44
72
46
62
253
0
VERTEX
8
OBJECT__62
10
97.699997
20
0.001000
30
-60.000999
70
192
0
VERTEX
8
OBJECT__62
10
97.699997
20
0.001000
30
15.999000
70
192
0
VERTEX
8
OBJECT__62
10
94.699997
20
-5.195000
30
15.999000
70
192
0
VERTEX
8
OBJECT__62
10
94.699997
20
5.197000
30
-60.000999
70
192
0
VERTEX
8
OBJECT__62
10
94.699997
20
5.197000
30
15.999000
70
192
0
VERTEX
8
OBJECT__62
10
85.699997
20
0.001000
30
15.999000
70
192
0
VERTEX
8
OBJECT__62
10
85.889000
20
1.496000
30
10.897000
70
192
0
VERTEX
8
OBJECT__62
10
85.759003
20
-0.001000
30
10.967000
70
192
0
VERTEX
8
OBJECT__62
10
88.699997
20
5.197000
30
15.999000
70
192
0
VERTEX
8
OBJECT__62
10
86.778999
20
3.434000
30
10.450000
70
192
0
VERTEX
8
OBJECT__62
10
88.726997
20
5.146000
30
9.712000
70
192
0
VERTEX
8
OBJECT__62
10
88.153999
20
4.841000
30
9.877000
70
192
0
VERTEX
8
OBJECT__62
10
88.699997
20
-5.195000
30
15.999000
70
192
0
VERTEX
8
OBJECT__62
10
87.008003
20
-3.739000
30
10.344000
70
192
0
VERTEX
8
OBJECT__62
10
88.458000
20
-5.048000
30
9.772000
70
192
0
VERTEX
8
OBJECT__62
10
86.117996
20
-2.200000
30
10.777000
70
192
0
VERTEX
8
OBJECT__62
10
85.718002
20
-0.470000
30
10.989000
70
192
0
VERTEX
8
OBJECT__62
10
85.759003
20
-0.004000
30
10.967000
70
192
0
VERTEX
8
OBJECT__62
10
91.699997
20
-5.999000
30
-60.000999
70
192
0
VERTEX
8
OBJECT__62
10
90.230003
20
-5.816000
30
-9.337000
70
192
0
VERTEX
8
OBJECT__62
10
88.726997
20
-5.135000
30
-9.719000
70
192
0
VERTEX
8
OBJECT__62
10
91.699997
20
-5.999000
30
-9.220000
70
192
0
VERTEX
8
OBJECT__62
10
88.699997
20
-5.195000
30
-60.000999
70
192
0
VERTEX
8
OBJECT__62
10
91.699997
20
-5.999000
30
9.219000
70
192
0
VERTEX
8
OBJECT__62
10
94.699997
20
-5.195000
30
-60.000999
70
192
0
VERTEX
8
OBJECT__62
10
91.699997
20
-5.999000
30
15.999000
70
192
0
VERTEX
8
OBJECT__62
10
88.717003
20
-5.155000
30
9.711000
70
192
0
VERTEX
8
OBJECT__62
10
90.429001
20
-5.863000
30
9.306000
70
192
0
VERTEX
8
OBJECT__62
10
86.058998
20
-2.044000
30
-10.809000
70
192
0
VERTEX
8
OBJECT__62
10
85.707001
20
-0.293000
30
-10.997000
70
192
0
VERTEX
8
OBJECT__62
10
88.293999
20
-4.939000
30
-9.829000
70
192
0
VERTEX
8
OBJECT__62
10
86.901001
20
-3.601000
30
-10.395000
70
192
0
VERTEX
8
OBJECT__62
10
85.699997
20
0.001000
30
-60.000999
70
192
0
VERTEX
8
OBJECT__62
10
88.699997
20
5.197000
30
-60.000999
70
192
0
VERTEX
8
OBJECT__62
10
86.896004
20
3.596000
30
-10.397000
70
192
0
VERTEX
8
OBJECT__62
10
88.290001
20
4.937000
30
-9.831000
70
192
0
VERTEX
8
OBJECT__62
10
85.943001
20
1.691000
30
-10.870000
70
192
0
VERTEX
8
OBJECT__62
10
85.740997
20
-0.004000
30
-10.979000
70
192
0
VERTEX
8
OBJECT__62
10
85.741997
20
-0.001000
30
-10.978000
70
192
0
VERTEX
8
OBJECT__62
10
91.699997
20
6.001000
30
9.219000
70
192
0
VERTEX
8
OBJECT__62
10
89.670998
20
5.647000
30
9.439000
70
192
0
VERTEX
8
OBJECT__62
10
91.699997
20
6.001000
30
-9.220000
70
192
0
VERTEX
8
OBJECT__62
10
88.723000
20
5.150000
30
-9.713000
70
192
0
VERTEX
8
OBJECT__62
10
89.889000
20
5.721000
30
-9.397000
70
192
0
VERTEX
8
OBJECT__62
10
0
20
0
30
0
70
128
71
1
72
2
73
3
0
VERTEX
8
OBJECT__62
10
0
20
0
30
0
70
128
71
4
72
5
73
2
0
VERTEX
8
OBJECT__62
10
0
20
0
30
0
70
128
71
6
72
7
73
8
0
VERTEX
8
OBJECT__62
10
0
20
0
30
0
70
128
71
9
72
10
73
7
0
VERTEX
8
OBJECT__62
10
0
20
0
30
0
70
128
71
9
72
11
73
12
0
VERTEX
8
OBJECT__62
10
0
20
0
30
0
70
128
71
12
72
10
73
9
0
VERTEX
8
OBJECT__62
10
0
20
0
30
0
70
128
71
7
72
6
73
9
0
VERTEX
8
OBJECT__62
10
0
20
0
30
0
70
128
71
13
72
14
73
15
0
VERTEX
8
OBJECT__62
10
0
20
0
30
0
70
128
71
13
72
16
73
14
0
VERTEX
8
OBJECT__62
10
0
20
0
30
0
70
128
71
6
72
17
73
16
0
VERTEX
8
OBJECT__62
10
0
20
0
30
0
70
128
71
16
72
13
73
6
0
VERTEX
8
OBJECT__62
10
0
20
0
30
0
70
128
71
6
72
18
73
17
0
VERTEX
8
OBJECT__62
10
0
20
0
30
0
70
128
71
19
72
20
73
21
0
VERTEX
8
OBJECT__62
10
0
20
0
30
0
70
128
71
19
72
22
73
20
0
VERTEX
8
OBJECT__62
10
0
20
0
30
0
70
128
71
21
72
23
73
19
0
VERTEX
8
OBJECT__62
10
0
20
0
30
0
70
128
71
3
72
24
73
22
0
VERTEX
8
OBJECT__62
10
0
20
0
30
0
70
128
71
22
72
25
73
3
0
VERTEX
8
OBJECT__62
10
0
20
0
30
0
70
128
71
26
72
13
73
27
0
VERTEX
8
OBJECT__62
10
0
20
0
30
0
70
128
71
27
72
28
73
26
0
VERTEX
8
OBJECT__62
10
0
20
0
30
0
70
128
71
24
72
3
73
26
0
VERTEX
8
OBJECT__62
10
0
20
0
30
0
70
128
71
28
72
24
73
26
0
VERTEX
8
OBJECT__62
10
0
20
0
30
0
70
128
71
23
72
29
73
30
0
VERTEX
8
OBJECT__62
10
0
20
0
30
0
70
128
71
23
72
21
73
31
0
VERTEX
8
OBJECT__62
10
0
20
0
30
0
70
128
71
31
72
32
73
23
0
VERTEX
8
OBJECT__62
10
0
20
0
30
0
70
128
71
32
72
29
73
23
0
VERTEX
8
OBJECT__62
10
0
20
0
30
0
70
128
71
30
72
33
73
23
0
VERTEX
8
OBJECT__62
10
0
20
0
30
0
70
128
71
34
72
35
73
36
0
VERTEX
8
OBJECT__62
10
0
20
0
30
0
70
128
71
34
72
37
73
35
0
VERTEX
8
OBJECT__62
10
0
20
0
30
0
70
128
71
34
72
33
73
38
0
VERTEX
8
OBJECT__62
10
0
20
0
30
0
70
128
71
38
72
39
73
34
0
VERTEX
8
OBJECT__62
10
0
20
0
30
0
70
128
71
39
72
37
73
34
0
VERTEX
8
OBJECT__62
10
0
20
0
30
0
70
128
71
9
72
5
73
40
0
VERTEX
8
OBJECT__62
10
0
20
0
30
0
70
128
71
40
72
41
73
9
0
VERTEX
8
OBJECT__62
10
0
20
0
30
0
70
128
71
5
72
4
73
42
0
VERTEX
8
OBJECT__62
10
0
20
0
30
0
70
128
71
42
72
40
73
5
0
VERTEX
8
OBJECT__62
10
0
20
0
30
0
70
128
71
4
72
34
73
43
0
VERTEX
8
OBJECT__62
10
0
20
0
30
0
70
128
71
43
72
44
73
4
0
VERTEX
8
OBJECT__62
10
0
20
0
30
0
70
128
71
44
72
42
73
4
0
VERTEX
8
OBJECT__62
10
0
20
0
30
0
70
128
71
41
72
11
73
9
0
VERTEX
8
OBJECT__62
10
0
20
0
30
0
70
128
71
36
72
43
73
34
0
VERTEX
8
OBJECT__62
10
0
20
0
30
0
70
128
71
30
72
38
73
33
0
VERTEX
8
OBJECT__62
10
0
20
0
30
0
70
128
71
19
72
25
73
22
0
VERTEX
8
OBJECT__62
10
0
20
0
30
0
70
128
71
15
72
27
73
13
0
VERTEX
8
OBJECT__62
10
0
20
0
30
0
70
128
71
8
72
18
73
6
0
VERTEX
8
OBJECT__62
10
0
20
0
30
0
70
128
71
2
72
1
73
4
0
VERTEX
8
OBJECT__62
10
0
20
0
30
0
70
128
71
3
72
25
73
1
0
SEQEND
8
OBJECT__62
0
POLYLINE
8
OBJECT__64
66
1
70
64
71
44
72
44
62
253
0
VERTEX
8
OBJECT__64
10
71.199997
20
-10.999000
30
-0.001000
70
192
0
VERTEX
8
OBJECT__64
10
71.199997
20
-7.777000
30
-7.779000
70
192
0
VERTEX
8
OBJECT__64
10
91.699997
20
-7.777000
30
-7.779000
70
192
0
VERTEX
8
OBJECT__64
10
71.199997
20
-7.777000
30
7.777000
70
192
0
VERTEX
8
OBJECT__64
10
91.699997
20
-10.999000
30
-0.001000
70
192
0
VERTEX
8
OBJECT__64
10
91.699997
20
11.001000
30
-0.001000
70
192
0
VERTEX
8
OBJECT__64
10
71.199997
20
11.001000
30
-0.001000
70
192
0
VERTEX
8
OBJECT__64
10
71.199997
20
7.779000
30
7.777000
70
192
0
VERTEX
8
OBJECT__64
10
91.699997
20
7.779000
30
-7.779000
70
192
0
VERTEX
8
OBJECT__64
10
71.199997
20
7.779000
30
-7.779000
70
192
0
VERTEX
8
OBJECT__64
10
71.199997
20
0.001000
30
10.999000
70
192
0
VERTEX
8
OBJECT__64
10
85.718002
20
-0.470000
30
10.989000
70
192
0
VERTEX
8
OBJECT__64
10
85.759003
20
-0.004000
30
10.967000
70
192
0
VERTEX
8
OBJECT__64
10
86.117996
20
-2.200000
30
10.777000
70
192
0
VERTEX
8
OBJECT__64
10
87.008003
20
-3.739000
30
10.344000
70
192
0
VERTEX
8
OBJECT__64
10
88.458000
20
-5.048000
30
9.772000
70
192
0
VERTEX
8
OBJECT__64
10
91.699997
20
-7.777000
30
7.777000
70
192
0
VERTEX
8
OBJECT__64
10
90.429001
20
-5.863000
30
9.306000
70
192
0
VERTEX
8
OBJECT__64
10
88.717003
20
-5.155000
30
9.711000
70
192
0
VERTEX
8
OBJECT__64
10
91.699997
20
-5.999000
30
9.219000
70
192
0
VERTEX
8
OBJECT__64
10
88.726997
20
5.146000
30
9.712000
70
192
0
VERTEX
8
OBJECT__64
10
89.670998
20
5.647000
30
9.439000
70
192
0
VERTEX
8
OBJECT__64
10
88.153999
20
4.841000
30
9.877000
70
192
0
VERTEX
8
OBJECT__64
10
86.778999
20
3.434000
30
10.450000
70
192
0
VERTEX
8
OBJECT__64
10
85.889000
20
1.496000
30
10.897000
70
192
0
VERTEX
8
OBJECT__64
10
85.759003
20
-0.001000
30
10.967000
70
192
0
VERTEX
8
OBJECT__64
10
91.699997
20
7.779000
30
7.777000
70
192
0
VERTEX
8
OBJECT__64
10
71.199997
20
0.001000
30
-11.001000
70
192
0
VERTEX
8
OBJECT__64
10
85.943001
20
1.691000
30
-10.870000
70
192
0
VERTEX
8
OBJECT__64
10
89.889000
20
5.721000
30
-9.397000
70
192
0
VERTEX
8
OBJECT__64
10
88.723000
20
5.150000
30
-9.713000
70
192
0
VERTEX
8
OBJECT__64
10
88.290001
20
4.937000
30
-9.831000
70
192
0
VERTEX
8
OBJECT__64
10
86.896004
20
3.596000
30
-10.397000
70
192
0
VERTEX
8
OBJECT__64
10
91.699997
20
6.001000
30
-9.220000
70
192
0
VERTEX
8
OBJECT__64
10
88.726997
20
-5.135000
30
-9.719000
70
192
0
VERTEX
8
OBJECT__64
10
90.230003
20
-5.816000
30
-9.337000
70
192
0
VERTEX
8
OBJECT__64
10
88.293999
20
-4.939000
30
-9.829000
70
192
0
VERTEX
8
OBJECT__64
10
85.707001
20
-0.293000
30
-10.997000
70
192
0
VERTEX
8
OBJECT__64
10
86.058998
20
-2.044000
30
-10.809000
70
192
0
VERTEX
8
OBJECT__64
10
86.901001
20
-3.601000
30
-10.395000
70
192
0
VERTEX
8
OBJECT__64
10
85.741997
20
-0.001000
30
-10.978000
70
192
0
VERTEX
8
OBJECT__64
10
85.740997
20
-0.004000
30
-10.979000
70
192
0
VERTEX
8
OBJECT__64
10
91.699997
20
-5.999000
30
-9.220000
70
192
0
VERTEX
8
OBJECT__64
10
91.699997
20
6.001000
30
9.219000
70
192
0
VERTEX
8
OBJECT__64
10
0
20
0
30
0
70
128
71
1
72
2
73
3
0
VERTEX
8
OBJECT__64
10
0
20
0
30
0
70
128
71
4
72
1
73
5
0
VERTEX
8
OBJECT__64
10
0
20
0
30
0
70
128
71
6
72
7
73
8
0
VERTEX
8
OBJECT__64
10
0
20
0
30
0
70
128
71
9
72
10
73
7
0
VERTEX
8
OBJECT__64
10
0
20
0
30
0
70
128
71
11
72
12
73
13
0
VERTEX
8
OBJECT__64
10
0
20
0
30
0
70
128
71
4
72
14
73
12
0
VERTEX
8
OBJECT__64
10
0
20
0
30
0
70
128
71
4
72
15
73
14
0
VERTEX
8
OBJECT__64
10
0
20
0
30
0
70
128
71
4
72
16
73
15
0
VERTEX
8
OBJECT__64
10
0
20
0
30
0
70
128
71
12
72
11
73
4
0
VERTEX
8
OBJECT__64
10
0
20
0
30
0
70
128
71
17
72
18
73
19
0
VERTEX
8
OBJECT__64
10
0
20
0
30
0
70
128
71
19
72
4
73
17
0
VERTEX
8
OBJECT__64
10
0
20
0
30
0
70
128
71
17
72
20
73
18
0
VERTEX
8
OBJECT__64
10
0
20
0
30
0
70
128
71
19
72
16
73
4
0
VERTEX
8
OBJECT__64
10
0
20
0
30
0
70
128
71
8
72
21
73
22
0
VERTEX
8
OBJECT__64
10
0
20
0
30
0
70
128
71
8
72
23
73
21
0
VERTEX
8
OBJECT__64
10
0
20
0
30
0
70
128
71
8
72
24
73
23
0
VERTEX
8
OBJECT__64
10
0
20
0
30
0
70
128
71
8
72
25
73
24
0
VERTEX
8
OBJECT__64
10
0
20
0
30
0
70
128
71
11
72
26
73
25
0
VERTEX
8
OBJECT__64
10
0
20
0
30
0
70
128
71
25
72
8
73
11
0
VERTEX
8
OBJECT__64
10
0
20
0
30
0
70
128
71
22
72
27
73
8
0
VERTEX
8
OBJECT__64
10
0
20
0
30
0
70
128
71
28
72
10
73
29
0
VERTEX
8
OBJECT__64
10
0
20
0
30
0
70
128
71
10
72
9
73
30
0
VERTEX
8
OBJECT__64
10
0
20
0
30
0
70
128
71
30
72
31
73
10
0
VERTEX
8
OBJECT__64
10
0
20
0
30
0
70
128
71
31
72
32
73
10
0
VERTEX
8
OBJECT__64
10
0
20
0
30
0
70
128
71
32
72
33
73
10
0
VERTEX
8
OBJECT__64
10
0
20
0
30
0
70
128
71
9
72
34
73
30
0
VERTEX
8
OBJECT__64
10
0
20
0
30
0
70
128
71
33
72
29
73
10
0
VERTEX
8
OBJECT__64
10
0
20
0
30
0
70
128
71
2
72
35
73
36
0
VERTEX
8
OBJECT__64
10
0
20
0
30
0
70
128
71
2
72
37
73
35
0
VERTEX
8
OBJECT__64
10
0
20
0
30
0
70
128
71
2
72
28
73
38
0
VERTEX
8
OBJECT__64
10
0
20
0
30
0
70
128
71
38
72
39
73
2
0
VERTEX
8
OBJECT__64
10
0
20
0
30
0
70
128
71
39
72
40
73
2
0
VERTEX
8
OBJECT__64
10
0
20
0
30
0
70
128
71
40
72
37
73
2
0
VERTEX
8
OBJECT__64
10
0
20
0
30
0
70
128
71
36
72
3
73
2
0
VERTEX
8
OBJECT__64
10
0
20
0
30
0
70
128
71
28
72
41
73
42
0
VERTEX
8
OBJECT__64
10
0
20
0
30
0
70
128
71
42
72
38
73
28
0
VERTEX
8
OBJECT__64
10
0
20
0
30
0
70
128
71
36
72
43
73
3
0
VERTEX
8
OBJECT__64
10
0
20
0
30
0
70
128
71
29
72
41
73
28
0
VERTEX
8
OBJECT__64
10
0
20
0
30
0
70
128
71
22
72
44
73
27
0
VERTEX
8
OBJECT__64
10
0
20
0
30
0
70
128
71
13
72
26
73
11
0
VERTEX
8
OBJECT__64
10
0
20
0
30
0
70
128
71
7
72
6
73
9
0
VERTEX
8
OBJECT__64
10
0
20
0
30
0
70
128
71
8
72
27
73
6
0
VERTEX
8
OBJECT__64
10
0
20
0
30
0
70
128
71
5
72
17
73
4
0
VERTEX
8
OBJECT__64
10
0
20
0
30
0
70
128
71
3
72
5
73
1
0
SEQEND
8
OBJECT__64
0
POLYLINE
8
OBJECT__65
66
1
70
64
71
5
72
3
62
253
0
VERTEX
8
OBJECT__65
10
91.699997
20
7.779000
30
7.777000
70
192
0
VERTEX
8
OBJECT__65
10
91.699997
20
6.001000
30
-9.220000
70
192
0
VERTEX
8
OBJECT__65
10
91.699997
20
7.779000
30
-7.779000
70
192
0
VERTEX
8
OBJECT__65
10
91.699997
20
11.001000
30
-0.001000
70
192
0
VERTEX
8
OBJECT__65
10
91.699997
20
6.001000
30
9.219000
70
192
0
VERTEX
8
OBJECT__65
10
0
20
0
30
0
70
128
71
1
72
2
73
3
0
VERTEX
8
OBJECT__65
10
0
20
0
30
0
70
128
71
3
72
4
73
1
0
VERTEX
8
OBJECT__65
10
0
20
0
30
0
70
128
71
1
72
5
73
2
0
SEQEND
8
OBJECT__65
0
POLYLINE
8
OBJECT__66
66
1
70
64
71
5
72
3
62
253
0
VERTEX
8
OBJECT__66
10
91.699997
20
-7.777000
30
-7.779000
70
192
0
VERTEX
8
OBJECT__66
10
91.699997
20
-5.999000
30
9.219000
70
192
0
VERTEX
8
OBJECT__66
10
91.699997
20
-7.777000
30
7.777000
70
192
0
VERTEX
8
OBJECT__66
10
91.699997
20
-10.999000
30
-0.001000
70
192
0
VERTEX
8
OBJECT__66
10
91.699997
20
-5.999000
30
-9.220000
70
192
0
VERTEX
8
OBJECT__66
10
0
20
0
30
0
70
128
71
1
72
2
73
3
0
VERTEX
8
OBJECT__66
10
0
20
0
30
0
70
128
71
3
72
4
73
1
0
VERTEX
8
OBJECT__66
10
0
20
0
30
0
70
128
71
1
72
5
73
2
0
SEQEND
8
OBJECT__66
0
POLYLINE
8
OBJECT__67
66
1
70
64
71
7
72
5
62
253
0
VERTEX
8
OBJECT__67
10
94.699997
20
-5.195000
30
-60.000999
70
192
0
VERTEX
8
OBJECT__67
10
88.699997
20
5.197000
30
-60.000999
70
192
0
VERTEX
8
OBJECT__67
10
94.699997
20
5.197000
30
-60.000999
70
192
0
VERTEX
8
OBJECT__67
10
91.699997
20
-5.999000
30
-60.000999
70
192
0
VERTEX
8
OBJECT__67
10
88.699997
20
-5.195000
30
-60.000999
70
192
0
VERTEX
8
OBJECT__67
10
97.699997
20
0.001000
30
-60.000999
70
192
0
VERTEX
8
OBJECT__67
10
85.699997
20
0.001000
30
-60.000999
70
192
0
VERTEX
8
OBJECT__67
10
0
20
0
30
0
70
128
71
1
72
2
73
3
0
VERTEX
8
OBJECT__67
10
0
20
0
30
0
70
128
71
2
72
4
73
5
0
VERTEX
8
OBJECT__67
10
0
20
0
30
0
70
128
71
3
72
6
73
1
0
VERTEX
8
OBJECT__67
10
0
20
0
30
0
70
128
71
1
72
4
73
2
0
VERTEX
8
OBJECT__67
10
0
20
0
30
0
70
128
71
5
72
7
73
2
0
SEQEND
8
OBJECT__67
0
ENDSEC
0
EOF
