999
Converted by 3D Exploration 
999
XDimension Software, LLC
999
http://www.xdsoft.com/explorer/
0
SECTION
2
HEADER
9
$ACADVER
1
AC1008
9
$UCSORG
10
0.0
20
0.0
30
0.0
9
$UCSXDIR
10
1.0
20
0.0
30
0.0
9
$TILEMODE
70
1
9
$UCSYDIR
10
0.0
20
1.0
30
0.0
9
$EXTMIN
10
-25.361000
20
-22.500000
30
-22.500000
9
$EXTMAX
10
130.440994
20
22.500000
30
134.630997
0
ENDSEC
0
SECTION
2
TABLES
0
TABLE
2
LTYPE
70
1
0
LTYPE
2
CONTINUOUS
70
64
3
Solid line
72
65
73
0
40
0.0
0
ENDTAB
0
TABLE
2
LAYER
70
49
0
LAYER
2
OBJECT__0
70
0
62
253
6
CONTINUOUS
0
LAYER
2
OBJECT__1
70
0
62
253
6
CONTINUOUS
0
LAYER
2
OBJECT__3
70
0
62
253
6
CONTINUOUS
0
LAYER
2
OBJECT__4
70
0
62
253
6
CONTINUOUS
0
LAYER
2
OBJECT__5
70
0
62
253
6
CONTINUOUS
0
LAYER
2
OBJECT__7
70
0
62
253
6
CONTINUOUS
0
LAYER
2
OBJECT__8
70
0
62
253
6
CONTINUOUS
0
LAYER
2
OBJECT__9
70
0
62
253
6
CONTINUOUS
0
LAYER
2
OBJECT__10
70
0
62
253
6
CONTINUOUS
0
LAYER
2
OBJECT__11
70
0
62
253
6
CONTINUOUS
0
LAYER
2
OBJECT__12
70
0
62
253
6
CONTINUOUS
0
LAYER
2
OBJECT__13
70
0
62
253
6
CONTINUOUS
0
LAYER
2
OBJECT__14
70
0
62
253
6
CONTINUOUS
0
LAYER
2
OBJECT__15
70
0
62
253
6
CONTINUOUS
0
LAYER
2
OBJECT__16
70
0
62
253
6
CONTINUOUS
0
LAYER
2
OBJECT__17
70
0
62
253
6
CONTINUOUS
0
LAYER
2
OBJECT__19
70
0
62
253
6
CONTINUOUS
0
LAYER
2
OBJECT__20
70
0
62
253
6
CONTINUOUS
0
LAYER
2
OBJECT__21
70
0
62
253
6
CONTINUOUS
0
LAYER
2
OBJECT__22
70
0
62
253
6
CONTINUOUS
0
LAYER
2
OBJECT__23
70
0
62
253
6
CONTINUOUS
0
LAYER
2
OBJECT__24
70
0
62
253
6
CONTINUOUS
0
LAYER
2
OBJECT__25
70
0
62
253
6
CONTINUOUS
0
LAYER
2
OBJECT__26
70
0
62
253
6
CONTINUOUS
0
LAYER
2
OBJECT__27
70
0
62
253
6
CONTINUOUS
0
LAYER
2
OBJECT__28
70
0
62
253
6
CONTINUOUS
0
LAYER
2
OBJECT__29
70
0
62
253
6
CONTINUOUS
0
LAYER
2
OBJECT__30
70
0
62
253
6
CONTINUOUS
0
LAYER
2
OBJECT__31
70
0
62
253
6
CONTINUOUS
0
LAYER
2
OBJECT__32
70
0
62
253
6
CONTINUOUS
0
LAYER
2
OBJECT__33
70
0
62
253
6
CONTINUOUS
0
LAYER
2
OBJECT__34
70
0
62
253
6
CONTINUOUS
0
LAYER
2
OBJECT__35
70
0
62
253
6
CONTINUOUS
0
LAYER
2
OBJECT__36
70
0
62
253
6
CONTINUOUS
0
LAYER
2
OBJECT__37
70
0
62
253
6
CONTINUOUS
0
LAYER
2
OBJECT__38
70
0
62
253
6
CONTINUOUS
0
LAYER
2
OBJECT__39
70
0
62
253
6
CONTINUOUS
0
LAYER
2
OBJECT__40
70
0
62
253
6
CONTINUOUS
0
LAYER
2
OBJECT__42
70
0
62
253
6
CONTINUOUS
0
LAYER
2
OBJECT__43
70
0
62
253
6
CONTINUOUS
0
LAYER
2
OBJECT__44
70
0
62
253
6
CONTINUOUS
0
LAYER
2
OBJECT__45
70
0
62
253
6
CONTINUOUS
0
LAYER
2
OBJECT__46
70
0
62
253
6
CONTINUOUS
0
LAYER
2
OBJECT__47
70
0
62
253
6
CONTINUOUS
0
LAYER
2
OBJECT__48
70
0
62
253
6
CONTINUOUS
0
ENDTAB
0
TABLE
2
STYLE
70
1
0
STYLE
2
STANDARD
70
0
40
0.0
41
1.0
50
0.0
71
0
42
0.2
3
txt
4
1
0
ENDTAB
0
TABLE
2
UCS
70
0
0
ENDTAB
0
ENDSEC
0
SECTION
2
ENTITIES
0
POLYLINE
8
OBJECT__0
66
1
70
64
71
27
72
26
62
253
0
VERTEX
8
OBJECT__0
10
72.900002
20
0.000000
30
126.266998
70
192
0
VERTEX
8
OBJECT__0
10
59.521999
20
8.016000
30
133.643005
70
192
0
VERTEX
8
OBJECT__0
10
58.666000
20
4.008000
30
134.136993
70
192
0
VERTEX
8
OBJECT__0
10
64.263000
20
14.196000
30
130.904999
70
192
0
VERTEX
8
OBJECT__0
10
61.891998
20
11.106000
30
132.274002
70
192
0
VERTEX
8
OBJECT__0
10
70.948997
20
17.124001
30
127.044998
70
192
0
VERTEX
8
OBJECT__0
10
67.606003
20
15.660000
30
128.975006
70
192
0
VERTEX
8
OBJECT__0
10
78.046997
20
16.129000
30
122.946999
70
192
0
VERTEX
8
OBJECT__0
10
74.498001
20
16.627001
30
124.996002
70
192
0
VERTEX
8
OBJECT__0
10
83.931000
20
11.439000
30
119.550003
70
192
0
VERTEX
8
OBJECT__0
10
80.988998
20
13.784000
30
121.249001
70
192
0
VERTEX
8
OBJECT__0
10
87.253998
20
4.128000
30
117.630997
70
192
0
VERTEX
8
OBJECT__0
10
85.593002
20
7.784000
30
118.591003
70
192
0
VERTEX
8
OBJECT__0
10
87.253998
20
-4.128000
30
117.630997
70
192
0
VERTEX
8
OBJECT__0
10
87.688004
20
0.000000
30
117.380997
70
192
0
VERTEX
8
OBJECT__0
10
83.931000
20
-11.439000
30
119.550003
70
192
0
VERTEX
8
OBJECT__0
10
85.593002
20
-7.784000
30
118.591003
70
192
0
VERTEX
8
OBJECT__0
10
78.046997
20
-16.129000
30
122.946999
70
192
0
VERTEX
8
OBJECT__0
10
80.988998
20
-13.784000
30
121.249001
70
192
0
VERTEX
8
OBJECT__0
10
70.948997
20
-17.124001
30
127.044998
70
192
0
VERTEX
8
OBJECT__0
10
74.498001
20
-16.627001
30
124.996002
70
192
0
VERTEX
8
OBJECT__0
10
64.263000
20
-14.196000
30
130.904999
70
192
0
VERTEX
8
OBJECT__0
10
67.606003
20
-15.660000
30
128.975006
70
192
0
VERTEX
8
OBJECT__0
10
59.521999
20
-8.016000
30
133.643005
70
192
0
VERTEX
8
OBJECT__0
10
61.891998
20
-11.106000
30
132.274002
70
192
0
VERTEX
8
OBJECT__0
10
57.811001
20
0.000000
30
134.630997
70
192
0
VERTEX
8
OBJECT__0
10
58.666000
20
-4.008000
30
134.136993
70
192
0
VERTEX
8
OBJECT__0
10
0
20
0
30
0
70
128
71
1
72
2
73
3
0
VERTEX
8
OBJECT__0
10
0
20
0
30
0
70
128
71
1
72
4
73
5
0
VERTEX
8
OBJECT__0
10
0
20
0
30
0
70
128
71
1
72
6
73
7
0
VERTEX
8
OBJECT__0
10
0
20
0
30
0
70
128
71
1
72
8
73
9
0
VERTEX
8
OBJECT__0
10
0
20
0
30
0
70
128
71
1
72
10
73
11
0
VERTEX
8
OBJECT__0
10
0
20
0
30
0
70
128
71
1
72
12
73
13
0
VERTEX
8
OBJECT__0
10
0
20
0
30
0
70
128
71
1
72
14
73
15
0
VERTEX
8
OBJECT__0
10
0
20
0
30
0
70
128
71
1
72
16
73
17
0
VERTEX
8
OBJECT__0
10
0
20
0
30
0
70
128
71
1
72
18
73
19
0
VERTEX
8
OBJECT__0
10
0
20
0
30
0
70
128
71
1
72
20
73
21
0
VERTEX
8
OBJECT__0
10
0
20
0
30
0
70
128
71
1
72
22
73
23
0
VERTEX
8
OBJECT__0
10
0
20
0
30
0
70
128
71
1
72
24
73
25
0
VERTEX
8
OBJECT__0
10
0
20
0
30
0
70
128
71
1
72
26
73
27
0
VERTEX
8
OBJECT__0
10
0
20
0
30
0
70
128
71
27
72
24
73
1
0
VERTEX
8
OBJECT__0
10
0
20
0
30
0
70
128
71
25
72
22
73
1
0
VERTEX
8
OBJECT__0
10
0
20
0
30
0
70
128
71
23
72
20
73
1
0
VERTEX
8
OBJECT__0
10
0
20
0
30
0
70
128
71
21
72
18
73
1
0
VERTEX
8
OBJECT__0
10
0
20
0
30
0
70
128
71
19
72
16
73
1
0
VERTEX
8
OBJECT__0
10
0
20
0
30
0
70
128
71
17
72
14
73
1
0
VERTEX
8
OBJECT__0
10
0
20
0
30
0
70
128
71
15
72
12
73
1
0
VERTEX
8
OBJECT__0
10
0
20
0
30
0
70
128
71
13
72
10
73
1
0
VERTEX
8
OBJECT__0
10
0
20
0
30
0
70
128
71
11
72
8
73
1
0
VERTEX
8
OBJECT__0
10
0
20
0
30
0
70
128
71
9
72
6
73
1
0
VERTEX
8
OBJECT__0
10
0
20
0
30
0
70
128
71
7
72
4
73
1
0
VERTEX
8
OBJECT__0
10
0
20
0
30
0
70
128
71
5
72
2
73
1
0
VERTEX
8
OBJECT__0
10
0
20
0
30
0
70
128
71
3
72
26
73
1
0
SEQEND
8
OBJECT__0
0
POLYLINE
8
OBJECT__1
66
1
70
64
71
39
72
39
62
253
0
VERTEX
8
OBJECT__1
10
81.588997
20
0.000000
30
106.816002
70
192
0
VERTEX
8
OBJECT__1
10
79.877998
20
8.016000
30
107.804001
70
192
0
VERTEX
8
OBJECT__1
10
87.253998
20
4.128000
30
117.630997
70
192
0
VERTEX
8
OBJECT__1
10
85.593002
20
7.784000
30
118.591003
70
192
0
VERTEX
8
OBJECT__1
10
75.136002
20
14.196000
30
110.542000
70
192
0
VERTEX
8
OBJECT__1
10
83.931000
20
11.439000
30
119.550003
70
192
0
VERTEX
8
OBJECT__1
10
80.988998
20
13.784000
30
121.249001
70
192
0
VERTEX
8
OBJECT__1
10
68.450996
20
17.124001
30
114.402000
70
192
0
VERTEX
8
OBJECT__1
10
78.046997
20
16.129000
30
122.946999
70
192
0
VERTEX
8
OBJECT__1
10
74.498001
20
16.627001
30
124.996002
70
192
0
VERTEX
8
OBJECT__1
10
61.353001
20
16.129000
30
118.500000
70
192
0
VERTEX
8
OBJECT__1
10
70.948997
20
17.124001
30
127.044998
70
192
0
VERTEX
8
OBJECT__1
10
67.606003
20
15.660000
30
128.975006
70
192
0
VERTEX
8
OBJECT__1
10
55.467999
20
11.439000
30
121.897003
70
192
0
VERTEX
8
OBJECT__1
10
64.263000
20
14.196000
30
130.904999
70
192
0
VERTEX
8
OBJECT__1
10
61.891998
20
11.106000
30
132.274002
70
192
0
VERTEX
8
OBJECT__1
10
52.145000
20
4.128000
30
123.816002
70
192
0
VERTEX
8
OBJECT__1
10
59.521999
20
8.016000
30
133.643005
70
192
0
VERTEX
8
OBJECT__1
10
58.666000
20
4.008000
30
134.136993
70
192
0
VERTEX
8
OBJECT__1
10
52.145000
20
-4.128000
30
123.816002
70
192
0
VERTEX
8
OBJECT__1
10
57.811001
20
0.000000
30
134.630997
70
192
0
VERTEX
8
OBJECT__1
10
58.666000
20
-4.008000
30
134.136993
70
192
0
VERTEX
8
OBJECT__1
10
55.467999
20
-11.439000
30
121.897003
70
192
0
VERTEX
8
OBJECT__1
10
61.891998
20
-11.106000
30
132.274002
70
192
0
VERTEX
8
OBJECT__1
10
59.521999
20
-8.016000
30
133.643005
70
192
0
VERTEX
8
OBJECT__1
10
61.353001
20
-16.129000
30
118.500000
70
192
0
VERTEX
8
OBJECT__1
10
67.606003
20
-15.660000
30
128.975006
70
192
0
VERTEX
8
OBJECT__1
10
64.263000
20
-14.196000
30
130.904999
70
192
0
VERTEX
8
OBJECT__1
10
68.450996
20
-17.124001
30
114.402000
70
192
0
VERTEX
8
OBJECT__1
10
74.498001
20
-16.627001
30
124.996002
70
192
0
VERTEX
8
OBJECT__1
10
70.948997
20
-17.124001
30
127.044998
70
192
0
VERTEX
8
OBJECT__1
10
75.136002
20
-14.196000
30
110.542000
70
192
0
VERTEX
8
OBJECT__1
10
80.988998
20
-13.784000
30
121.249001
70
192
0
VERTEX
8
OBJECT__1
10
78.046997
20
-16.129000
30
122.946999
70
192
0
VERTEX
8
OBJECT__1
10
79.877998
20
-8.016000
30
107.804001
70
192
0
VERTEX
8
OBJECT__1
10
85.593002
20
-7.784000
30
118.591003
70
192
0
VERTEX
8
OBJECT__1
10
83.931000
20
-11.439000
30
119.550003
70
192
0
VERTEX
8
OBJECT__1
10
87.688004
20
0.000000
30
117.380997
70
192
0
VERTEX
8
OBJECT__1
10
87.253998
20
-4.128000
30
117.630997
70
192
0
VERTEX
8
OBJECT__1
10
0
20
0
30
0
70
128
71
1
72
2
73
3
0
VERTEX
8
OBJECT__1
10
0
20
0
30
0
70
128
71
2
72
4
73
3
0
VERTEX
8
OBJECT__1
10
0
20
0
30
0
70
128
71
2
72
5
73
6
0
VERTEX
8
OBJECT__1
10
0
20
0
30
0
70
128
71
5
72
7
73
6
0
VERTEX
8
OBJECT__1
10
0
20
0
30
0
70
128
71
5
72
8
73
9
0
VERTEX
8
OBJECT__1
10
0
20
0
30
0
70
128
71
8
72
10
73
9
0
VERTEX
8
OBJECT__1
10
0
20
0
30
0
70
128
71
8
72
11
73
12
0
VERTEX
8
OBJECT__1
10
0
20
0
30
0
70
128
71
11
72
13
73
12
0
VERTEX
8
OBJECT__1
10
0
20
0
30
0
70
128
71
11
72
14
73
15
0
VERTEX
8
OBJECT__1
10
0
20
0
30
0
70
128
71
14
72
16
73
15
0
VERTEX
8
OBJECT__1
10
0
20
0
30
0
70
128
71
14
72
17
73
18
0
VERTEX
8
OBJECT__1
10
0
20
0
30
0
70
128
71
17
72
19
73
18
0
VERTEX
8
OBJECT__1
10
0
20
0
30
0
70
128
71
17
72
20
73
21
0
VERTEX
8
OBJECT__1
10
0
20
0
30
0
70
128
71
20
72
22
73
21
0
VERTEX
8
OBJECT__1
10
0
20
0
30
0
70
128
71
23
72
24
73
25
0
VERTEX
8
OBJECT__1
10
0
20
0
30
0
70
128
71
25
72
20
73
23
0
VERTEX
8
OBJECT__1
10
0
20
0
30
0
70
128
71
26
72
27
73
28
0
VERTEX
8
OBJECT__1
10
0
20
0
30
0
70
128
71
28
72
23
73
26
0
VERTEX
8
OBJECT__1
10
0
20
0
30
0
70
128
71
29
72
30
73
31
0
VERTEX
8
OBJECT__1
10
0
20
0
30
0
70
128
71
31
72
26
73
29
0
VERTEX
8
OBJECT__1
10
0
20
0
30
0
70
128
71
32
72
33
73
34
0
VERTEX
8
OBJECT__1
10
0
20
0
30
0
70
128
71
34
72
29
73
32
0
VERTEX
8
OBJECT__1
10
0
20
0
30
0
70
128
71
35
72
36
73
37
0
VERTEX
8
OBJECT__1
10
0
20
0
30
0
70
128
71
37
72
32
73
35
0
VERTEX
8
OBJECT__1
10
0
20
0
30
0
70
128
71
1
72
38
73
39
0
VERTEX
8
OBJECT__1
10
0
20
0
30
0
70
128
71
39
72
35
73
1
0
VERTEX
8
OBJECT__1
10
0
20
0
30
0
70
128
71
39
72
36
73
35
0
VERTEX
8
OBJECT__1
10
0
20
0
30
0
70
128
71
37
72
33
73
32
0
VERTEX
8
OBJECT__1
10
0
20
0
30
0
70
128
71
34
72
30
73
29
0
VERTEX
8
OBJECT__1
10
0
20
0
30
0
70
128
71
31
72
27
73
26
0
VERTEX
8
OBJECT__1
10
0
20
0
30
0
70
128
71
28
72
24
73
23
0
VERTEX
8
OBJECT__1
10
0
20
0
30
0
70
128
71
25
72
22
73
20
0
VERTEX
8
OBJECT__1
10
0
20
0
30
0
70
128
71
21
72
19
73
17
0
VERTEX
8
OBJECT__1
10
0
20
0
30
0
70
128
71
18
72
16
73
14
0
VERTEX
8
OBJECT__1
10
0
20
0
30
0
70
128
71
15
72
13
73
11
0
VERTEX
8
OBJECT__1
10
0
20
0
30
0
70
128
71
12
72
10
73
8
0
VERTEX
8
OBJECT__1
10
0
20
0
30
0
70
128
71
9
72
7
73
5
0
VERTEX
8
OBJECT__1
10
0
20
0
30
0
70
128
71
6
72
4
73
2
0
VERTEX
8
OBJECT__1
10
0
20
0
30
0
70
128
71
3
72
38
73
1
0
SEQEND
8
OBJECT__1
0
POLYLINE
8
OBJECT__3
66
1
70
64
71
13
72
11
62
253
0
VERTEX
8
OBJECT__3
10
61.353001
20
16.129000
30
118.500000
70
192
0
VERTEX
8
OBJECT__3
10
75.136002
20
14.196000
30
110.542000
70
192
0
VERTEX
8
OBJECT__3
10
79.877998
20
8.016000
30
107.804001
70
192
0
VERTEX
8
OBJECT__3
10
68.450996
20
17.124001
30
114.402000
70
192
0
VERTEX
8
OBJECT__3
10
81.588997
20
0.000000
30
106.816002
70
192
0
VERTEX
8
OBJECT__3
10
52.145000
20
4.128000
30
123.816002
70
192
0
VERTEX
8
OBJECT__3
10
55.467999
20
11.439000
30
121.897003
70
192
0
VERTEX
8
OBJECT__3
10
68.450996
20
-17.124001
30
114.402000
70
192
0
VERTEX
8
OBJECT__3
10
61.353001
20
-16.129000
30
118.500000
70
192
0
VERTEX
8
OBJECT__3
10
55.467999
20
-11.439000
30
121.897003
70
192
0
VERTEX
8
OBJECT__3
10
79.877998
20
-8.016000
30
107.804001
70
192
0
VERTEX
8
OBJECT__3
10
52.145000
20
-4.128000
30
123.816002
70
192
0
VERTEX
8
OBJECT__3
10
75.136002
20
-14.196000
30
110.542000
70
192
0
VERTEX
8
OBJECT__3
10
0
20
0
30
0
70
128
71
1
72
2
73
3
0
VERTEX
8
OBJECT__3
10
0
20
0
30
0
70
128
71
1
72
4
73
2
0
VERTEX
8
OBJECT__3
10
0
20
0
30
0
70
128
71
5
72
6
73
7
0
VERTEX
8
OBJECT__3
10
0
20
0
30
0
70
128
71
5
72
8
73
9
0
VERTEX
8
OBJECT__3
10
0
20
0
30
0
70
128
71
7
72
1
73
5
0
VERTEX
8
OBJECT__3
10
0
20
0
30
0
70
128
71
9
72
10
73
5
0
VERTEX
8
OBJECT__3
10
0
20
0
30
0
70
128
71
8
72
5
73
11
0
VERTEX
8
OBJECT__3
10
0
20
0
30
0
70
128
71
5
72
12
73
6
0
VERTEX
8
OBJECT__3
10
0
20
0
30
0
70
128
71
11
72
13
73
8
0
VERTEX
8
OBJECT__3
10
0
20
0
30
0
70
128
71
10
72
12
73
5
0
VERTEX
8
OBJECT__3
10
0
20
0
30
0
70
128
71
3
72
5
73
1
0
SEQEND
8
OBJECT__3
0
POLYLINE
8
OBJECT__4
66
1
70
64
71
72
72
70
62
253
0
VERTEX
8
OBJECT__4
10
-8.460000
20
-21.726000
30
0.000000
70
192
0
VERTEX
8
OBJECT__4
10
-20.760000
20
-13.634000
30
0.000000
70
192
0
VERTEX
8
OBJECT__4
10
-22.733000
20
-10.554000
30
0.000000
70
192
0
VERTEX
8
OBJECT__4
10
-20.636999
20
-13.776000
30
0.000000
70
192
0
VERTEX
8
OBJECT__4
10
-17.167000
20
-17.275000
30
0.000000
70
192
0
VERTEX
8
OBJECT__4
10
-18.858999
20
-15.822000
30
0.000000
70
192
0
VERTEX
8
OBJECT__4
10
-16.086000
20
-18.202999
30
0.000000
70
192
0
VERTEX
8
OBJECT__4
10
-9.569000
20
-21.476999
30
0.000000
70
192
0
VERTEX
8
OBJECT__4
10
26.511999
20
-9.810000
30
0.000000
70
192
0
VERTEX
8
OBJECT__4
10
23.922001
20
-14.540000
30
0.000000
70
192
0
VERTEX
8
OBJECT__4
10
21.988001
20
-16.334999
30
0.000000
70
192
0
VERTEX
8
OBJECT__4
10
20.441999
20
-17.260000
30
0.000000
70
192
0
VERTEX
8
OBJECT__4
10
27.152000
20
-6.367000
30
0.000000
70
192
0
VERTEX
8
OBJECT__4
10
26.778000
20
-9.078000
30
0.000000
70
192
0
VERTEX
8
OBJECT__4
10
27.159000
20
0.000000
30
0.000000
70
192
0
VERTEX
8
OBJECT__4
10
17.607000
20
18.492001
30
0.000000
70
192
0
VERTEX
8
OBJECT__4
10
20.066999
20
17.537001
30
0.000000
70
192
0
VERTEX
8
OBJECT__4
10
-12.960000
20
-20.106001
30
0.000000
70
192
0
VERTEX
8
OBJECT__4
10
24.240999
20
-14.159000
30
0.000000
70
192
0
VERTEX
8
OBJECT__4
10
25.826000
20
-11.691000
30
0.000000
70
192
0
VERTEX
8
OBJECT__4
10
24.341999
20
-14.038000
30
0.000000
70
192
0
VERTEX
8
OBJECT__4
10
27.159000
20
-5.958000
30
0.000000
70
192
0
VERTEX
8
OBJECT__4
10
20.454000
20
17.284000
30
0.000000
70
192
0
VERTEX
8
OBJECT__4
10
26.514000
20
9.810000
30
0.000000
70
192
0
VERTEX
8
OBJECT__4
10
26.768999
20
9.117000
30
0.000000
70
192
0
VERTEX
8
OBJECT__4
10
16.972000
20
18.650000
30
0.000000
70
192
0
VERTEX
8
OBJECT__4
10
-3.585000
20
22.440001
30
0.000000
70
192
0
VERTEX
8
OBJECT__4
10
-2.848000
20
22.500000
30
0.000000
70
192
0
VERTEX
8
OBJECT__4
10
-23.165001
20
-9.550000
30
0.000000
70
192
0
VERTEX
8
OBJECT__4
10
-24.180000
20
-7.194000
30
0.000000
70
192
0
VERTEX
8
OBJECT__4
10
27.159000
20
-4.945000
30
0.000000
70
192
0
VERTEX
8
OBJECT__4
10
27.152000
20
6.366000
30
0.000000
70
192
0
VERTEX
8
OBJECT__4
10
24.341999
20
14.039000
30
0.000000
70
192
0
VERTEX
8
OBJECT__4
10
25.809000
20
11.727000
30
0.000000
70
192
0
VERTEX
8
OBJECT__4
10
15.817000
20
18.906000
30
0.000000
70
192
0
VERTEX
8
OBJECT__4
10
10.989000
20
19.976000
30
0.000000
70
192
0
VERTEX
8
OBJECT__4
10
13.435000
20
19.434000
30
0.000000
70
192
0
VERTEX
8
OBJECT__4
10
1.325000
20
22.061001
30
0.000000
70
192
0
VERTEX
8
OBJECT__4
10
2.008000
20
21.966999
30
0.000000
70
192
0
VERTEX
8
OBJECT__4
10
-1.612000
20
22.465000
30
0.000000
70
192
0
VERTEX
8
OBJECT__4
10
-16.485001
20
17.907000
30
0.000000
70
192
0
VERTEX
8
OBJECT__4
10
-13.403000
20
19.878000
30
0.000000
70
192
0
VERTEX
8
OBJECT__4
10
-24.754000
20
-4.889000
30
0.000000
70
192
0
VERTEX
8
OBJECT__4
10
-3.586000
20
-22.448000
30
0.000000
70
192
0
VERTEX
8
OBJECT__4
10
-6.000000
20
-22.280001
30
0.000000
70
192
0
VERTEX
8
OBJECT__4
10
13.435000
20
-19.434000
30
0.000000
70
192
0
VERTEX
8
OBJECT__4
10
10.989000
20
-19.976000
30
0.000000
70
192
0
VERTEX
8
OBJECT__4
10
19.601000
20
-17.763000
30
0.000000
70
192
0
VERTEX
8
OBJECT__4
10
27.159000
20
5.958000
30
0.000000
70
192
0
VERTEX
8
OBJECT__4
10
22.395000
20
16.014999
30
0.000000
70
192
0
VERTEX
8
OBJECT__4
10
-8.456000
20
21.716999
30
0.000000
70
192
0
VERTEX
8
OBJECT__4
10
-6.492000
20
22.205000
30
0.000000
70
192
0
VERTEX
8
OBJECT__4
10
-13.079000
20
20.017000
30
0.000000
70
192
0
VERTEX
8
OBJECT__4
10
-10.043000
20
21.323000
30
0.000000
70
192
0
VERTEX
8
OBJECT__4
10
-17.181999
20
17.294001
30
0.000000
70
192
0
VERTEX
8
OBJECT__4
10
-20.601999
20
13.747000
30
0.000000
70
192
0
VERTEX
8
OBJECT__4
10
-18.858999
20
15.822000
30
0.000000
70
192
0
VERTEX
8
OBJECT__4
10
-23.200001
20
9.566000
30
0.000000
70
192
0
VERTEX
8
OBJECT__4
10
-23.077999
20
9.877000
30
0.000000
70
192
0
VERTEX
8
OBJECT__4
10
-25.063999
20
-3.644000
30
0.000000
70
192
0
VERTEX
8
OBJECT__4
10
-25.361000
20
0.000000
30
0.000000
70
192
0
VERTEX
8
OBJECT__4
10
0.795000
20
-22.201000
30
0.000000
70
192
0
VERTEX
8
OBJECT__4
10
-2.848000
20
-22.500000
30
0.000000
70
192
0
VERTEX
8
OBJECT__4
10
2.008000
20
-21.966999
30
0.000000
70
192
0
VERTEX
8
OBJECT__4
10
15.817000
20
-18.905001
30
0.000000
70
192
0
VERTEX
8
OBJECT__4
10
16.972000
20
-18.649000
30
0.000000
70
192
0
VERTEX
8
OBJECT__4
10
-21.209999
20
13.023000
30
0.000000
70
192
0
VERTEX
8
OBJECT__4
10
-24.747999
20
4.890000
30
0.000000
70
192
0
VERTEX
8
OBJECT__4
10
-24.410999
20
6.470000
30
0.000000
70
192
0
VERTEX
8
OBJECT__4
10
-25.174999
20
2.892000
30
0.000000
70
192
0
VERTEX
8
OBJECT__4
10
1.330000
20
-22.098000
30
0.000000
70
192
0
VERTEX
8
OBJECT__4
10
27.159000
20
4.945000
30
0.000000
70
192
0
VERTEX
8
OBJECT__4
10
0
20
0
30
0
70
128
71
1
72
2
73
3
0
VERTEX
8
OBJECT__4
10
0
20
0
30
0
70
128
71
1
72
4
73
2
0
VERTEX
8
OBJECT__4
10
0
20
0
30
0
70
128
71
1
72
5
73
6
0
VERTEX
8
OBJECT__4
10
0
20
0
30
0
70
128
71
7
72
1
73
8
0
VERTEX
8
OBJECT__4
10
0
20
0
30
0
70
128
71
9
72
10
73
11
0
VERTEX
8
OBJECT__4
10
0
20
0
30
0
70
128
71
12
72
13
73
14
0
VERTEX
8
OBJECT__4
10
0
20
0
30
0
70
128
71
15
72
16
73
17
0
VERTEX
8
OBJECT__4
10
0
20
0
30
0
70
128
71
6
72
4
73
1
0
VERTEX
8
OBJECT__4
10
0
20
0
30
0
70
128
71
8
72
18
73
7
0
VERTEX
8
OBJECT__4
10
0
20
0
30
0
70
128
71
9
72
19
73
10
0
VERTEX
8
OBJECT__4
10
0
20
0
30
0
70
128
71
9
72
20
73
21
0
VERTEX
8
OBJECT__4
10
0
20
0
30
0
70
128
71
12
72
22
73
13
0
VERTEX
8
OBJECT__4
10
0
20
0
30
0
70
128
71
23
72
24
73
25
0
VERTEX
8
OBJECT__4
10
0
20
0
30
0
70
128
71
15
72
26
73
16
0
VERTEX
8
OBJECT__4
10
0
20
0
30
0
70
128
71
15
72
27
73
28
0
VERTEX
8
OBJECT__4
10
0
20
0
30
0
70
128
71
1
72
29
73
30
0
VERTEX
8
OBJECT__4
10
0
20
0
30
0
70
128
71
7
72
5
73
1
0
VERTEX
8
OBJECT__4
10
0
20
0
30
0
70
128
71
21
72
19
73
9
0
VERTEX
8
OBJECT__4
10
0
20
0
30
0
70
128
71
12
72
31
73
22
0
VERTEX
8
OBJECT__4
10
0
20
0
30
0
70
128
71
25
72
32
73
23
0
VERTEX
8
OBJECT__4
10
0
20
0
30
0
70
128
71
23
72
33
73
34
0
VERTEX
8
OBJECT__4
10
0
20
0
30
0
70
128
71
15
72
35
73
26
0
VERTEX
8
OBJECT__4
10
0
20
0
30
0
70
128
71
15
72
36
73
37
0
VERTEX
8
OBJECT__4
10
0
20
0
30
0
70
128
71
15
72
38
73
39
0
VERTEX
8
OBJECT__4
10
0
20
0
30
0
70
128
71
28
72
40
73
15
0
VERTEX
8
OBJECT__4
10
0
20
0
30
0
70
128
71
15
72
41
73
42
0
VERTEX
8
OBJECT__4
10
0
20
0
30
0
70
128
71
3
72
29
73
1
0
VERTEX
8
OBJECT__4
10
0
20
0
30
0
70
128
71
43
72
44
73
45
0
VERTEX
8
OBJECT__4
10
0
20
0
30
0
70
128
71
15
72
46
73
47
0
VERTEX
8
OBJECT__4
10
0
20
0
30
0
70
128
71
15
72
12
73
48
0
VERTEX
8
OBJECT__4
10
0
20
0
30
0
70
128
71
14
72
9
73
12
0
VERTEX
8
OBJECT__4
10
0
20
0
30
0
70
128
71
32
72
49
73
23
0
VERTEX
8
OBJECT__4
10
0
20
0
30
0
70
128
71
23
72
50
73
33
0
VERTEX
8
OBJECT__4
10
0
20
0
30
0
70
128
71
37
72
35
73
15
0
VERTEX
8
OBJECT__4
10
0
20
0
30
0
70
128
71
40
72
38
73
15
0
VERTEX
8
OBJECT__4
10
0
20
0
30
0
70
128
71
15
72
51
73
52
0
VERTEX
8
OBJECT__4
10
0
20
0
30
0
70
128
71
15
72
53
73
54
0
VERTEX
8
OBJECT__4
10
0
20
0
30
0
70
128
71
15
72
55
73
41
0
VERTEX
8
OBJECT__4
10
0
20
0
30
0
70
128
71
15
72
56
73
57
0
VERTEX
8
OBJECT__4
10
0
20
0
30
0
70
128
71
15
72
58
73
59
0
VERTEX
8
OBJECT__4
10
0
20
0
30
0
70
128
71
44
72
43
73
60
0
VERTEX
8
OBJECT__4
10
0
20
0
30
0
70
128
71
45
72
1
73
43
0
VERTEX
8
OBJECT__4
10
0
20
0
30
0
70
128
71
61
72
62
73
63
0
VERTEX
8
OBJECT__4
10
0
20
0
30
0
70
128
71
61
72
47
73
64
0
VERTEX
8
OBJECT__4
10
0
20
0
30
0
70
128
71
15
72
65
73
46
0
VERTEX
8
OBJECT__4
10
0
20
0
30
0
70
128
71
48
72
66
73
15
0
VERTEX
8
OBJECT__4
10
0
20
0
30
0
70
128
71
12
72
15
73
31
0
VERTEX
8
OBJECT__4
10
0
20
0
30
0
70
128
71
34
72
24
73
23
0
VERTEX
8
OBJECT__4
10
0
20
0
30
0
70
128
71
39
72
36
73
15
0
VERTEX
8
OBJECT__4
10
0
20
0
30
0
70
128
71
54
72
51
73
15
0
VERTEX
8
OBJECT__4
10
0
20
0
30
0
70
128
71
57
72
55
73
15
0
VERTEX
8
OBJECT__4
10
0
20
0
30
0
70
128
71
59
72
67
73
15
0
VERTEX
8
OBJECT__4
10
0
20
0
30
0
70
128
71
15
72
68
73
69
0
VERTEX
8
OBJECT__4
10
0
20
0
30
0
70
128
71
15
72
61
73
70
0
VERTEX
8
OBJECT__4
10
0
20
0
30
0
70
128
71
30
72
43
73
1
0
VERTEX
8
OBJECT__4
10
0
20
0
30
0
70
128
71
61
72
71
73
62
0
VERTEX
8
OBJECT__4
10
0
20
0
30
0
70
128
71
47
72
61
73
15
0
VERTEX
8
OBJECT__4
10
0
20
0
30
0
70
128
71
11
72
12
73
9
0
VERTEX
8
OBJECT__4
10
0
20
0
30
0
70
128
71
49
72
72
73
23
0
VERTEX
8
OBJECT__4
10
0
20
0
30
0
70
128
71
52
72
27
73
15
0
VERTEX
8
OBJECT__4
10
0
20
0
30
0
70
128
71
67
72
56
73
15
0
VERTEX
8
OBJECT__4
10
0
20
0
30
0
70
128
71
70
72
68
73
15
0
VERTEX
8
OBJECT__4
10
0
20
0
30
0
70
128
71
63
72
44
73
61
0
VERTEX
8
OBJECT__4
10
0
20
0
30
0
70
128
71
66
72
65
73
15
0
VERTEX
8
OBJECT__4
10
0
20
0
30
0
70
128
71
17
72
23
73
15
0
VERTEX
8
OBJECT__4
10
0
20
0
30
0
70
128
71
69
72
58
73
15
0
VERTEX
8
OBJECT__4
10
0
20
0
30
0
70
128
71
64
72
71
73
61
0
VERTEX
8
OBJECT__4
10
0
20
0
30
0
70
128
71
42
72
53
73
15
0
VERTEX
8
OBJECT__4
10
0
20
0
30
0
70
128
71
72
72
15
73
23
0
VERTEX
8
OBJECT__4
10
0
20
0
30
0
70
128
71
60
72
61
73
44
0
SEQEND
8
OBJECT__4
0
POLYLINE
8
OBJECT__5
66
1
70
64
71
431
72
691
62
253
0
VERTEX
8
OBJECT__5
10
66.383003
20
-4.940000
30
38.087002
70
192
0
VERTEX
8
OBJECT__5
10
59.570999
20
-4.780000
30
34.265999
70
192
0
VERTEX
8
OBJECT__5
10
59.695999
20
0.000000
30
34.194000
70
192
0
VERTEX
8
OBJECT__5
10
19.549999
20
0.000000
30
71.873001
70
192
0
VERTEX
8
OBJECT__5
10
20.132000
20
4.917000
30
71.467003
70
192
0
VERTEX
8
OBJECT__5
10
10.900000
20
4.633000
30
56.966999
70
192
0
VERTEX
8
OBJECT__5
10
34.446999
20
0.000000
30
10.766000
70
192
0
VERTEX
8
OBJECT__5
10
42.831001
20
0.000000
30
20.989000
70
192
0
VERTEX
8
OBJECT__5
10
42.875999
20
-4.615000
30
20.962999
70
192
0
VERTEX
8
OBJECT__5
10
39.644001
20
-19.072001
30
57.473999
70
192
0
VERTEX
8
OBJECT__5
10
28.740999
20
-19.833000
30
45.726002
70
192
0
VERTEX
8
OBJECT__5
10
32.734001
20
-19.511000
30
43.202999
70
192
0
VERTEX
8
OBJECT__5
10
53.394001
20
0.000000
30
30.129999
70
192
0
VERTEX
8
OBJECT__5
10
53.353001
20
-4.670000
30
30.153999
70
192
0
VERTEX
8
OBJECT__5
10
47.791000
20
-4.615000
30
25.718000
70
192
0
VERTEX
8
OBJECT__5
10
44.705002
20
-18.455000
30
35.648998
70
192
0
VERTEX
8
OBJECT__5
10
48.328999
20
-16.563000
30
33.351002
70
192
0
VERTEX
8
OBJECT__5
10
54.070999
20
-16.434999
30
38.076000
70
192
0
VERTEX
8
OBJECT__5
10
56.341999
20
-18.056999
30
45.341000
70
192
0
VERTEX
8
OBJECT__5
10
58.932999
20
-9.389000
30
34.691002
70
192
0
VERTEX
8
OBJECT__5
10
64.544998
20
-11.653000
30
39.346001
70
192
0
VERTEX
8
OBJECT__5
10
63.313999
20
-13.449000
30
40.233002
70
192
0
VERTEX
8
OBJECT__5
10
65.484001
20
-9.588000
30
38.681000
70
192
0
VERTEX
8
OBJECT__5
10
66.088997
20
-7.325000
30
38.266998
70
192
0
VERTEX
8
OBJECT__5
10
60.165001
20
-16.306000
30
42.535000
70
192
0
VERTEX
8
OBJECT__5
10
57.027000
20
-13.392000
30
36.012001
70
192
0
VERTEX
8
OBJECT__5
10
51.174999
20
-13.380000
30
31.540001
70
192
0
VERTEX
8
OBJECT__5
10
52.907001
20
-9.261000
30
30.438000
70
192
0
VERTEX
8
OBJECT__5
10
43.810001
20
-18.767000
30
54.437000
70
192
0
VERTEX
8
OBJECT__5
10
40.730999
20
-18.945999
30
38.158001
70
192
0
VERTEX
8
OBJECT__5
10
52.181000
20
-18.437000
30
48.362999
70
192
0
VERTEX
8
OBJECT__5
10
34.259998
20
-18.705000
30
24.656000
70
192
0
VERTEX
8
OBJECT__5
10
38.007999
20
-16.816999
30
23.018999
70
192
0
VERTEX
8
OBJECT__5
10
42.976002
20
-16.690001
30
28.330000
70
192
0
VERTEX
8
OBJECT__5
10
47.775002
20
0.000000
30
25.726999
70
192
0
VERTEX
8
OBJECT__5
10
45.806999
20
-13.419000
30
26.790001
70
192
0
VERTEX
8
OBJECT__5
10
47.459999
20
-9.212000
30
25.893999
70
192
0
VERTEX
8
OBJECT__5
10
40.914001
20
-13.507000
30
21.766001
70
192
0
VERTEX
8
OBJECT__5
10
42.584999
20
-9.241000
30
21.063999
70
192
0
VERTEX
8
OBJECT__5
10
22.018999
20
-20.326000
30
30.087999
70
192
0
VERTEX
8
OBJECT__5
10
30.193001
20
-19.356001
30
26.459000
70
192
0
VERTEX
8
OBJECT__5
10
17.913000
20
-20.667999
30
31.903000
70
192
0
VERTEX
8
OBJECT__5
10
24.429001
20
-13.141000
30
68.449997
70
192
0
VERTEX
8
OBJECT__5
10
14.538000
20
-12.829000
30
54.681999
70
192
0
VERTEX
8
OBJECT__5
10
17.469999
20
-15.933000
30
52.837002
70
192
0
VERTEX
8
OBJECT__5
10
31.448000
20
-17.791000
30
63.426998
70
192
0
VERTEX
8
OBJECT__5
10
20.934999
20
-18.201000
30
50.653000
70
192
0
VERTEX
8
OBJECT__5
10
24.757000
20
-19.524000
30
48.242001
70
192
0
VERTEX
8
OBJECT__5
10
35.481998
20
-18.879999
30
60.505001
70
192
0
VERTEX
8
OBJECT__5
10
27.712000
20
-15.867000
30
66.113998
70
192
0
VERTEX
8
OBJECT__5
10
20.132000
20
-4.917000
30
71.467003
70
192
0
VERTEX
8
OBJECT__5
10
10.900000
20
-4.633000
30
56.966999
70
192
0
VERTEX
8
OBJECT__5
10
12.302000
20
-8.993000
30
56.087002
70
192
0
VERTEX
8
OBJECT__5
10
21.816000
20
-9.418000
30
70.290001
70
192
0
VERTEX
8
OBJECT__5
10
10.423000
20
0.000000
30
57.266998
70
192
0
VERTEX
8
OBJECT__5
10
3.556000
20
-12.891000
30
38.264999
70
192
0
VERTEX
8
OBJECT__5
10
6.445000
20
-16.236000
30
36.985001
70
192
0
VERTEX
8
OBJECT__5
10
9.930000
20
-18.731001
30
35.438999
70
192
0
VERTEX
8
OBJECT__5
10
13.823000
20
-20.233999
30
33.712002
70
192
0
VERTEX
8
OBJECT__5
10
0.080000
20
-4.572000
30
39.800999
70
192
0
VERTEX
8
OBJECT__5
10
1.405000
20
-8.936000
30
39.216000
70
192
0
VERTEX
8
OBJECT__5
10
-0.368000
20
0.000000
30
39.998001
70
192
0
VERTEX
8
OBJECT__5
10
7.147000
20
-21.563000
30
16.379000
70
192
0
VERTEX
8
OBJECT__5
10
11.600000
20
-21.201000
30
15.431000
70
192
0
VERTEX
8
OBJECT__5
10
27.159000
20
0.000000
30
0.000000
70
192
0
VERTEX
8
OBJECT__5
10
34.491001
20
-4.736000
30
10.741000
70
192
0
VERTEX
8
OBJECT__5
10
24.792999
20
-18.836000
30
12.596000
70
192
0
VERTEX
8
OBJECT__5
10
28.930000
20
-17.068001
30
11.746000
70
192
0
VERTEX
8
OBJECT__5
10
32.192001
20
-13.794000
30
11.106000
70
192
0
VERTEX
8
OBJECT__5
10
34.112000
20
-9.472000
30
10.765000
70
192
0
VERTEX
8
OBJECT__5
10
20.403000
20
-19.686001
30
13.537000
70
192
0
VERTEX
8
OBJECT__5
10
19.601000
20
-17.763000
30
0.000000
70
192
0
VERTEX
8
OBJECT__5
10
20.441999
20
-17.260000
30
0.000000
70
192
0
VERTEX
8
OBJECT__5
10
15.817000
20
-18.905001
30
0.000000
70
192
0
VERTEX
8
OBJECT__5
10
16.972000
20
-18.649000
30
0.000000
70
192
0
VERTEX
8
OBJECT__5
10
25.826000
20
-11.691000
30
0.000000
70
192
0
VERTEX
8
OBJECT__5
10
26.511999
20
-9.810000
30
0.000000
70
192
0
VERTEX
8
OBJECT__5
10
24.240999
20
-14.159000
30
0.000000
70
192
0
VERTEX
8
OBJECT__5
10
24.341999
20
-14.038000
30
0.000000
70
192
0
VERTEX
8
OBJECT__5
10
27.152000
20
-6.367000
30
0.000000
70
192
0
VERTEX
8
OBJECT__5
10
27.159000
20
-5.958000
30
0.000000
70
192
0
VERTEX
8
OBJECT__5
10
26.778000
20
-9.078000
30
0.000000
70
192
0
VERTEX
8
OBJECT__5
10
23.922001
20
-14.540000
30
0.000000
70
192
0
VERTEX
8
OBJECT__5
10
21.988001
20
-16.334999
30
0.000000
70
192
0
VERTEX
8
OBJECT__5
10
2.008000
20
-21.966999
30
0.000000
70
192
0
VERTEX
8
OBJECT__5
10
10.989000
20
-19.976000
30
0.000000
70
192
0
VERTEX
8
OBJECT__5
10
1.330000
20
-22.098000
30
0.000000
70
192
0
VERTEX
8
OBJECT__5
10
13.435000
20
-19.434000
30
0.000000
70
192
0
VERTEX
8
OBJECT__5
10
0.795000
20
-22.201000
30
0.000000
70
192
0
VERTEX
8
OBJECT__5
10
-3.586000
20
-22.448000
30
0.000000
70
192
0
VERTEX
8
OBJECT__5
10
-2.848000
20
-22.500000
30
0.000000
70
192
0
VERTEX
8
OBJECT__5
10
-8.320000
20
-13.260000
30
19.677999
70
192
0
VERTEX
8
OBJECT__5
10
-5.222000
20
-16.733000
30
19.023001
70
192
0
VERTEX
8
OBJECT__5
10
-1.478000
20
-19.361000
30
18.222000
70
192
0
VERTEX
8
OBJECT__5
10
2.718000
20
-20.997999
30
17.323000
70
192
0
VERTEX
8
OBJECT__5
10
-12.043000
20
-4.693000
30
20.448999
70
192
0
VERTEX
8
OBJECT__5
10
-10.624000
20
-9.180000
30
20.158001
70
192
0
VERTEX
8
OBJECT__5
10
-12.522000
20
0.000000
30
20.547001
70
192
0
VERTEX
8
OBJECT__5
10
-18.858999
20
-15.822000
30
0.000000
70
192
0
VERTEX
8
OBJECT__5
10
-17.167000
20
-17.275000
30
0.000000
70
192
0
VERTEX
8
OBJECT__5
10
-20.636999
20
-13.776000
30
0.000000
70
192
0
VERTEX
8
OBJECT__5
10
-9.569000
20
-21.476999
30
0.000000
70
192
0
VERTEX
8
OBJECT__5
10
-8.460000
20
-21.726000
30
0.000000
70
192
0
VERTEX
8
OBJECT__5
10
-12.960000
20
-20.106001
30
0.000000
70
192
0
VERTEX
8
OBJECT__5
10
-6.000000
20
-22.280001
30
0.000000
70
192
0
VERTEX
8
OBJECT__5
10
-16.086000
20
-18.202999
30
0.000000
70
192
0
VERTEX
8
OBJECT__5
10
-24.180000
20
-7.194000
30
0.000000
70
192
0
VERTEX
8
OBJECT__5
10
-23.165001
20
-9.550000
30
0.000000
70
192
0
VERTEX
8
OBJECT__5
10
-24.754000
20
-4.889000
30
0.000000
70
192
0
VERTEX
8
OBJECT__5
10
-20.760000
20
-13.634000
30
0.000000
70
192
0
VERTEX
8
OBJECT__5
10
-22.733000
20
-10.554000
30
0.000000
70
192
0
VERTEX
8
OBJECT__5
10
-25.063999
20
-3.644000
30
0.000000
70
192
0
VERTEX
8
OBJECT__5
10
-25.361000
20
0.000000
30
0.000000
70
192
0
VERTEX
8
OBJECT__5
10
43.810001
20
18.768000
30
54.437000
70
192
0
VERTEX
8
OBJECT__5
10
52.181000
20
18.437000
30
48.362999
70
192
0
VERTEX
8
OBJECT__5
10
40.730999
20
18.945999
30
38.158001
70
192
0
VERTEX
8
OBJECT__5
10
0.080000
20
4.572000
30
39.800999
70
192
0
VERTEX
8
OBJECT__5
10
-24.747999
20
4.890000
30
0.000000
70
192
0
VERTEX
8
OBJECT__5
10
-25.174999
20
2.892000
30
0.000000
70
192
0
VERTEX
8
OBJECT__5
10
27.712000
20
15.867000
30
66.113998
70
192
0
VERTEX
8
OBJECT__5
10
31.448000
20
17.791000
30
63.426998
70
192
0
VERTEX
8
OBJECT__5
10
20.934999
20
18.201000
30
50.653000
70
192
0
VERTEX
8
OBJECT__5
10
21.816000
20
9.418000
30
70.290001
70
192
0
VERTEX
8
OBJECT__5
10
24.429001
20
13.141000
30
68.449997
70
192
0
VERTEX
8
OBJECT__5
10
14.538000
20
12.829000
30
54.681999
70
192
0
VERTEX
8
OBJECT__5
10
12.302000
20
8.993000
30
56.087002
70
192
0
VERTEX
8
OBJECT__5
10
17.469999
20
15.933000
30
52.837002
70
192
0
VERTEX
8
OBJECT__5
10
3.556000
20
12.891000
30
38.264999
70
192
0
VERTEX
8
OBJECT__5
10
1.405000
20
8.936000
30
39.216000
70
192
0
VERTEX
8
OBJECT__5
10
6.445000
20
16.236000
30
36.985001
70
192
0
VERTEX
8
OBJECT__5
10
9.930000
20
18.731001
30
35.438999
70
192
0
VERTEX
8
OBJECT__5
10
35.481998
20
18.879999
30
60.505001
70
192
0
VERTEX
8
OBJECT__5
10
39.644001
20
19.072001
30
57.473999
70
192
0
VERTEX
8
OBJECT__5
10
28.740999
20
19.833000
30
45.726002
70
192
0
VERTEX
8
OBJECT__5
10
24.757000
20
19.524000
30
48.242001
70
192
0
VERTEX
8
OBJECT__5
10
32.734001
20
19.511000
30
43.202999
70
192
0
VERTEX
8
OBJECT__5
10
17.913000
20
20.667999
30
31.903000
70
192
0
VERTEX
8
OBJECT__5
10
13.823000
20
20.233999
30
33.712002
70
192
0
VERTEX
8
OBJECT__5
10
22.018999
20
20.326000
30
30.087999
70
192
0
VERTEX
8
OBJECT__5
10
-1.478000
20
19.361000
30
18.222000
70
192
0
VERTEX
8
OBJECT__5
10
-21.209999
20
13.023000
30
0.000000
70
192
0
VERTEX
8
OBJECT__5
10
-23.077999
20
9.877000
30
0.000000
70
192
0
VERTEX
8
OBJECT__5
10
-20.601999
20
13.747000
30
0.000000
70
192
0
VERTEX
8
OBJECT__5
10
-23.200001
20
9.566000
30
0.000000
70
192
0
VERTEX
8
OBJECT__5
10
-24.410999
20
6.470000
30
0.000000
70
192
0
VERTEX
8
OBJECT__5
10
-18.858999
20
15.822000
30
0.000000
70
192
0
VERTEX
8
OBJECT__5
10
-5.222000
20
16.733000
30
19.023001
70
192
0
VERTEX
8
OBJECT__5
10
-17.181999
20
17.294001
30
0.000000
70
192
0
VERTEX
8
OBJECT__5
10
-13.079000
20
20.017000
30
0.000000
70
192
0
VERTEX
8
OBJECT__5
10
-13.403000
20
19.878000
30
0.000000
70
192
0
VERTEX
8
OBJECT__5
10
-16.485001
20
17.907000
30
0.000000
70
192
0
VERTEX
8
OBJECT__5
10
7.147000
20
21.563000
30
16.379000
70
192
0
VERTEX
8
OBJECT__5
10
2.718000
20
20.997999
30
17.323000
70
192
0
VERTEX
8
OBJECT__5
10
11.600000
20
21.201000
30
15.431000
70
192
0
VERTEX
8
OBJECT__5
10
-3.585000
20
22.440001
30
0.000000
70
192
0
VERTEX
8
OBJECT__5
10
-6.492000
20
22.205000
30
0.000000
70
192
0
VERTEX
8
OBJECT__5
10
-8.456000
20
21.716999
30
0.000000
70
192
0
VERTEX
8
OBJECT__5
10
-10.043000
20
21.323000
30
0.000000
70
192
0
VERTEX
8
OBJECT__5
10
-1.612000
20
22.465000
30
0.000000
70
192
0
VERTEX
8
OBJECT__5
10
-2.848000
20
22.500000
30
0.000000
70
192
0
VERTEX
8
OBJECT__5
10
1.325000
20
22.061001
30
0.000000
70
192
0
VERTEX
8
OBJECT__5
10
30.193001
20
19.357000
30
26.459000
70
192
0
VERTEX
8
OBJECT__5
10
20.403000
20
19.687000
30
13.537000
70
192
0
VERTEX
8
OBJECT__5
10
60.165001
20
16.306999
30
42.535000
70
192
0
VERTEX
8
OBJECT__5
10
63.314999
20
13.450000
30
40.233002
70
192
0
VERTEX
8
OBJECT__5
10
57.027000
20
13.393000
30
36.012001
70
192
0
VERTEX
8
OBJECT__5
10
56.341999
20
18.058001
30
45.341000
70
192
0
VERTEX
8
OBJECT__5
10
44.705002
20
18.455000
30
35.648998
70
192
0
VERTEX
8
OBJECT__5
10
54.070999
20
16.434999
30
38.076000
70
192
0
VERTEX
8
OBJECT__5
10
34.261002
20
18.705999
30
24.656000
70
192
0
VERTEX
8
OBJECT__5
10
42.976002
20
16.690001
30
28.330000
70
192
0
VERTEX
8
OBJECT__5
10
48.328999
20
16.563000
30
33.351002
70
192
0
VERTEX
8
OBJECT__5
10
51.175999
20
13.381000
30
31.540001
70
192
0
VERTEX
8
OBJECT__5
10
45.806999
20
13.419000
30
26.790001
70
192
0
VERTEX
8
OBJECT__5
10
58.933998
20
9.390000
30
34.691002
70
192
0
VERTEX
8
OBJECT__5
10
65.484001
20
9.589000
30
38.681000
70
192
0
VERTEX
8
OBJECT__5
10
66.088997
20
7.325000
30
38.266998
70
192
0
VERTEX
8
OBJECT__5
10
59.571999
20
4.781000
30
34.265999
70
192
0
VERTEX
8
OBJECT__5
10
64.544998
20
11.654000
30
39.346001
70
192
0
VERTEX
8
OBJECT__5
10
52.907001
20
9.262000
30
30.438000
70
192
0
VERTEX
8
OBJECT__5
10
53.353001
20
4.671000
30
30.153999
70
192
0
VERTEX
8
OBJECT__5
10
66.383003
20
4.941000
30
38.087002
70
192
0
VERTEX
8
OBJECT__5
10
66.615997
20
0.000000
30
37.952000
70
192
0
VERTEX
8
OBJECT__5
10
47.791000
20
4.616000
30
25.718000
70
192
0
VERTEX
8
OBJECT__5
10
47.459999
20
9.213000
30
25.893999
70
192
0
VERTEX
8
OBJECT__5
10
40.914001
20
13.507000
30
21.766001
70
192
0
VERTEX
8
OBJECT__5
10
42.584999
20
9.242000
30
21.063999
70
192
0
VERTEX
8
OBJECT__5
10
42.875999
20
4.616000
30
20.962999
70
192
0
VERTEX
8
OBJECT__5
10
38.007999
20
16.816999
30
23.018999
70
192
0
VERTEX
8
OBJECT__5
10
32.192001
20
13.794000
30
11.106000
70
192
0
VERTEX
8
OBJECT__5
10
10.989000
20
19.976000
30
0.000000
70
192
0
VERTEX
8
OBJECT__5
10
2.008000
20
21.966999
30
0.000000
70
192
0
VERTEX
8
OBJECT__5
10
24.792999
20
18.836000
30
12.596000
70
192
0
VERTEX
8
OBJECT__5
10
28.930000
20
17.069000
30
11.746000
70
192
0
VERTEX
8
OBJECT__5
10
15.817000
20
18.906000
30
0.000000
70
192
0
VERTEX
8
OBJECT__5
10
13.435000
20
19.434000
30
0.000000
70
192
0
VERTEX
8
OBJECT__5
10
17.607000
20
18.492001
30
0.000000
70
192
0
VERTEX
8
OBJECT__5
10
16.972000
20
18.650000
30
0.000000
70
192
0
VERTEX
8
OBJECT__5
10
20.066999
20
17.537001
30
0.000000
70
192
0
VERTEX
8
OBJECT__5
10
20.454000
20
17.284000
30
0.000000
70
192
0
VERTEX
8
OBJECT__5
10
24.341999
20
14.039000
30
0.000000
70
192
0
VERTEX
8
OBJECT__5
10
22.395000
20
16.014999
30
0.000000
70
192
0
VERTEX
8
OBJECT__5
10
34.492001
20
4.736000
30
10.741000
70
192
0
VERTEX
8
OBJECT__5
10
34.112000
20
9.473000
30
10.765000
70
192
0
VERTEX
8
OBJECT__5
10
27.152000
20
6.366000
30
0.000000
70
192
0
VERTEX
8
OBJECT__5
10
27.159000
20
4.945000
30
0.000000
70
192
0
VERTEX
8
OBJECT__5
10
27.159000
20
5.958000
30
0.000000
70
192
0
VERTEX
8
OBJECT__5
10
26.768999
20
9.117000
30
0.000000
70
192
0
VERTEX
8
OBJECT__5
10
26.514000
20
9.810000
30
0.000000
70
192
0
VERTEX
8
OBJECT__5
10
25.809000
20
11.727000
30
0.000000
70
192
0
VERTEX
8
OBJECT__5
10
34.007000
20
0.000000
30
95.010002
70
192
0
VERTEX
8
OBJECT__5
10
34.250000
20
3.053000
30
94.851997
70
192
0
VERTEX
8
OBJECT__5
10
27.488001
20
2.732000
30
84.144997
70
192
0
VERTEX
8
OBJECT__5
10
40.008999
20
0.000000
30
104.614998
70
192
0
VERTEX
8
OBJECT__5
10
40.313999
20
3.422000
30
104.428001
70
192
0
VERTEX
8
OBJECT__5
10
55.174000
20
16.657000
30
95.233002
70
192
0
VERTEX
8
OBJECT__5
10
60.937000
20
17.068001
30
91.588997
70
192
0
VERTEX
8
OBJECT__5
10
51.348999
20
17.249001
30
83.402000
70
192
0
VERTEX
8
OBJECT__5
10
44.610001
20
12.219000
30
101.793999
70
192
0
VERTEX
8
OBJECT__5
10
46.943001
20
14.235000
30
100.357002
70
192
0
VERTEX
8
OBJECT__5
10
39.580002
20
13.096000
30
91.361000
70
192
0
VERTEX
8
OBJECT__5
10
41.216000
20
6.693000
30
103.875999
70
192
0
VERTEX
8
OBJECT__5
10
42.669998
20
9.669000
30
102.985001
70
192
0
VERTEX
8
OBJECT__5
10
36.132000
20
8.708000
30
93.625000
70
192
0
VERTEX
8
OBJECT__5
10
34.969002
20
5.992000
30
94.384003
70
192
0
VERTEX
8
OBJECT__5
10
37.692001
20
11.105000
30
92.603996
70
192
0
VERTEX
8
OBJECT__5
10
49.560001
20
15.633000
30
98.737999
70
192
0
VERTEX
8
OBJECT__5
10
52.339001
20
16.360001
30
97.009003
70
192
0
VERTEX
8
OBJECT__5
10
44.021000
20
15.626000
30
88.404999
70
192
0
VERTEX
8
OBJECT__5
10
41.720001
20
14.618000
30
89.944000
70
192
0
VERTEX
8
OBJECT__5
10
46.404999
20
16.277000
30
86.792000
70
192
0
VERTEX
8
OBJECT__5
10
66.783997
20
17.219000
30
87.858002
70
192
0
VERTEX
8
OBJECT__5
10
78.545998
20
16.837999
30
80.314003
70
192
0
VERTEX
8
OBJECT__5
10
66.789001
20
17.445999
30
72.612999
70
192
0
VERTEX
8
OBJECT__5
10
61.620998
20
17.716000
30
76.236000
70
192
0
VERTEX
8
OBJECT__5
10
56.452999
20
17.740000
30
79.855003
70
192
0
VERTEX
8
OBJECT__5
10
90.331001
20
16.500999
30
72.766998
70
192
0
VERTEX
8
OBJECT__5
10
77.166000
20
17.195000
30
65.366997
70
192
0
VERTEX
8
OBJECT__5
10
91.878998
20
14.034000
30
55.148998
70
192
0
VERTEX
8
OBJECT__5
10
87.296997
20
15.788000
30
58.284000
70
192
0
VERTEX
8
OBJECT__5
10
101.982002
20
15.527000
30
65.310997
70
192
0
VERTEX
8
OBJECT__5
10
82.336998
20
16.927000
30
61.752998
70
192
0
VERTEX
8
OBJECT__5
10
96.213997
20
16.254000
30
68.999001
70
192
0
VERTEX
8
OBJECT__5
10
97.242996
20
8.640000
30
51.683998
70
192
0
VERTEX
8
OBJECT__5
10
95.788002
20
10.943000
30
52.590000
70
192
0
VERTEX
8
OBJECT__5
10
112.602997
20
11.847000
30
58.710999
70
192
0
VERTEX
8
OBJECT__5
10
93.961998
20
12.769000
30
53.768002
70
192
0
VERTEX
8
OBJECT__5
10
107.545998
20
14.471000
30
61.810001
70
192
0
VERTEX
8
OBJECT__5
10
110.196999
20
13.532000
30
60.173000
70
192
0
VERTEX
8
OBJECT__5
10
98.910004
20
3.050000
30
50.709999
70
192
0
VERTEX
8
OBJECT__5
10
98.268997
20
5.970000
30
51.081001
70
192
0
VERTEX
8
OBJECT__5
10
116.095001
20
6.643000
30
56.650002
70
192
0
VERTEX
8
OBJECT__5
10
114.606003
20
9.506000
30
57.514999
70
192
0
VERTEX
8
OBJECT__5
10
117.028000
20
3.416000
30
56.111000
70
192
0
VERTEX
8
OBJECT__5
10
117.347000
20
0.000000
30
55.926998
70
192
0
VERTEX
8
OBJECT__5
10
99.128998
20
0.000000
30
50.584000
70
192
0
VERTEX
8
OBJECT__5
10
64.388000
20
17.847000
30
57.332001
70
192
0
VERTEX
8
OBJECT__5
10
27.299000
20
0.000000
30
84.275002
70
192
0
VERTEX
8
OBJECT__5
10
41.553001
20
17.482000
30
74.179001
70
192
0
VERTEX
8
OBJECT__5
10
31.690001
20
12.124000
30
81.236000
70
192
0
VERTEX
8
OBJECT__5
10
28.958000
20
7.879000
30
83.133003
70
192
0
VERTEX
8
OBJECT__5
10
28.048000
20
5.384000
30
83.760002
70
192
0
VERTEX
8
OBJECT__5
10
30.187000
20
10.146000
30
82.282997
70
192
0
VERTEX
8
OBJECT__5
10
37.304001
20
15.997000
30
77.259003
70
192
0
VERTEX
8
OBJECT__5
10
33.416000
20
13.762000
30
80.026001
70
192
0
VERTEX
8
OBJECT__5
10
50.609001
20
18.371000
30
67.504997
70
192
0
VERTEX
8
OBJECT__5
10
46.033001
20
18.290001
30
70.889999
70
192
0
VERTEX
8
OBJECT__5
10
55.187000
20
18.084000
30
64.113998
70
192
0
VERTEX
8
OBJECT__5
10
77.009003
20
13.681000
30
48.028999
70
192
0
VERTEX
8
OBJECT__5
10
73.257004
20
16.048000
30
50.769001
70
192
0
VERTEX
8
OBJECT__5
10
68.967003
20
17.539000
30
53.953999
70
192
0
VERTEX
8
OBJECT__5
10
80.906998
20
7.894000
30
45.347000
70
192
0
VERTEX
8
OBJECT__5
10
79.930000
20
10.170000
30
45.988998
70
192
0
VERTEX
8
OBJECT__5
10
78.606003
20
12.124000
30
46.898998
70
192
0
VERTEX
8
OBJECT__5
10
81.908997
20
2.733000
30
44.756001
70
192
0
VERTEX
8
OBJECT__5
10
81.526001
20
5.388000
30
44.978001
70
192
0
VERTEX
8
OBJECT__5
10
82.040001
20
0.000000
30
44.681000
70
192
0
VERTEX
8
OBJECT__5
10
98.910004
20
-3.050000
30
50.709999
70
192
0
VERTEX
8
OBJECT__5
10
117.028000
20
-3.416000
30
56.111000
70
192
0
VERTEX
8
OBJECT__5
10
95.788002
20
-10.943000
30
52.590000
70
192
0
VERTEX
8
OBJECT__5
10
112.602997
20
-11.847000
30
58.710999
70
192
0
VERTEX
8
OBJECT__5
10
110.196999
20
-13.531000
30
60.173000
70
192
0
VERTEX
8
OBJECT__5
10
98.268997
20
-5.970000
30
51.081001
70
192
0
VERTEX
8
OBJECT__5
10
116.095001
20
-6.643000
30
56.650002
70
192
0
VERTEX
8
OBJECT__5
10
114.606003
20
-9.506000
30
57.514999
70
192
0
VERTEX
8
OBJECT__5
10
97.242996
20
-8.640000
30
51.683998
70
192
0
VERTEX
8
OBJECT__5
10
91.878998
20
-14.034000
30
55.148998
70
192
0
VERTEX
8
OBJECT__5
10
107.545998
20
-14.470000
30
61.810001
70
192
0
VERTEX
8
OBJECT__5
10
101.982002
20
-15.526000
30
65.310997
70
192
0
VERTEX
8
OBJECT__5
10
93.961998
20
-12.768000
30
53.768002
70
192
0
VERTEX
8
OBJECT__5
10
87.296997
20
-15.788000
30
58.284000
70
192
0
VERTEX
8
OBJECT__5
10
96.213997
20
-16.254000
30
68.999001
70
192
0
VERTEX
8
OBJECT__5
10
78.545998
20
-16.837999
30
80.314003
70
192
0
VERTEX
8
OBJECT__5
10
66.789001
20
-17.445999
30
72.612999
70
192
0
VERTEX
8
OBJECT__5
10
77.166000
20
-17.195000
30
65.366997
70
192
0
VERTEX
8
OBJECT__5
10
82.336998
20
-16.927000
30
61.752998
70
192
0
VERTEX
8
OBJECT__5
10
90.331001
20
-16.500999
30
72.766998
70
192
0
VERTEX
8
OBJECT__5
10
73.257004
20
-16.048000
30
50.769001
70
192
0
VERTEX
8
OBJECT__5
10
81.908997
20
-2.733000
30
44.756001
70
192
0
VERTEX
8
OBJECT__5
10
81.526001
20
-5.388000
30
44.978001
70
192
0
VERTEX
8
OBJECT__5
10
79.930000
20
-10.170000
30
45.988998
70
192
0
VERTEX
8
OBJECT__5
10
80.906998
20
-7.894000
30
45.348000
70
192
0
VERTEX
8
OBJECT__5
10
77.009003
20
-13.680000
30
48.028999
70
192
0
VERTEX
8
OBJECT__5
10
78.605003
20
-12.123000
30
46.898998
70
192
0
VERTEX
8
OBJECT__5
10
68.967003
20
-17.538000
30
53.953999
70
192
0
VERTEX
8
OBJECT__5
10
55.187000
20
-18.084000
30
64.113998
70
192
0
VERTEX
8
OBJECT__5
10
64.388000
20
-17.847000
30
57.332001
70
192
0
VERTEX
8
OBJECT__5
10
61.620998
20
-17.716000
30
76.236000
70
192
0
VERTEX
8
OBJECT__5
10
50.609001
20
-18.371000
30
67.504997
70
192
0
VERTEX
8
OBJECT__5
10
66.783997
20
-17.219000
30
87.858002
70
192
0
VERTEX
8
OBJECT__5
10
56.452999
20
-17.740000
30
79.855003
70
192
0
VERTEX
8
OBJECT__5
10
60.937000
20
-17.068001
30
91.588997
70
192
0
VERTEX
8
OBJECT__5
10
51.348999
20
-17.249001
30
83.402000
70
192
0
VERTEX
8
OBJECT__5
10
55.174000
20
-16.657000
30
95.233002
70
192
0
VERTEX
8
OBJECT__5
10
46.404999
20
-16.277000
30
86.792000
70
192
0
VERTEX
8
OBJECT__5
10
37.304001
20
-15.997000
30
77.259003
70
192
0
VERTEX
8
OBJECT__5
10
44.021000
20
-15.626000
30
88.404999
70
192
0
VERTEX
8
OBJECT__5
10
41.720001
20
-14.618000
30
89.944000
70
192
0
VERTEX
8
OBJECT__5
10
41.553001
20
-17.482000
30
74.179001
70
192
0
VERTEX
8
OBJECT__5
10
46.033001
20
-18.290001
30
70.889999
70
192
0
VERTEX
8
OBJECT__5
10
33.416000
20
-13.762000
30
80.026001
70
192
0
VERTEX
8
OBJECT__5
10
36.132000
20
-8.708000
30
93.625000
70
192
0
VERTEX
8
OBJECT__5
10
28.958000
20
-7.879000
30
83.133003
70
192
0
VERTEX
8
OBJECT__5
10
30.187000
20
-10.146000
30
82.282997
70
192
0
VERTEX
8
OBJECT__5
10
39.580002
20
-13.096000
30
91.361000
70
192
0
VERTEX
8
OBJECT__5
10
31.690001
20
-12.124000
30
81.236000
70
192
0
VERTEX
8
OBJECT__5
10
37.692001
20
-11.105000
30
92.603996
70
192
0
VERTEX
8
OBJECT__5
10
34.250000
20
-3.053000
30
94.851997
70
192
0
VERTEX
8
OBJECT__5
10
27.488001
20
-2.732000
30
84.144997
70
192
0
VERTEX
8
OBJECT__5
10
28.048000
20
-5.384000
30
83.760002
70
192
0
VERTEX
8
OBJECT__5
10
34.969002
20
-5.992000
30
94.384003
70
192
0
VERTEX
8
OBJECT__5
10
62.988998
20
-17.052000
30
102.391998
70
192
0
VERTEX
8
OBJECT__5
10
61.002998
20
-17.108000
30
104.025002
70
192
0
VERTEX
8
OBJECT__5
10
60.326000
20
-17.118999
30
104.408997
70
192
0
VERTEX
8
OBJECT__5
10
60.006001
20
-17.110001
30
104.594002
70
192
0
VERTEX
8
OBJECT__5
10
59.201000
20
-17.087999
30
105.061996
70
192
0
VERTEX
8
OBJECT__5
10
56.749001
20
-16.597000
30
106.485001
70
192
0
VERTEX
8
OBJECT__5
10
54.356998
20
-15.771000
30
107.874001
70
192
0
VERTEX
8
OBJECT__5
10
53.666000
20
-15.324000
30
108.276001
70
192
0
VERTEX
8
OBJECT__5
10
56.009998
20
-16.448000
30
106.914001
70
192
0
VERTEX
8
OBJECT__5
10
51.555000
20
-13.962000
30
109.502998
70
192
0
VERTEX
8
OBJECT__5
10
50.868999
20
-13.322000
30
109.902000
70
192
0
VERTEX
8
OBJECT__5
10
50.167999
20
-12.669000
30
110.308998
70
192
0
VERTEX
8
OBJECT__5
10
48.577999
20
-10.589000
30
111.234001
70
192
0
VERTEX
8
OBJECT__5
10
47.103001
20
-8.135000
30
112.093002
70
192
0
VERTEX
8
OBJECT__5
10
46.835999
20
-7.375000
30
112.248001
70
192
0
VERTEX
8
OBJECT__5
10
48.042999
20
-9.889000
30
111.544998
70
192
0
VERTEX
8
OBJECT__5
10
45.896000
20
-4.700000
30
112.794998
70
192
0
VERTEX
8
OBJECT__5
10
45.511002
20
-2.688000
30
113.018997
70
192
0
VERTEX
8
OBJECT__5
10
45.396999
20
0.004000
30
113.085999
70
192
0
VERTEX
8
OBJECT__5
10
45.721001
20
-3.789000
30
112.897003
70
192
0
VERTEX
8
OBJECT__5
10
45.354000
20
1.017000
30
113.111000
70
192
0
VERTEX
8
OBJECT__5
10
45.566002
20
3.059000
30
112.987999
70
192
0
VERTEX
8
OBJECT__5
10
45.749001
20
3.777000
30
112.880997
70
192
0
VERTEX
8
OBJECT__5
10
46.476002
20
6.616000
30
112.457001
70
192
0
VERTEX
8
OBJECT__5
10
46.804001
20
7.388000
30
112.266998
70
192
0
VERTEX
8
OBJECT__5
10
47.261002
20
8.466000
30
112.000000
70
192
0
VERTEX
8
OBJECT__5
10
48.587002
20
10.590000
30
111.228996
70
192
0
VERTEX
8
OBJECT__5
10
49.139000
20
11.474000
30
110.907997
70
192
0
VERTEX
8
OBJECT__5
10
50.408001
20
12.917000
30
110.169998
70
192
0
VERTEX
8
OBJECT__5
10
50.881001
20
13.298000
30
109.894997
70
192
0
VERTEX
8
OBJECT__5
10
53.042000
20
15.036000
30
108.639000
70
192
0
VERTEX
8
OBJECT__5
10
53.645000
20
15.364000
30
108.288002
70
192
0
VERTEX
8
OBJECT__5
10
54.653000
20
15.911000
30
107.702003
70
192
0
VERTEX
8
OBJECT__5
10
56.757999
20
16.584000
30
106.480003
70
192
0
VERTEX
8
OBJECT__5
10
57.745998
20
16.900000
30
105.905998
70
192
0
VERTEX
8
OBJECT__5
10
59.521000
20
17.107000
30
104.875999
70
192
0
VERTEX
8
OBJECT__5
10
60.326000
20
17.118999
30
104.408997
70
192
0
VERTEX
8
OBJECT__5
10
62.060001
20
17.080999
30
103.269997
70
192
0
VERTEX
8
OBJECT__5
10
60.006001
20
17.114000
30
104.594002
70
192
0
VERTEX
8
OBJECT__5
10
70.226997
20
16.934000
30
95.184998
70
192
0
VERTEX
8
OBJECT__5
10
72.177002
20
16.907000
30
93.884003
70
192
0
VERTEX
8
OBJECT__5
10
67.501999
20
16.955999
30
97.667999
70
192
0
VERTEX
8
OBJECT__5
10
64.894997
20
16.999001
30
100.612999
70
192
0
VERTEX
8
OBJECT__5
10
63.785999
20
17.028999
30
101.737000
70
192
0
VERTEX
8
OBJECT__5
10
64.627998
20
17.006001
30
100.900002
70
192
0
VERTEX
8
OBJECT__5
10
63.481998
20
17.038000
30
102.019997
70
192
0
VERTEX
8
OBJECT__5
10
63.022999
20
17.052000
30
102.424004
70
192
0
VERTEX
8
OBJECT__5
10
73.760002
20
16.856001
30
92.970001
70
192
0
VERTEX
8
OBJECT__5
10
83.473999
20
16.545000
30
87.360001
70
192
0
VERTEX
8
OBJECT__5
10
86.817001
20
16.430000
30
85.428001
70
192
0
VERTEX
8
OBJECT__5
10
99.914001
20
15.977000
30
77.860001
70
192
0
VERTEX
8
OBJECT__5
10
105.990997
20
15.767000
30
74.348000
70
192
0
VERTEX
8
OBJECT__5
10
112.790001
20
15.289000
30
70.209999
70
192
0
VERTEX
8
OBJECT__5
10
117.160004
20
14.981000
30
67.549004
70
192
0
VERTEX
8
OBJECT__5
10
119.004997
20
14.810000
30
66.403999
70
192
0
VERTEX
8
OBJECT__5
10
119.198997
20
14.792000
30
66.282997
70
192
0
VERTEX
8
OBJECT__5
10
119.903999
20
14.653000
30
65.632004
70
192
0
VERTEX
8
OBJECT__5
10
121.360001
20
14.044000
30
64.325996
70
192
0
VERTEX
8
OBJECT__5
10
121.652000
20
13.922000
30
64.064003
70
192
0
VERTEX
8
OBJECT__5
10
123.737999
20
12.292000
30
62.313999
70
192
0
VERTEX
8
OBJECT__5
10
124.499001
20
11.453000
30
61.709000
70
192
0
VERTEX
8
OBJECT__5
10
123.559998
20
12.431000
30
62.464001
70
192
0
VERTEX
8
OBJECT__5
10
126.139000
20
8.991000
30
60.458000
70
192
0
VERTEX
8
OBJECT__5
10
126.572998
20
8.119000
30
60.139999
70
192
0
VERTEX
8
OBJECT__5
10
125.460999
20
10.009000
30
60.974998
70
192
0
VERTEX
8
OBJECT__5
10
127.677002
20
5.053000
30
59.355000
70
192
0
VERTEX
8
OBJECT__5
10
127.917000
20
4.032000
30
59.188000
70
192
0
VERTEX
8
OBJECT__5
10
126.963997
20
7.035000
30
59.862999
70
192
0
VERTEX
8
OBJECT__5
10
127.963997
20
3.639000
30
59.154999
70
192
0
VERTEX
8
OBJECT__5
10
128.317001
20
0.663000
30
58.910999
70
192
0
VERTEX
8
OBJECT__5
10
128.307999
20
-0.897000
30
58.917000
70
192
0
VERTEX
8
OBJECT__5
10
127.950996
20
-3.636000
30
59.164001
70
192
0
VERTEX
8
OBJECT__5
10
128.313004
20
0.000000
30
58.914001
70
192
0
VERTEX
8
OBJECT__5
10
127.417999
20
-5.945000
30
59.536999
70
192
0
VERTEX
8
OBJECT__5
10
126.967003
20
-7.032000
30
59.861000
70
192
0
VERTEX
8
OBJECT__5
10
127.872002
20
-4.244000
30
59.219002
70
192
0
VERTEX
8
OBJECT__5
10
126.218002
20
-8.841000
30
60.400002
70
192
0
VERTEX
8
OBJECT__5
10
125.491997
20
-10.052000
30
60.945999
70
192
0
VERTEX
8
OBJECT__5
10
123.555000
20
-12.437000
30
62.465000
70
192
0
VERTEX
8
OBJECT__5
10
125.240997
20
-10.472000
30
61.134998
70
192
0
VERTEX
8
OBJECT__5
10
122.134003
20
-13.623000
30
63.646999
70
192
0
VERTEX
8
OBJECT__5
10
121.352997
20
-13.979000
30
64.343002
70
192
0
VERTEX
8
OBJECT__5
10
123.403000
20
-12.615000
30
62.585999
70
192
0
VERTEX
8
OBJECT__5
10
119.198997
20
-14.792000
30
66.282997
70
192
0
VERTEX
8
OBJECT__5
10
119.005997
20
-14.811000
30
66.403999
70
192
0
VERTEX
8
OBJECT__5
10
119.846001
20
-14.668000
30
65.684998
70
192
0
VERTEX
8
OBJECT__5
10
112.782997
20
-15.280000
30
70.209000
70
192
0
VERTEX
8
OBJECT__5
10
118.844002
20
-14.826000
30
66.503998
70
192
0
VERTEX
8
OBJECT__5
10
106.903999
20
-15.721000
30
73.802002
70
192
0
VERTEX
8
OBJECT__5
10
99.902000
20
-15.972000
30
77.856003
70
192
0
VERTEX
8
OBJECT__5
10
86.818001
20
-16.441000
30
85.431999
70
192
0
VERTEX
8
OBJECT__5
10
79.602997
20
-16.698999
30
89.609001
70
192
0
VERTEX
8
OBJECT__5
10
73.763000
20
-16.862000
30
92.971001
70
192
0
VERTEX
8
OBJECT__5
10
64.400002
20
-17.011999
30
101.138000
70
192
0
VERTEX
8
OBJECT__5
10
63.785999
20
-17.028999
30
101.737000
70
192
0
VERTEX
8
OBJECT__5
10
64.894997
20
-16.999001
30
100.612999
70
192
0
VERTEX
8
OBJECT__5
10
67.544998
20
-16.955999
30
97.624001
70
192
0
VERTEX
8
OBJECT__5
10
69.362000
20
-16.941999
30
95.888000
70
192
0
VERTEX
8
OBJECT__5
10
72.177002
20
-16.907000
30
93.884003
70
192
0
VERTEX
8
OBJECT__5
10
27.159000
20
-4.945000
30
0.000000
70
192
0
VERTEX
8
OBJECT__5
10
0
20
0
30
0
70
128
71
1
72
2
73
3
0
VERTEX
8
OBJECT__5
10
0
20
0
30
0
70
128
71
4
72
5
73
6
0
VERTEX
8
OBJECT__5
10
0
20
0
30
0
70
128
71
7
72
8
73
9
0
VERTEX
8
OBJECT__5
10
0
20
0
30
0
70
128
71
10
72
11
73
12
0
VERTEX
8
OBJECT__5
10
0
20
0
30
0
70
128
71
13
72
14
73
15
0
VERTEX
8
OBJECT__5
10
0
20
0
30
0
70
128
71
16
72
17
73
18
0
VERTEX
8
OBJECT__5
10
0
20
0
30
0
70
128
71
18
72
19
73
16
0
VERTEX
8
OBJECT__5
10
0
20
0
30
0
70
128
71
3
72
2
73
14
0
VERTEX
8
OBJECT__5
10
0
20
0
30
0
70
128
71
20
72
21
73
22
0
VERTEX
8
OBJECT__5
10
0
20
0
30
0
70
128
71
20
72
23
73
21
0
VERTEX
8
OBJECT__5
10
0
20
0
30
0
70
128
71
20
72
2
73
24
0
VERTEX
8
OBJECT__5
10
0
20
0
30
0
70
128
71
2
72
1
73
24
0
VERTEX
8
OBJECT__5
10
0
20
0
30
0
70
128
71
25
72
18
73
26
0
VERTEX
8
OBJECT__5
10
0
20
0
30
0
70
128
71
26
72
27
73
28
0
VERTEX
8
OBJECT__5
10
0
20
0
30
0
70
128
71
14
72
2
73
20
0
VERTEX
8
OBJECT__5
10
0
20
0
30
0
70
128
71
18
72
17
73
27
0
VERTEX
8
OBJECT__5
10
0
20
0
30
0
70
128
71
29
72
12
73
30
0
VERTEX
8
OBJECT__5
10
0
20
0
30
0
70
128
71
31
72
30
73
16
0
VERTEX
8
OBJECT__5
10
0
20
0
30
0
70
128
71
32
72
33
73
34
0
VERTEX
8
OBJECT__5
10
0
20
0
30
0
70
128
71
34
72
16
73
32
0
VERTEX
8
OBJECT__5
10
0
20
0
30
0
70
128
71
35
72
15
73
9
0
VERTEX
8
OBJECT__5
10
0
20
0
30
0
70
128
71
27
72
36
73
37
0
VERTEX
8
OBJECT__5
10
0
20
0
30
0
70
128
71
15
72
14
73
28
0
VERTEX
8
OBJECT__5
10
0
20
0
30
0
70
128
71
17
72
34
73
36
0
VERTEX
8
OBJECT__5
10
0
20
0
30
0
70
128
71
36
72
38
73
39
0
VERTEX
8
OBJECT__5
10
0
20
0
30
0
70
128
71
37
72
39
73
9
0
VERTEX
8
OBJECT__5
10
0
20
0
30
0
70
128
71
34
72
33
73
38
0
VERTEX
8
OBJECT__5
10
0
20
0
30
0
70
128
71
12
72
40
73
41
0
VERTEX
8
OBJECT__5
10
0
20
0
30
0
70
128
71
30
72
41
73
32
0
VERTEX
8
OBJECT__5
10
0
20
0
30
0
70
128
71
11
72
42
73
40
0
VERTEX
8
OBJECT__5
10
0
20
0
30
0
70
128
71
43
72
44
73
45
0
VERTEX
8
OBJECT__5
10
0
20
0
30
0
70
128
71
46
72
47
73
48
0
VERTEX
8
OBJECT__5
10
0
20
0
30
0
70
128
71
49
72
48
73
11
0
VERTEX
8
OBJECT__5
10
0
20
0
30
0
70
128
71
50
72
45
73
47
0
VERTEX
8
OBJECT__5
10
0
20
0
30
0
70
128
71
51
72
52
73
53
0
VERTEX
8
OBJECT__5
10
0
20
0
30
0
70
128
71
54
72
53
73
44
0
VERTEX
8
OBJECT__5
10
0
20
0
30
0
70
128
71
4
72
55
73
52
0
VERTEX
8
OBJECT__5
10
0
20
0
30
0
70
128
71
44
72
56
73
57
0
VERTEX
8
OBJECT__5
10
0
20
0
30
0
70
128
71
47
72
58
73
59
0
VERTEX
8
OBJECT__5
10
0
20
0
30
0
70
128
71
48
72
59
73
42
0
VERTEX
8
OBJECT__5
10
0
20
0
30
0
70
128
71
45
72
57
73
58
0
VERTEX
8
OBJECT__5
10
0
20
0
30
0
70
128
71
52
72
60
73
61
0
VERTEX
8
OBJECT__5
10
0
20
0
30
0
70
128
71
53
72
61
73
56
0
VERTEX
8
OBJECT__5
10
0
20
0
30
0
70
128
71
55
72
62
73
60
0
VERTEX
8
OBJECT__5
10
0
20
0
30
0
70
128
71
42
72
63
73
64
0
VERTEX
8
OBJECT__5
10
0
20
0
30
0
70
128
71
65
72
7
73
66
0
VERTEX
8
OBJECT__5
10
0
20
0
30
0
70
128
71
32
72
67
73
68
0
VERTEX
8
OBJECT__5
10
0
20
0
30
0
70
128
71
38
72
69
73
70
0
VERTEX
8
OBJECT__5
10
0
20
0
30
0
70
128
71
39
72
70
73
66
0
VERTEX
8
OBJECT__5
10
0
20
0
30
0
70
128
71
33
72
68
73
69
0
VERTEX
8
OBJECT__5
10
0
20
0
30
0
70
128
71
40
72
64
73
71
0
VERTEX
8
OBJECT__5
10
0
20
0
30
0
70
128
71
41
72
71
73
67
0
VERTEX
8
OBJECT__5
10
0
20
0
30
0
70
128
71
67
72
72
73
73
0
VERTEX
8
OBJECT__5
10
0
20
0
30
0
70
128
71
67
72
74
73
75
0
VERTEX
8
OBJECT__5
10
0
20
0
30
0
70
128
71
75
72
72
73
67
0
VERTEX
8
OBJECT__5
10
0
20
0
30
0
70
128
71
69
72
76
73
77
0
VERTEX
8
OBJECT__5
10
0
20
0
30
0
70
128
71
69
72
78
73
79
0
VERTEX
8
OBJECT__5
10
0
20
0
30
0
70
128
71
79
72
76
73
69
0
VERTEX
8
OBJECT__5
10
0
20
0
30
0
70
128
71
66
72
80
73
81
0
VERTEX
8
OBJECT__5
10
0
20
0
30
0
70
128
71
70
72
82
73
80
0
VERTEX
8
OBJECT__5
10
0
20
0
30
0
70
128
71
80
72
66
73
70
0
VERTEX
8
OBJECT__5
10
0
20
0
30
0
70
128
71
70
72
77
73
82
0
VERTEX
8
OBJECT__5
10
0
20
0
30
0
70
128
71
68
72
83
73
78
0
VERTEX
8
OBJECT__5
10
0
20
0
30
0
70
128
71
68
72
84
73
83
0
VERTEX
8
OBJECT__5
10
0
20
0
30
0
70
128
71
68
72
73
73
84
0
VERTEX
8
OBJECT__5
10
0
20
0
30
0
70
128
71
64
72
85
73
86
0
VERTEX
8
OBJECT__5
10
0
20
0
30
0
70
128
71
64
72
87
73
85
0
VERTEX
8
OBJECT__5
10
0
20
0
30
0
70
128
71
71
72
88
73
74
0
VERTEX
8
OBJECT__5
10
0
20
0
30
0
70
128
71
71
72
86
73
88
0
VERTEX
8
OBJECT__5
10
0
20
0
30
0
70
128
71
63
72
89
73
87
0
VERTEX
8
OBJECT__5
10
0
20
0
30
0
70
128
71
63
72
90
73
91
0
VERTEX
8
OBJECT__5
10
0
20
0
30
0
70
128
71
91
72
89
73
63
0
VERTEX
8
OBJECT__5
10
0
20
0
30
0
70
128
71
56
72
92
73
93
0
VERTEX
8
OBJECT__5
10
0
20
0
30
0
70
128
71
58
72
94
73
95
0
VERTEX
8
OBJECT__5
10
0
20
0
30
0
70
128
71
59
72
95
73
63
0
VERTEX
8
OBJECT__5
10
0
20
0
30
0
70
128
71
57
72
93
73
94
0
VERTEX
8
OBJECT__5
10
0
20
0
30
0
70
128
71
60
72
96
73
97
0
VERTEX
8
OBJECT__5
10
0
20
0
30
0
70
128
71
61
72
97
73
92
0
VERTEX
8
OBJECT__5
10
0
20
0
30
0
70
128
71
62
72
98
73
96
0
VERTEX
8
OBJECT__5
10
0
20
0
30
0
70
128
71
92
72
99
73
100
0
VERTEX
8
OBJECT__5
10
0
20
0
30
0
70
128
71
92
72
101
73
99
0
VERTEX
8
OBJECT__5
10
0
20
0
30
0
70
128
71
94
72
102
73
103
0
VERTEX
8
OBJECT__5
10
0
20
0
30
0
70
128
71
94
72
104
73
102
0
VERTEX
8
OBJECT__5
10
0
20
0
30
0
70
128
71
95
72
105
73
90
0
VERTEX
8
OBJECT__5
10
0
20
0
30
0
70
128
71
95
72
103
73
105
0
VERTEX
8
OBJECT__5
10
0
20
0
30
0
70
128
71
93
72
106
73
104
0
VERTEX
8
OBJECT__5
10
0
20
0
30
0
70
128
71
93
72
100
73
106
0
VERTEX
8
OBJECT__5
10
0
20
0
30
0
70
128
71
96
72
107
73
108
0
VERTEX
8
OBJECT__5
10
0
20
0
30
0
70
128
71
96
72
109
73
107
0
VERTEX
8
OBJECT__5
10
0
20
0
30
0
70
128
71
97
72
110
73
101
0
VERTEX
8
OBJECT__5
10
0
20
0
30
0
70
128
71
97
72
108
73
111
0
VERTEX
8
OBJECT__5
10
0
20
0
30
0
70
128
71
111
72
110
73
97
0
VERTEX
8
OBJECT__5
10
0
20
0
30
0
70
128
71
98
72
112
73
109
0
VERTEX
8
OBJECT__5
10
0
20
0
30
0
70
128
71
98
72
113
73
112
0
VERTEX
8
OBJECT__5
10
0
20
0
30
0
70
128
71
114
72
115
73
116
0
VERTEX
8
OBJECT__5
10
0
20
0
30
0
70
128
71
117
72
118
73
98
0
VERTEX
8
OBJECT__5
10
0
20
0
30
0
70
128
71
98
72
118
73
119
0
VERTEX
8
OBJECT__5
10
0
20
0
30
0
70
128
71
119
72
113
73
98
0
VERTEX
8
OBJECT__5
10
0
20
0
30
0
70
128
71
120
72
121
73
122
0
VERTEX
8
OBJECT__5
10
0
20
0
30
0
70
128
71
55
72
6
73
117
0
VERTEX
8
OBJECT__5
10
0
20
0
30
0
70
128
71
123
72
124
73
125
0
VERTEX
8
OBJECT__5
10
0
20
0
30
0
70
128
71
5
72
123
73
126
0
VERTEX
8
OBJECT__5
10
0
20
0
30
0
70
128
71
124
72
120
73
127
0
VERTEX
8
OBJECT__5
10
0
20
0
30
0
70
128
71
126
72
125
73
128
0
VERTEX
8
OBJECT__5
10
0
20
0
30
0
70
128
71
6
72
126
73
129
0
VERTEX
8
OBJECT__5
10
0
20
0
30
0
70
128
71
125
72
127
73
130
0
VERTEX
8
OBJECT__5
10
0
20
0
30
0
70
128
71
127
72
122
73
131
0
VERTEX
8
OBJECT__5
10
0
20
0
30
0
70
128
71
132
72
133
73
134
0
VERTEX
8
OBJECT__5
10
0
20
0
30
0
70
128
71
121
72
132
73
135
0
VERTEX
8
OBJECT__5
10
0
20
0
30
0
70
128
71
133
72
114
73
136
0
VERTEX
8
OBJECT__5
10
0
20
0
30
0
70
128
71
135
72
134
73
137
0
VERTEX
8
OBJECT__5
10
0
20
0
30
0
70
128
71
122
72
135
73
138
0
VERTEX
8
OBJECT__5
10
0
20
0
30
0
70
128
71
134
72
136
73
139
0
VERTEX
8
OBJECT__5
10
0
20
0
30
0
70
128
71
130
72
131
73
140
0
VERTEX
8
OBJECT__5
10
0
20
0
30
0
70
128
71
129
72
141
73
142
0
VERTEX
8
OBJECT__5
10
0
20
0
30
0
70
128
71
129
72
128
73
143
0
VERTEX
8
OBJECT__5
10
0
20
0
30
0
70
128
71
143
72
141
73
129
0
VERTEX
8
OBJECT__5
10
0
20
0
30
0
70
128
71
117
72
129
73
144
0
VERTEX
8
OBJECT__5
10
0
20
0
30
0
70
128
71
144
72
145
73
117
0
VERTEX
8
OBJECT__5
10
0
20
0
30
0
70
128
71
146
72
128
73
147
0
VERTEX
8
OBJECT__5
10
0
20
0
30
0
70
128
71
147
72
148
73
146
0
VERTEX
8
OBJECT__5
10
0
20
0
30
0
70
128
71
128
72
130
73
147
0
VERTEX
8
OBJECT__5
10
0
20
0
30
0
70
128
71
147
72
140
73
149
0
VERTEX
8
OBJECT__5
10
0
20
0
30
0
70
128
71
149
72
150
73
147
0
VERTEX
8
OBJECT__5
10
0
20
0
30
0
70
128
71
150
72
151
73
147
0
VERTEX
8
OBJECT__5
10
0
20
0
30
0
70
128
71
138
72
137
73
152
0
VERTEX
8
OBJECT__5
10
0
20
0
30
0
70
128
71
131
72
138
73
153
0
VERTEX
8
OBJECT__5
10
0
20
0
30
0
70
128
71
137
72
139
73
154
0
VERTEX
8
OBJECT__5
10
0
20
0
30
0
70
128
71
153
72
152
73
155
0
VERTEX
8
OBJECT__5
10
0
20
0
30
0
70
128
71
155
72
156
73
153
0
VERTEX
8
OBJECT__5
10
0
20
0
30
0
70
128
71
140
72
153
73
157
0
VERTEX
8
OBJECT__5
10
0
20
0
30
0
70
128
71
157
72
158
73
140
0
VERTEX
8
OBJECT__5
10
0
20
0
30
0
70
128
71
152
72
159
73
160
0
VERTEX
8
OBJECT__5
10
0
20
0
30
0
70
128
71
152
72
154
73
161
0
VERTEX
8
OBJECT__5
10
0
20
0
30
0
70
128
71
161
72
159
73
152
0
VERTEX
8
OBJECT__5
10
0
20
0
30
0
70
128
71
139
72
162
73
163
0
VERTEX
8
OBJECT__5
10
0
20
0
30
0
70
128
71
164
72
165
73
166
0
VERTEX
8
OBJECT__5
10
0
20
0
30
0
70
128
71
136
72
116
73
162
0
VERTEX
8
OBJECT__5
10
0
20
0
30
0
70
128
71
115
72
167
73
168
0
VERTEX
8
OBJECT__5
10
0
20
0
30
0
70
128
71
168
72
167
73
169
0
VERTEX
8
OBJECT__5
10
0
20
0
30
0
70
128
71
167
72
164
73
169
0
VERTEX
8
OBJECT__5
10
0
20
0
30
0
70
128
71
116
72
168
73
170
0
VERTEX
8
OBJECT__5
10
0
20
0
30
0
70
128
71
170
72
168
73
171
0
VERTEX
8
OBJECT__5
10
0
20
0
30
0
70
128
71
168
72
172
73
171
0
VERTEX
8
OBJECT__5
10
0
20
0
30
0
70
128
71
172
72
173
73
174
0
VERTEX
8
OBJECT__5
10
0
20
0
30
0
70
128
71
175
72
176
73
177
0
VERTEX
8
OBJECT__5
10
0
20
0
30
0
70
128
71
177
72
178
73
175
0
VERTEX
8
OBJECT__5
10
0
20
0
30
0
70
128
71
169
72
166
73
173
0
VERTEX
8
OBJECT__5
10
0
20
0
30
0
70
128
71
175
72
166
73
165
0
VERTEX
8
OBJECT__5
10
0
20
0
30
0
70
128
71
165
72
179
73
175
0
VERTEX
8
OBJECT__5
10
0
20
0
30
0
70
128
71
166
72
175
73
180
0
VERTEX
8
OBJECT__5
10
0
20
0
30
0
70
128
71
181
72
180
73
175
0
VERTEX
8
OBJECT__5
10
0
20
0
30
0
70
128
71
182
72
183
73
3
0
VERTEX
8
OBJECT__5
10
0
20
0
30
0
70
128
71
3
72
13
73
181
0
VERTEX
8
OBJECT__5
10
0
20
0
30
0
70
128
71
184
72
185
73
180
0
VERTEX
8
OBJECT__5
10
0
20
0
30
0
70
128
71
171
72
174
73
186
0
VERTEX
8
OBJECT__5
10
0
20
0
30
0
70
128
71
173
72
180
73
185
0
VERTEX
8
OBJECT__5
10
0
20
0
30
0
70
128
71
174
72
185
73
187
0
VERTEX
8
OBJECT__5
10
0
20
0
30
0
70
128
71
185
72
184
73
188
0
VERTEX
8
OBJECT__5
10
0
20
0
30
0
70
128
71
13
72
35
73
184
0
VERTEX
8
OBJECT__5
10
0
20
0
30
0
70
128
71
35
72
8
73
188
0
VERTEX
8
OBJECT__5
10
0
20
0
30
0
70
128
71
189
72
186
73
190
0
VERTEX
8
OBJECT__5
10
0
20
0
30
0
70
128
71
154
72
163
73
191
0
VERTEX
8
OBJECT__5
10
0
20
0
30
0
70
128
71
191
72
192
73
154
0
VERTEX
8
OBJECT__5
10
0
20
0
30
0
70
128
71
162
72
170
73
193
0
VERTEX
8
OBJECT__5
10
0
20
0
30
0
70
128
71
170
72
189
73
194
0
VERTEX
8
OBJECT__5
10
0
20
0
30
0
70
128
71
163
72
193
73
195
0
VERTEX
8
OBJECT__5
10
0
20
0
30
0
70
128
71
195
72
196
73
163
0
VERTEX
8
OBJECT__5
10
0
20
0
30
0
70
128
71
193
72
197
73
198
0
VERTEX
8
OBJECT__5
10
0
20
0
30
0
70
128
71
193
72
199
73
197
0
VERTEX
8
OBJECT__5
10
0
20
0
30
0
70
128
71
193
72
194
73
200
0
VERTEX
8
OBJECT__5
10
0
20
0
30
0
70
128
71
200
72
199
73
193
0
VERTEX
8
OBJECT__5
10
0
20
0
30
0
70
128
71
194
72
190
73
201
0
VERTEX
8
OBJECT__5
10
0
20
0
30
0
70
128
71
201
72
202
73
194
0
VERTEX
8
OBJECT__5
10
0
20
0
30
0
70
128
71
187
72
188
73
203
0
VERTEX
8
OBJECT__5
10
0
20
0
30
0
70
128
71
186
72
187
73
204
0
VERTEX
8
OBJECT__5
10
0
20
0
30
0
70
128
71
7
72
203
73
188
0
VERTEX
8
OBJECT__5
10
0
20
0
30
0
70
128
71
204
72
203
73
205
0
VERTEX
8
OBJECT__5
10
0
20
0
30
0
70
128
71
203
72
206
73
207
0
VERTEX
8
OBJECT__5
10
0
20
0
30
0
70
128
71
207
72
205
73
203
0
VERTEX
8
OBJECT__5
10
0
20
0
30
0
70
128
71
205
72
208
73
204
0
VERTEX
8
OBJECT__5
10
0
20
0
30
0
70
128
71
190
72
204
73
209
0
VERTEX
8
OBJECT__5
10
0
20
0
30
0
70
128
71
209
72
210
73
190
0
VERTEX
8
OBJECT__5
10
0
20
0
30
0
70
128
71
65
72
206
73
203
0
VERTEX
8
OBJECT__5
10
0
20
0
30
0
70
128
71
211
72
212
73
213
0
VERTEX
8
OBJECT__5
10
0
20
0
30
0
70
128
71
214
72
215
73
212
0
VERTEX
8
OBJECT__5
10
0
20
0
30
0
70
128
71
216
72
217
73
218
0
VERTEX
8
OBJECT__5
10
0
20
0
30
0
70
128
71
219
72
220
73
221
0
VERTEX
8
OBJECT__5
10
0
20
0
30
0
70
128
71
222
72
223
73
224
0
VERTEX
8
OBJECT__5
10
0
20
0
30
0
70
128
71
215
72
222
73
225
0
VERTEX
8
OBJECT__5
10
0
20
0
30
0
70
128
71
223
72
219
73
226
0
VERTEX
8
OBJECT__5
10
0
20
0
30
0
70
128
71
227
72
228
73
229
0
VERTEX
8
OBJECT__5
10
0
20
0
30
0
70
128
71
220
72
227
73
230
0
VERTEX
8
OBJECT__5
10
0
20
0
30
0
70
128
71
231
72
229
73
228
0
VERTEX
8
OBJECT__5
10
0
20
0
30
0
70
128
71
232
72
233
73
234
0
VERTEX
8
OBJECT__5
10
0
20
0
30
0
70
128
71
234
72
235
73
232
0
VERTEX
8
OBJECT__5
10
0
20
0
30
0
70
128
71
217
72
232
73
236
0
VERTEX
8
OBJECT__5
10
0
20
0
30
0
70
128
71
233
72
237
73
238
0
VERTEX
8
OBJECT__5
10
0
20
0
30
0
70
128
71
239
72
240
73
241
0
VERTEX
8
OBJECT__5
10
0
20
0
30
0
70
128
71
242
72
238
73
237
0
VERTEX
8
OBJECT__5
10
0
20
0
30
0
70
128
71
240
72
242
73
243
0
VERTEX
8
OBJECT__5
10
0
20
0
30
0
70
128
71
244
72
245
73
246
0
VERTEX
8
OBJECT__5
10
0
20
0
30
0
70
128
71
247
72
239
73
248
0
VERTEX
8
OBJECT__5
10
0
20
0
30
0
70
128
71
245
72
247
73
249
0
VERTEX
8
OBJECT__5
10
0
20
0
30
0
70
128
71
250
72
251
73
252
0
VERTEX
8
OBJECT__5
10
0
20
0
30
0
70
128
71
251
72
244
73
253
0
VERTEX
8
OBJECT__5
10
0
20
0
30
0
70
128
71
254
72
255
73
256
0
VERTEX
8
OBJECT__5
10
0
20
0
30
0
70
128
71
234
72
238
73
257
0
VERTEX
8
OBJECT__5
10
0
20
0
30
0
70
128
71
4
72
258
73
213
0
VERTEX
8
OBJECT__5
10
0
20
0
30
0
70
128
71
213
72
5
73
4
0
VERTEX
8
OBJECT__5
10
0
20
0
30
0
70
128
71
231
72
218
73
259
0
VERTEX
8
OBJECT__5
10
0
20
0
30
0
70
128
71
226
72
221
73
260
0
VERTEX
8
OBJECT__5
10
0
20
0
30
0
70
128
71
225
72
224
73
261
0
VERTEX
8
OBJECT__5
10
0
20
0
30
0
70
128
71
212
72
225
73
262
0
VERTEX
8
OBJECT__5
10
0
20
0
30
0
70
128
71
224
72
226
73
263
0
VERTEX
8
OBJECT__5
10
0
20
0
30
0
70
128
71
264
72
265
73
230
0
VERTEX
8
OBJECT__5
10
0
20
0
30
0
70
128
71
230
72
229
73
264
0
VERTEX
8
OBJECT__5
10
0
20
0
30
0
70
128
71
221
72
230
73
265
0
VERTEX
8
OBJECT__5
10
0
20
0
30
0
70
128
71
236
72
235
73
266
0
VERTEX
8
OBJECT__5
10
0
20
0
30
0
70
128
71
218
72
236
73
267
0
VERTEX
8
OBJECT__5
10
0
20
0
30
0
70
128
71
235
72
234
73
268
0
VERTEX
8
OBJECT__5
10
0
20
0
30
0
70
128
71
264
72
259
73
121
0
VERTEX
8
OBJECT__5
10
0
20
0
30
0
70
128
71
123
72
263
73
260
0
VERTEX
8
OBJECT__5
10
0
20
0
30
0
70
128
71
260
72
124
73
123
0
VERTEX
8
OBJECT__5
10
0
20
0
30
0
70
128
71
5
72
262
73
261
0
VERTEX
8
OBJECT__5
10
0
20
0
30
0
70
128
71
261
72
123
73
5
0
VERTEX
8
OBJECT__5
10
0
20
0
30
0
70
128
71
265
72
264
73
120
0
VERTEX
8
OBJECT__5
10
0
20
0
30
0
70
128
71
267
72
266
73
133
0
VERTEX
8
OBJECT__5
10
0
20
0
30
0
70
128
71
259
72
267
73
132
0
VERTEX
8
OBJECT__5
10
0
20
0
30
0
70
128
71
266
72
268
73
114
0
VERTEX
8
OBJECT__5
10
0
20
0
30
0
70
128
71
268
72
257
73
115
0
VERTEX
8
OBJECT__5
10
0
20
0
30
0
70
128
71
269
72
270
73
240
0
VERTEX
8
OBJECT__5
10
0
20
0
30
0
70
128
71
238
72
242
73
271
0
VERTEX
8
OBJECT__5
10
0
20
0
30
0
70
128
71
270
72
271
73
242
0
VERTEX
8
OBJECT__5
10
0
20
0
30
0
70
128
71
272
72
273
73
245
0
VERTEX
8
OBJECT__5
10
0
20
0
30
0
70
128
71
274
72
269
73
239
0
VERTEX
8
OBJECT__5
10
0
20
0
30
0
70
128
71
273
72
274
73
247
0
VERTEX
8
OBJECT__5
10
0
20
0
30
0
70
128
71
275
72
276
73
251
0
VERTEX
8
OBJECT__5
10
0
20
0
30
0
70
128
71
276
72
272
73
244
0
VERTEX
8
OBJECT__5
10
0
20
0
30
0
70
128
71
277
72
275
73
250
0
VERTEX
8
OBJECT__5
10
0
20
0
30
0
70
128
71
165
72
164
73
270
0
VERTEX
8
OBJECT__5
10
0
20
0
30
0
70
128
71
257
72
271
73
167
0
VERTEX
8
OBJECT__5
10
0
20
0
30
0
70
128
71
271
72
270
73
164
0
VERTEX
8
OBJECT__5
10
0
20
0
30
0
70
128
71
177
72
176
73
273
0
VERTEX
8
OBJECT__5
10
0
20
0
30
0
70
128
71
179
72
165
73
269
0
VERTEX
8
OBJECT__5
10
0
20
0
30
0
70
128
71
176
72
179
73
274
0
VERTEX
8
OBJECT__5
10
0
20
0
30
0
70
128
71
183
72
182
73
276
0
VERTEX
8
OBJECT__5
10
0
20
0
30
0
70
128
71
276
72
275
73
183
0
VERTEX
8
OBJECT__5
10
0
20
0
30
0
70
128
71
182
72
177
73
272
0
VERTEX
8
OBJECT__5
10
0
20
0
30
0
70
128
71
277
72
256
73
278
0
VERTEX
8
OBJECT__5
10
0
20
0
30
0
70
128
71
279
72
278
73
256
0
VERTEX
8
OBJECT__5
10
0
20
0
30
0
70
128
71
280
72
281
73
282
0
VERTEX
8
OBJECT__5
10
0
20
0
30
0
70
128
71
283
72
284
73
285
0
VERTEX
8
OBJECT__5
10
0
20
0
30
0
70
128
71
278
72
279
73
284
0
VERTEX
8
OBJECT__5
10
0
20
0
30
0
70
128
71
286
72
285
73
281
0
VERTEX
8
OBJECT__5
10
0
20
0
30
0
70
128
71
287
72
288
73
289
0
VERTEX
8
OBJECT__5
10
0
20
0
30
0
70
128
71
290
72
282
73
288
0
VERTEX
8
OBJECT__5
10
0
20
0
30
0
70
128
71
291
72
289
73
292
0
VERTEX
8
OBJECT__5
10
0
20
0
30
0
70
128
71
293
72
294
73
295
0
VERTEX
8
OBJECT__5
10
0
20
0
30
0
70
128
71
296
72
292
73
297
0
VERTEX
8
OBJECT__5
10
0
20
0
30
0
70
128
71
298
72
291
73
296
0
VERTEX
8
OBJECT__5
10
0
20
0
30
0
70
128
71
183
72
299
73
300
0
VERTEX
8
OBJECT__5
10
0
20
0
30
0
70
128
71
183
72
277
73
299
0
VERTEX
8
OBJECT__5
10
0
20
0
30
0
70
128
71
301
72
280
73
290
0
VERTEX
8
OBJECT__5
10
0
20
0
30
0
70
128
71
300
72
283
73
286
0
VERTEX
8
OBJECT__5
10
0
20
0
30
0
70
128
71
299
72
278
73
283
0
VERTEX
8
OBJECT__5
10
0
20
0
30
0
70
128
71
302
72
286
73
280
0
VERTEX
8
OBJECT__5
10
0
20
0
30
0
70
128
71
303
72
287
73
291
0
VERTEX
8
OBJECT__5
10
0
20
0
30
0
70
128
71
304
72
290
73
287
0
VERTEX
8
OBJECT__5
10
0
20
0
30
0
70
128
71
23
72
301
73
304
0
VERTEX
8
OBJECT__5
10
0
20
0
30
0
70
128
71
1
72
300
73
302
0
VERTEX
8
OBJECT__5
10
0
20
0
30
0
70
128
71
24
72
302
73
301
0
VERTEX
8
OBJECT__5
10
0
20
0
30
0
70
128
71
22
72
303
73
298
0
VERTEX
8
OBJECT__5
10
0
20
0
30
0
70
128
71
21
72
304
73
303
0
VERTEX
8
OBJECT__5
10
0
20
0
30
0
70
128
71
305
72
19
73
25
0
VERTEX
8
OBJECT__5
10
0
20
0
30
0
70
128
71
294
72
306
73
307
0
VERTEX
8
OBJECT__5
10
0
20
0
30
0
70
128
71
295
72
307
73
305
0
VERTEX
8
OBJECT__5
10
0
20
0
30
0
70
128
71
306
72
29
73
31
0
VERTEX
8
OBJECT__5
10
0
20
0
30
0
70
128
71
307
72
31
73
19
0
VERTEX
8
OBJECT__5
10
0
20
0
30
0
70
128
71
308
72
309
73
306
0
VERTEX
8
OBJECT__5
10
0
20
0
30
0
70
128
71
310
72
308
73
294
0
VERTEX
8
OBJECT__5
10
0
20
0
30
0
70
128
71
310
72
311
73
308
0
VERTEX
8
OBJECT__5
10
0
20
0
30
0
70
128
71
312
72
313
73
311
0
VERTEX
8
OBJECT__5
10
0
20
0
30
0
70
128
71
314
72
315
73
313
0
VERTEX
8
OBJECT__5
10
0
20
0
30
0
70
128
71
316
72
317
73
318
0
VERTEX
8
OBJECT__5
10
0
20
0
30
0
70
128
71
316
72
315
73
317
0
VERTEX
8
OBJECT__5
10
0
20
0
30
0
70
128
71
309
72
10
73
29
0
VERTEX
8
OBJECT__5
10
0
20
0
30
0
70
128
71
313
72
319
73
320
0
VERTEX
8
OBJECT__5
10
0
20
0
30
0
70
128
71
311
72
320
73
309
0
VERTEX
8
OBJECT__5
10
0
20
0
30
0
70
128
71
315
72
316
73
319
0
VERTEX
8
OBJECT__5
10
0
20
0
30
0
70
128
71
319
72
46
73
49
0
VERTEX
8
OBJECT__5
10
0
20
0
30
0
70
128
71
320
72
49
73
10
0
VERTEX
8
OBJECT__5
10
0
20
0
30
0
70
128
71
316
72
50
73
46
0
VERTEX
8
OBJECT__5
10
0
20
0
30
0
70
128
71
321
72
43
73
50
0
VERTEX
8
OBJECT__5
10
0
20
0
30
0
70
128
71
322
72
323
73
324
0
VERTEX
8
OBJECT__5
10
0
20
0
30
0
70
128
71
325
72
326
73
321
0
VERTEX
8
OBJECT__5
10
0
20
0
30
0
70
128
71
327
72
324
73
326
0
VERTEX
8
OBJECT__5
10
0
20
0
30
0
70
128
71
328
72
329
73
330
0
VERTEX
8
OBJECT__5
10
0
20
0
30
0
70
128
71
331
72
330
73
323
0
VERTEX
8
OBJECT__5
10
0
20
0
30
0
70
128
71
211
72
258
73
329
0
VERTEX
8
OBJECT__5
10
0
20
0
30
0
70
128
71
51
72
54
73
323
0
VERTEX
8
OBJECT__5
10
0
20
0
30
0
70
128
71
54
72
324
73
323
0
VERTEX
8
OBJECT__5
10
0
20
0
30
0
70
128
71
54
72
43
73
326
0
VERTEX
8
OBJECT__5
10
0
20
0
30
0
70
128
71
43
72
321
73
326
0
VERTEX
8
OBJECT__5
10
0
20
0
30
0
70
128
71
4
72
51
73
329
0
VERTEX
8
OBJECT__5
10
0
20
0
30
0
70
128
71
51
72
330
73
329
0
VERTEX
8
OBJECT__5
10
0
20
0
30
0
70
128
71
314
72
332
73
333
0
VERTEX
8
OBJECT__5
10
0
20
0
30
0
70
128
71
333
72
334
73
314
0
VERTEX
8
OBJECT__5
10
0
20
0
30
0
70
128
71
317
72
315
73
314
0
VERTEX
8
OBJECT__5
10
0
20
0
30
0
70
128
71
314
72
335
73
317
0
VERTEX
8
OBJECT__5
10
0
20
0
30
0
70
128
71
317
72
336
73
337
0
VERTEX
8
OBJECT__5
10
0
20
0
30
0
70
128
71
317
72
335
73
336
0
VERTEX
8
OBJECT__5
10
0
20
0
30
0
70
128
71
318
72
338
73
339
0
VERTEX
8
OBJECT__5
10
0
20
0
30
0
70
128
71
318
72
337
73
340
0
VERTEX
8
OBJECT__5
10
0
20
0
30
0
70
128
71
340
72
338
73
318
0
VERTEX
8
OBJECT__5
10
0
20
0
30
0
70
128
71
325
72
341
73
342
0
VERTEX
8
OBJECT__5
10
0
20
0
30
0
70
128
71
325
72
339
73
341
0
VERTEX
8
OBJECT__5
10
0
20
0
30
0
70
128
71
327
72
343
73
344
0
VERTEX
8
OBJECT__5
10
0
20
0
30
0
70
128
71
327
72
342
73
343
0
VERTEX
8
OBJECT__5
10
0
20
0
30
0
70
128
71
322
72
345
73
346
0
VERTEX
8
OBJECT__5
10
0
20
0
30
0
70
128
71
322
72
347
73
345
0
VERTEX
8
OBJECT__5
10
0
20
0
30
0
70
128
71
322
72
344
73
347
0
VERTEX
8
OBJECT__5
10
0
20
0
30
0
70
128
71
328
72
331
73
348
0
VERTEX
8
OBJECT__5
10
0
20
0
30
0
70
128
71
331
72
346
73
348
0
VERTEX
8
OBJECT__5
10
0
20
0
30
0
70
128
71
349
72
350
73
214
0
VERTEX
8
OBJECT__5
10
0
20
0
30
0
70
128
71
214
72
328
73
349
0
VERTEX
8
OBJECT__5
10
0
20
0
30
0
70
128
71
328
72
351
73
349
0
VERTEX
8
OBJECT__5
10
0
20
0
30
0
70
128
71
215
72
214
73
352
0
VERTEX
8
OBJECT__5
10
0
20
0
30
0
70
128
71
214
72
350
73
352
0
VERTEX
8
OBJECT__5
10
0
20
0
30
0
70
128
71
352
72
353
73
215
0
VERTEX
8
OBJECT__5
10
0
20
0
30
0
70
128
71
222
72
215
73
354
0
VERTEX
8
OBJECT__5
10
0
20
0
30
0
70
128
71
354
72
355
73
222
0
VERTEX
8
OBJECT__5
10
0
20
0
30
0
70
128
71
222
72
356
73
357
0
VERTEX
8
OBJECT__5
10
0
20
0
30
0
70
128
71
357
72
223
73
222
0
VERTEX
8
OBJECT__5
10
0
20
0
30
0
70
128
71
219
72
223
73
358
0
VERTEX
8
OBJECT__5
10
0
20
0
30
0
70
128
71
358
72
359
73
219
0
VERTEX
8
OBJECT__5
10
0
20
0
30
0
70
128
71
359
72
360
73
219
0
VERTEX
8
OBJECT__5
10
0
20
0
30
0
70
128
71
220
72
219
73
361
0
VERTEX
8
OBJECT__5
10
0
20
0
30
0
70
128
71
361
72
362
73
220
0
VERTEX
8
OBJECT__5
10
0
20
0
30
0
70
128
71
227
72
220
73
363
0
VERTEX
8
OBJECT__5
10
0
20
0
30
0
70
128
71
363
72
364
73
227
0
VERTEX
8
OBJECT__5
10
0
20
0
30
0
70
128
71
228
72
227
73
365
0
VERTEX
8
OBJECT__5
10
0
20
0
30
0
70
128
71
365
72
366
73
228
0
VERTEX
8
OBJECT__5
10
0
20
0
30
0
70
128
71
366
72
367
73
228
0
VERTEX
8
OBJECT__5
10
0
20
0
30
0
70
128
71
216
72
368
73
369
0
VERTEX
8
OBJECT__5
10
0
20
0
30
0
70
128
71
216
72
228
73
370
0
VERTEX
8
OBJECT__5
10
0
20
0
30
0
70
128
71
370
72
368
73
216
0
VERTEX
8
OBJECT__5
10
0
20
0
30
0
70
128
71
232
72
371
73
372
0
VERTEX
8
OBJECT__5
10
0
20
0
30
0
70
128
71
217
72
373
73
371
0
VERTEX
8
OBJECT__5
10
0
20
0
30
0
70
128
71
374
72
373
73
217
0
VERTEX
8
OBJECT__5
10
0
20
0
30
0
70
128
71
216
72
375
73
376
0
VERTEX
8
OBJECT__5
10
0
20
0
30
0
70
128
71
216
72
377
73
375
0
VERTEX
8
OBJECT__5
10
0
20
0
30
0
70
128
71
216
72
378
73
377
0
VERTEX
8
OBJECT__5
10
0
20
0
30
0
70
128
71
376
72
374
73
216
0
VERTEX
8
OBJECT__5
10
0
20
0
30
0
70
128
71
217
72
216
73
374
0
VERTEX
8
OBJECT__5
10
0
20
0
30
0
70
128
71
371
72
232
73
217
0
VERTEX
8
OBJECT__5
10
0
20
0
30
0
70
128
71
233
72
232
73
379
0
VERTEX
8
OBJECT__5
10
0
20
0
30
0
70
128
71
379
72
380
73
233
0
VERTEX
8
OBJECT__5
10
0
20
0
30
0
70
128
71
381
72
382
73
237
0
VERTEX
8
OBJECT__5
10
0
20
0
30
0
70
128
71
383
72
241
73
243
0
VERTEX
8
OBJECT__5
10
0
20
0
30
0
70
128
71
243
72
382
73
383
0
VERTEX
8
OBJECT__5
10
0
20
0
30
0
70
128
71
383
72
384
73
241
0
VERTEX
8
OBJECT__5
10
0
20
0
30
0
70
128
71
248
72
241
73
384
0
VERTEX
8
OBJECT__5
10
0
20
0
30
0
70
128
71
384
72
385
73
248
0
VERTEX
8
OBJECT__5
10
0
20
0
30
0
70
128
71
249
72
248
73
386
0
VERTEX
8
OBJECT__5
10
0
20
0
30
0
70
128
71
386
72
387
73
249
0
VERTEX
8
OBJECT__5
10
0
20
0
30
0
70
128
71
387
72
388
73
249
0
VERTEX
8
OBJECT__5
10
0
20
0
30
0
70
128
71
246
72
249
73
389
0
VERTEX
8
OBJECT__5
10
0
20
0
30
0
70
128
71
389
72
390
73
246
0
VERTEX
8
OBJECT__5
10
0
20
0
30
0
70
128
71
253
72
391
73
392
0
VERTEX
8
OBJECT__5
10
0
20
0
30
0
70
128
71
253
72
246
73
393
0
VERTEX
8
OBJECT__5
10
0
20
0
30
0
70
128
71
393
72
391
73
253
0
VERTEX
8
OBJECT__5
10
0
20
0
30
0
70
128
71
252
72
394
73
395
0
VERTEX
8
OBJECT__5
10
0
20
0
30
0
70
128
71
252
72
253
73
396
0
VERTEX
8
OBJECT__5
10
0
20
0
30
0
70
128
71
396
72
394
73
252
0
VERTEX
8
OBJECT__5
10
0
20
0
30
0
70
128
71
254
72
397
73
398
0
VERTEX
8
OBJECT__5
10
0
20
0
30
0
70
128
71
254
72
252
73
399
0
VERTEX
8
OBJECT__5
10
0
20
0
30
0
70
128
71
399
72
397
73
254
0
VERTEX
8
OBJECT__5
10
0
20
0
30
0
70
128
71
255
72
254
73
400
0
VERTEX
8
OBJECT__5
10
0
20
0
30
0
70
128
71
400
72
401
73
255
0
VERTEX
8
OBJECT__5
10
0
20
0
30
0
70
128
71
255
72
402
73
403
0
VERTEX
8
OBJECT__5
10
0
20
0
30
0
70
128
71
255
72
404
73
402
0
VERTEX
8
OBJECT__5
10
0
20
0
30
0
70
128
71
279
72
405
73
406
0
VERTEX
8
OBJECT__5
10
0
20
0
30
0
70
128
71
279
72
403
73
407
0
VERTEX
8
OBJECT__5
10
0
20
0
30
0
70
128
71
407
72
405
73
279
0
VERTEX
8
OBJECT__5
10
0
20
0
30
0
70
128
71
284
72
408
73
409
0
VERTEX
8
OBJECT__5
10
0
20
0
30
0
70
128
71
284
72
406
73
408
0
VERTEX
8
OBJECT__5
10
0
20
0
30
0
70
128
71
410
72
281
73
285
0
VERTEX
8
OBJECT__5
10
0
20
0
30
0
70
128
71
285
72
409
73
411
0
VERTEX
8
OBJECT__5
10
0
20
0
30
0
70
128
71
281
72
412
73
413
0
VERTEX
8
OBJECT__5
10
0
20
0
30
0
70
128
71
281
72
414
73
412
0
VERTEX
8
OBJECT__5
10
0
20
0
30
0
70
128
71
281
72
410
73
414
0
VERTEX
8
OBJECT__5
10
0
20
0
30
0
70
128
71
282
72
415
73
416
0
VERTEX
8
OBJECT__5
10
0
20
0
30
0
70
128
71
282
72
417
73
415
0
VERTEX
8
OBJECT__5
10
0
20
0
30
0
70
128
71
282
72
413
73
417
0
VERTEX
8
OBJECT__5
10
0
20
0
30
0
70
128
71
418
72
289
73
288
0
VERTEX
8
OBJECT__5
10
0
20
0
30
0
70
128
71
288
72
416
73
419
0
VERTEX
8
OBJECT__5
10
0
20
0
30
0
70
128
71
420
72
421
73
292
0
VERTEX
8
OBJECT__5
10
0
20
0
30
0
70
128
71
289
72
418
73
420
0
VERTEX
8
OBJECT__5
10
0
20
0
30
0
70
128
71
421
72
297
73
292
0
VERTEX
8
OBJECT__5
10
0
20
0
30
0
70
128
71
422
72
293
73
297
0
VERTEX
8
OBJECT__5
10
0
20
0
30
0
70
128
71
293
72
423
73
424
0
VERTEX
8
OBJECT__5
10
0
20
0
30
0
70
128
71
293
72
422
73
423
0
VERTEX
8
OBJECT__5
10
0
20
0
30
0
70
128
71
314
72
425
73
426
0
VERTEX
8
OBJECT__5
10
0
20
0
30
0
70
128
71
314
72
427
73
425
0
VERTEX
8
OBJECT__5
10
0
20
0
30
0
70
128
71
427
72
314
73
312
0
VERTEX
8
OBJECT__5
10
0
20
0
30
0
70
128
71
312
72
428
73
427
0
VERTEX
8
OBJECT__5
10
0
20
0
30
0
70
128
71
312
72
310
73
429
0
VERTEX
8
OBJECT__5
10
0
20
0
30
0
70
128
71
429
72
428
73
312
0
VERTEX
8
OBJECT__5
10
0
20
0
30
0
70
128
71
310
72
424
73
430
0
VERTEX
8
OBJECT__5
10
0
20
0
30
0
70
128
71
430
72
429
73
310
0
VERTEX
8
OBJECT__5
10
0
20
0
30
0
70
128
71
426
72
332
73
314
0
VERTEX
8
OBJECT__5
10
0
20
0
30
0
70
128
71
424
72
310
73
293
0
VERTEX
8
OBJECT__5
10
0
20
0
30
0
70
128
71
297
72
421
73
422
0
VERTEX
8
OBJECT__5
10
0
20
0
30
0
70
128
71
292
72
289
73
420
0
VERTEX
8
OBJECT__5
10
0
20
0
30
0
70
128
71
288
72
419
73
418
0
VERTEX
8
OBJECT__5
10
0
20
0
30
0
70
128
71
416
72
288
73
282
0
VERTEX
8
OBJECT__5
10
0
20
0
30
0
70
128
71
413
72
282
73
281
0
VERTEX
8
OBJECT__5
10
0
20
0
30
0
70
128
71
285
72
411
73
410
0
VERTEX
8
OBJECT__5
10
0
20
0
30
0
70
128
71
409
72
285
73
284
0
VERTEX
8
OBJECT__5
10
0
20
0
30
0
70
128
71
406
72
284
73
279
0
VERTEX
8
OBJECT__5
10
0
20
0
30
0
70
128
71
403
72
279
73
255
0
VERTEX
8
OBJECT__5
10
0
20
0
30
0
70
128
71
401
72
404
73
255
0
VERTEX
8
OBJECT__5
10
0
20
0
30
0
70
128
71
398
72
400
73
254
0
VERTEX
8
OBJECT__5
10
0
20
0
30
0
70
128
71
395
72
399
73
252
0
VERTEX
8
OBJECT__5
10
0
20
0
30
0
70
128
71
392
72
396
73
253
0
VERTEX
8
OBJECT__5
10
0
20
0
30
0
70
128
71
390
72
393
73
246
0
VERTEX
8
OBJECT__5
10
0
20
0
30
0
70
128
71
388
72
389
73
249
0
VERTEX
8
OBJECT__5
10
0
20
0
30
0
70
128
71
385
72
386
73
248
0
VERTEX
8
OBJECT__5
10
0
20
0
30
0
70
128
71
243
72
237
73
382
0
VERTEX
8
OBJECT__5
10
0
20
0
30
0
70
128
71
237
72
233
73
381
0
VERTEX
8
OBJECT__5
10
0
20
0
30
0
70
128
71
380
72
381
73
233
0
VERTEX
8
OBJECT__5
10
0
20
0
30
0
70
128
71
372
72
379
73
232
0
VERTEX
8
OBJECT__5
10
0
20
0
30
0
70
128
71
369
72
378
73
216
0
VERTEX
8
OBJECT__5
10
0
20
0
30
0
70
128
71
367
72
370
73
228
0
VERTEX
8
OBJECT__5
10
0
20
0
30
0
70
128
71
364
72
365
73
227
0
VERTEX
8
OBJECT__5
10
0
20
0
30
0
70
128
71
362
72
363
73
220
0
VERTEX
8
OBJECT__5
10
0
20
0
30
0
70
128
71
360
72
361
73
219
0
VERTEX
8
OBJECT__5
10
0
20
0
30
0
70
128
71
357
72
358
73
223
0
VERTEX
8
OBJECT__5
10
0
20
0
30
0
70
128
71
355
72
356
73
222
0
VERTEX
8
OBJECT__5
10
0
20
0
30
0
70
128
71
353
72
354
73
215
0
VERTEX
8
OBJECT__5
10
0
20
0
30
0
70
128
71
214
72
211
73
328
0
VERTEX
8
OBJECT__5
10
0
20
0
30
0
70
128
71
348
72
351
73
328
0
VERTEX
8
OBJECT__5
10
0
20
0
30
0
70
128
71
346
72
331
73
322
0
VERTEX
8
OBJECT__5
10
0
20
0
30
0
70
128
71
344
72
322
73
327
0
VERTEX
8
OBJECT__5
10
0
20
0
30
0
70
128
71
342
72
327
73
325
0
VERTEX
8
OBJECT__5
10
0
20
0
30
0
70
128
71
339
72
325
73
318
0
VERTEX
8
OBJECT__5
10
0
20
0
30
0
70
128
71
337
72
318
73
317
0
VERTEX
8
OBJECT__5
10
0
20
0
30
0
70
128
71
334
72
335
73
314
0
VERTEX
8
OBJECT__5
10
0
20
0
30
0
70
128
71
329
72
258
73
4
0
VERTEX
8
OBJECT__5
10
0
20
0
30
0
70
128
71
326
72
324
73
54
0
VERTEX
8
OBJECT__5
10
0
20
0
30
0
70
128
71
323
72
330
73
51
0
VERTEX
8
OBJECT__5
10
0
20
0
30
0
70
128
71
329
72
328
73
211
0
VERTEX
8
OBJECT__5
10
0
20
0
30
0
70
128
71
323
72
322
73
331
0
VERTEX
8
OBJECT__5
10
0
20
0
30
0
70
128
71
330
72
331
73
328
0
VERTEX
8
OBJECT__5
10
0
20
0
30
0
70
128
71
326
72
325
73
327
0
VERTEX
8
OBJECT__5
10
0
20
0
30
0
70
128
71
321
72
318
73
325
0
VERTEX
8
OBJECT__5
10
0
20
0
30
0
70
128
71
324
72
327
73
322
0
VERTEX
8
OBJECT__5
10
0
20
0
30
0
70
128
71
50
72
316
73
321
0
VERTEX
8
OBJECT__5
10
0
20
0
30
0
70
128
71
46
72
319
73
316
0
VERTEX
8
OBJECT__5
10
0
20
0
30
0
70
128
71
10
72
309
73
320
0
VERTEX
8
OBJECT__5
10
0
20
0
30
0
70
128
71
49
72
320
73
319
0
VERTEX
8
OBJECT__5
10
0
20
0
30
0
70
128
71
319
72
313
73
315
0
VERTEX
8
OBJECT__5
10
0
20
0
30
0
70
128
71
309
72
308
73
311
0
VERTEX
8
OBJECT__5
10
0
20
0
30
0
70
128
71
320
72
311
73
313
0
VERTEX
8
OBJECT__5
10
0
20
0
30
0
70
128
71
29
72
306
73
309
0
VERTEX
8
OBJECT__5
10
0
20
0
30
0
70
128
71
318
72
321
73
316
0
VERTEX
8
OBJECT__5
10
0
20
0
30
0
70
128
71
313
72
312
73
314
0
VERTEX
8
OBJECT__5
10
0
20
0
30
0
70
128
71
311
72
310
73
312
0
VERTEX
8
OBJECT__5
10
0
20
0
30
0
70
128
71
294
72
293
73
310
0
VERTEX
8
OBJECT__5
10
0
20
0
30
0
70
128
71
306
72
294
73
308
0
VERTEX
8
OBJECT__5
10
0
20
0
30
0
70
128
71
19
72
305
73
307
0
VERTEX
8
OBJECT__5
10
0
20
0
30
0
70
128
71
31
72
307
73
306
0
VERTEX
8
OBJECT__5
10
0
20
0
30
0
70
128
71
305
72
296
73
295
0
VERTEX
8
OBJECT__5
10
0
20
0
30
0
70
128
71
307
72
295
73
294
0
VERTEX
8
OBJECT__5
10
0
20
0
30
0
70
128
71
25
72
298
73
305
0
VERTEX
8
OBJECT__5
10
0
20
0
30
0
70
128
71
303
72
22
73
21
0
VERTEX
8
OBJECT__5
10
0
20
0
30
0
70
128
71
298
72
25
73
22
0
VERTEX
8
OBJECT__5
10
0
20
0
30
0
70
128
71
301
72
23
73
24
0
VERTEX
8
OBJECT__5
10
0
20
0
30
0
70
128
71
302
72
24
73
1
0
VERTEX
8
OBJECT__5
10
0
20
0
30
0
70
128
71
304
72
21
73
23
0
VERTEX
8
OBJECT__5
10
0
20
0
30
0
70
128
71
287
72
303
73
304
0
VERTEX
8
OBJECT__5
10
0
20
0
30
0
70
128
71
291
72
298
73
303
0
VERTEX
8
OBJECT__5
10
0
20
0
30
0
70
128
71
280
72
301
73
302
0
VERTEX
8
OBJECT__5
10
0
20
0
30
0
70
128
71
283
72
300
73
299
0
VERTEX
8
OBJECT__5
10
0
20
0
30
0
70
128
71
286
72
302
73
300
0
VERTEX
8
OBJECT__5
10
0
20
0
30
0
70
128
71
290
72
304
73
301
0
VERTEX
8
OBJECT__5
10
0
20
0
30
0
70
128
71
300
72
1
73
183
0
VERTEX
8
OBJECT__5
10
0
20
0
30
0
70
128
71
296
72
305
73
298
0
VERTEX
8
OBJECT__5
10
0
20
0
30
0
70
128
71
297
72
295
73
296
0
VERTEX
8
OBJECT__5
10
0
20
0
30
0
70
128
71
295
72
297
73
293
0
VERTEX
8
OBJECT__5
10
0
20
0
30
0
70
128
71
292
72
296
73
291
0
VERTEX
8
OBJECT__5
10
0
20
0
30
0
70
128
71
288
72
287
73
290
0
VERTEX
8
OBJECT__5
10
0
20
0
30
0
70
128
71
289
72
291
73
287
0
VERTEX
8
OBJECT__5
10
0
20
0
30
0
70
128
71
281
72
280
73
286
0
VERTEX
8
OBJECT__5
10
0
20
0
30
0
70
128
71
284
72
283
73
278
0
VERTEX
8
OBJECT__5
10
0
20
0
30
0
70
128
71
285
72
286
73
283
0
VERTEX
8
OBJECT__5
10
0
20
0
30
0
70
128
71
282
72
290
73
280
0
VERTEX
8
OBJECT__5
10
0
20
0
30
0
70
128
71
256
72
255
73
279
0
VERTEX
8
OBJECT__5
10
0
20
0
30
0
70
128
71
278
72
299
73
277
0
VERTEX
8
OBJECT__5
10
0
20
0
30
0
70
128
71
272
72
276
73
182
0
VERTEX
8
OBJECT__5
10
0
20
0
30
0
70
128
71
275
72
277
73
183
0
VERTEX
8
OBJECT__5
10
0
20
0
30
0
70
128
71
274
72
273
73
176
0
VERTEX
8
OBJECT__5
10
0
20
0
30
0
70
128
71
269
72
274
73
179
0
VERTEX
8
OBJECT__5
10
0
20
0
30
0
70
128
71
273
72
272
73
177
0
VERTEX
8
OBJECT__5
10
0
20
0
30
0
70
128
71
164
72
167
73
271
0
VERTEX
8
OBJECT__5
10
0
20
0
30
0
70
128
71
167
72
115
73
257
0
VERTEX
8
OBJECT__5
10
0
20
0
30
0
70
128
71
270
72
269
73
165
0
VERTEX
8
OBJECT__5
10
0
20
0
30
0
70
128
71
250
72
256
73
277
0
VERTEX
8
OBJECT__5
10
0
20
0
30
0
70
128
71
244
72
251
73
276
0
VERTEX
8
OBJECT__5
10
0
20
0
30
0
70
128
71
251
72
250
73
275
0
VERTEX
8
OBJECT__5
10
0
20
0
30
0
70
128
71
247
72
245
73
273
0
VERTEX
8
OBJECT__5
10
0
20
0
30
0
70
128
71
239
72
247
73
274
0
VERTEX
8
OBJECT__5
10
0
20
0
30
0
70
128
71
245
72
244
73
272
0
VERTEX
8
OBJECT__5
10
0
20
0
30
0
70
128
71
242
72
240
73
270
0
VERTEX
8
OBJECT__5
10
0
20
0
30
0
70
128
71
271
72
257
73
238
0
VERTEX
8
OBJECT__5
10
0
20
0
30
0
70
128
71
240
72
239
73
269
0
VERTEX
8
OBJECT__5
10
0
20
0
30
0
70
128
71
115
72
114
73
268
0
VERTEX
8
OBJECT__5
10
0
20
0
30
0
70
128
71
114
72
133
73
266
0
VERTEX
8
OBJECT__5
10
0
20
0
30
0
70
128
71
132
72
121
73
259
0
VERTEX
8
OBJECT__5
10
0
20
0
30
0
70
128
71
133
72
132
73
267
0
VERTEX
8
OBJECT__5
10
0
20
0
30
0
70
128
71
120
72
124
73
265
0
VERTEX
8
OBJECT__5
10
0
20
0
30
0
70
128
71
261
72
263
73
123
0
VERTEX
8
OBJECT__5
10
0
20
0
30
0
70
128
71
260
72
265
73
124
0
VERTEX
8
OBJECT__5
10
0
20
0
30
0
70
128
71
121
72
120
73
264
0
VERTEX
8
OBJECT__5
10
0
20
0
30
0
70
128
71
268
72
266
73
235
0
VERTEX
8
OBJECT__5
10
0
20
0
30
0
70
128
71
267
72
259
73
218
0
VERTEX
8
OBJECT__5
10
0
20
0
30
0
70
128
71
266
72
267
73
236
0
VERTEX
8
OBJECT__5
10
0
20
0
30
0
70
128
71
265
72
260
73
221
0
VERTEX
8
OBJECT__5
10
0
20
0
30
0
70
128
71
229
72
231
73
264
0
VERTEX
8
OBJECT__5
10
0
20
0
30
0
70
128
71
263
72
261
73
224
0
VERTEX
8
OBJECT__5
10
0
20
0
30
0
70
128
71
262
72
213
73
212
0
VERTEX
8
OBJECT__5
10
0
20
0
30
0
70
128
71
261
72
262
73
225
0
VERTEX
8
OBJECT__5
10
0
20
0
30
0
70
128
71
260
72
263
73
226
0
VERTEX
8
OBJECT__5
10
0
20
0
30
0
70
128
71
259
72
264
73
231
0
VERTEX
8
OBJECT__5
10
0
20
0
30
0
70
128
71
213
72
262
73
5
0
VERTEX
8
OBJECT__5
10
0
20
0
30
0
70
128
71
257
72
268
73
234
0
VERTEX
8
OBJECT__5
10
0
20
0
30
0
70
128
71
256
72
250
73
254
0
VERTEX
8
OBJECT__5
10
0
20
0
30
0
70
128
71
253
72
252
73
251
0
VERTEX
8
OBJECT__5
10
0
20
0
30
0
70
128
71
252
72
254
73
250
0
VERTEX
8
OBJECT__5
10
0
20
0
30
0
70
128
71
249
72
246
73
245
0
VERTEX
8
OBJECT__5
10
0
20
0
30
0
70
128
71
248
72
249
73
247
0
VERTEX
8
OBJECT__5
10
0
20
0
30
0
70
128
71
246
72
253
73
244
0
VERTEX
8
OBJECT__5
10
0
20
0
30
0
70
128
71
243
72
241
73
240
0
VERTEX
8
OBJECT__5
10
0
20
0
30
0
70
128
71
237
72
243
73
242
0
VERTEX
8
OBJECT__5
10
0
20
0
30
0
70
128
71
241
72
248
73
239
0
VERTEX
8
OBJECT__5
10
0
20
0
30
0
70
128
71
238
72
234
73
233
0
VERTEX
8
OBJECT__5
10
0
20
0
30
0
70
128
71
236
72
218
73
217
0
VERTEX
8
OBJECT__5
10
0
20
0
30
0
70
128
71
235
72
236
73
232
0
VERTEX
8
OBJECT__5
10
0
20
0
30
0
70
128
71
228
72
216
73
231
0
VERTEX
8
OBJECT__5
10
0
20
0
30
0
70
128
71
230
72
221
73
220
0
VERTEX
8
OBJECT__5
10
0
20
0
30
0
70
128
71
229
72
230
73
227
0
VERTEX
8
OBJECT__5
10
0
20
0
30
0
70
128
71
226
72
224
73
223
0
VERTEX
8
OBJECT__5
10
0
20
0
30
0
70
128
71
225
72
212
73
215
0
VERTEX
8
OBJECT__5
10
0
20
0
30
0
70
128
71
224
72
225
73
222
0
VERTEX
8
OBJECT__5
10
0
20
0
30
0
70
128
71
221
72
226
73
219
0
VERTEX
8
OBJECT__5
10
0
20
0
30
0
70
128
71
218
72
231
73
216
0
VERTEX
8
OBJECT__5
10
0
20
0
30
0
70
128
71
212
72
211
73
214
0
VERTEX
8
OBJECT__5
10
0
20
0
30
0
70
128
71
213
72
258
73
211
0
VERTEX
8
OBJECT__5
10
0
20
0
30
0
70
128
71
203
72
7
73
65
0
VERTEX
8
OBJECT__5
10
0
20
0
30
0
70
128
71
210
72
201
73
190
0
VERTEX
8
OBJECT__5
10
0
20
0
30
0
70
128
71
208
72
209
73
204
0
VERTEX
8
OBJECT__5
10
0
20
0
30
0
70
128
71
188
72
8
73
7
0
VERTEX
8
OBJECT__5
10
0
20
0
30
0
70
128
71
204
72
190
73
186
0
VERTEX
8
OBJECT__5
10
0
20
0
30
0
70
128
71
203
72
204
73
187
0
VERTEX
8
OBJECT__5
10
0
20
0
30
0
70
128
71
202
72
200
73
194
0
VERTEX
8
OBJECT__5
10
0
20
0
30
0
70
128
71
198
72
195
73
193
0
VERTEX
8
OBJECT__5
10
0
20
0
30
0
70
128
71
196
72
191
73
163
0
VERTEX
8
OBJECT__5
10
0
20
0
30
0
70
128
71
194
72
193
73
170
0
VERTEX
8
OBJECT__5
10
0
20
0
30
0
70
128
71
193
72
163
73
162
0
VERTEX
8
OBJECT__5
10
0
20
0
30
0
70
128
71
192
72
161
73
154
0
VERTEX
8
OBJECT__5
10
0
20
0
30
0
70
128
71
190
72
194
73
189
0
VERTEX
8
OBJECT__5
10
0
20
0
30
0
70
128
71
188
72
184
73
35
0
VERTEX
8
OBJECT__5
10
0
20
0
30
0
70
128
71
184
72
181
73
13
0
VERTEX
8
OBJECT__5
10
0
20
0
30
0
70
128
71
188
72
187
73
185
0
VERTEX
8
OBJECT__5
10
0
20
0
30
0
70
128
71
187
72
186
73
174
0
VERTEX
8
OBJECT__5
10
0
20
0
30
0
70
128
71
185
72
174
73
173
0
VERTEX
8
OBJECT__5
10
0
20
0
30
0
70
128
71
186
72
189
73
171
0
VERTEX
8
OBJECT__5
10
0
20
0
30
0
70
128
71
180
72
181
73
184
0
VERTEX
8
OBJECT__5
10
0
20
0
30
0
70
128
71
181
72
178
73
3
0
VERTEX
8
OBJECT__5
10
0
20
0
30
0
70
128
71
3
72
178
73
182
0
VERTEX
8
OBJECT__5
10
0
20
0
30
0
70
128
71
175
72
178
73
181
0
VERTEX
8
OBJECT__5
10
0
20
0
30
0
70
128
71
180
72
173
73
166
0
VERTEX
8
OBJECT__5
10
0
20
0
30
0
70
128
71
179
72
176
73
175
0
VERTEX
8
OBJECT__5
10
0
20
0
30
0
70
128
71
173
72
172
73
169
0
VERTEX
8
OBJECT__5
10
0
20
0
30
0
70
128
71
177
72
182
73
178
0
VERTEX
8
OBJECT__5
10
0
20
0
30
0
70
128
71
174
72
171
73
172
0
VERTEX
8
OBJECT__5
10
0
20
0
30
0
70
128
71
171
72
189
73
170
0
VERTEX
8
OBJECT__5
10
0
20
0
30
0
70
128
71
170
72
162
73
116
0
VERTEX
8
OBJECT__5
10
0
20
0
30
0
70
128
71
169
72
172
73
168
0
VERTEX
8
OBJECT__5
10
0
20
0
30
0
70
128
71
168
72
116
73
115
0
VERTEX
8
OBJECT__5
10
0
20
0
30
0
70
128
71
162
72
139
73
136
0
VERTEX
8
OBJECT__5
10
0
20
0
30
0
70
128
71
166
72
169
73
164
0
VERTEX
8
OBJECT__5
10
0
20
0
30
0
70
128
71
163
72
154
73
139
0
VERTEX
8
OBJECT__5
10
0
20
0
30
0
70
128
71
160
72
155
73
152
0
VERTEX
8
OBJECT__5
10
0
20
0
30
0
70
128
71
158
72
149
73
140
0
VERTEX
8
OBJECT__5
10
0
20
0
30
0
70
128
71
156
72
157
73
153
0
VERTEX
8
OBJECT__5
10
0
20
0
30
0
70
128
71
154
72
152
73
137
0
VERTEX
8
OBJECT__5
10
0
20
0
30
0
70
128
71
153
72
140
73
131
0
VERTEX
8
OBJECT__5
10
0
20
0
30
0
70
128
71
152
72
153
73
138
0
VERTEX
8
OBJECT__5
10
0
20
0
30
0
70
128
71
151
72
148
73
147
0
VERTEX
8
OBJECT__5
10
0
20
0
30
0
70
128
71
146
72
143
73
128
0
VERTEX
8
OBJECT__5
10
0
20
0
30
0
70
128
71
145
72
118
73
117
0
VERTEX
8
OBJECT__5
10
0
20
0
30
0
70
128
71
142
72
144
73
129
0
VERTEX
8
OBJECT__5
10
0
20
0
30
0
70
128
71
140
72
147
73
130
0
VERTEX
8
OBJECT__5
10
0
20
0
30
0
70
128
71
139
72
137
73
134
0
VERTEX
8
OBJECT__5
10
0
20
0
30
0
70
128
71
138
72
131
73
122
0
VERTEX
8
OBJECT__5
10
0
20
0
30
0
70
128
71
137
72
138
73
135
0
VERTEX
8
OBJECT__5
10
0
20
0
30
0
70
128
71
136
72
134
73
133
0
VERTEX
8
OBJECT__5
10
0
20
0
30
0
70
128
71
135
72
122
73
121
0
VERTEX
8
OBJECT__5
10
0
20
0
30
0
70
128
71
134
72
135
73
132
0
VERTEX
8
OBJECT__5
10
0
20
0
30
0
70
128
71
131
72
130
73
127
0
VERTEX
8
OBJECT__5
10
0
20
0
30
0
70
128
71
130
72
128
73
125
0
VERTEX
8
OBJECT__5
10
0
20
0
30
0
70
128
71
129
72
117
73
6
0
VERTEX
8
OBJECT__5
10
0
20
0
30
0
70
128
71
128
72
129
73
126
0
VERTEX
8
OBJECT__5
10
0
20
0
30
0
70
128
71
127
72
125
73
124
0
VERTEX
8
OBJECT__5
10
0
20
0
30
0
70
128
71
126
72
6
73
5
0
VERTEX
8
OBJECT__5
10
0
20
0
30
0
70
128
71
125
72
126
73
123
0
VERTEX
8
OBJECT__5
10
0
20
0
30
0
70
128
71
117
72
62
73
55
0
VERTEX
8
OBJECT__5
10
0
20
0
30
0
70
128
71
122
72
127
73
120
0
VERTEX
8
OBJECT__5
10
0
20
0
30
0
70
128
71
98
72
62
73
117
0
VERTEX
8
OBJECT__5
10
0
20
0
30
0
70
128
71
116
72
136
73
114
0
VERTEX
8
OBJECT__5
10
0
20
0
30
0
70
128
71
109
72
96
73
98
0
VERTEX
8
OBJECT__5
10
0
20
0
30
0
70
128
71
101
72
92
73
97
0
VERTEX
8
OBJECT__5
10
0
20
0
30
0
70
128
71
108
72
97
73
96
0
VERTEX
8
OBJECT__5
10
0
20
0
30
0
70
128
71
104
72
94
73
93
0
VERTEX
8
OBJECT__5
10
0
20
0
30
0
70
128
71
90
72
63
73
95
0
VERTEX
8
OBJECT__5
10
0
20
0
30
0
70
128
71
103
72
95
73
94
0
VERTEX
8
OBJECT__5
10
0
20
0
30
0
70
128
71
100
72
93
73
92
0
VERTEX
8
OBJECT__5
10
0
20
0
30
0
70
128
71
96
72
60
73
62
0
VERTEX
8
OBJECT__5
10
0
20
0
30
0
70
128
71
92
72
56
73
61
0
VERTEX
8
OBJECT__5
10
0
20
0
30
0
70
128
71
97
72
61
73
60
0
VERTEX
8
OBJECT__5
10
0
20
0
30
0
70
128
71
94
72
58
73
57
0
VERTEX
8
OBJECT__5
10
0
20
0
30
0
70
128
71
63
72
42
73
59
0
VERTEX
8
OBJECT__5
10
0
20
0
30
0
70
128
71
95
72
59
73
58
0
VERTEX
8
OBJECT__5
10
0
20
0
30
0
70
128
71
93
72
57
73
56
0
VERTEX
8
OBJECT__5
10
0
20
0
30
0
70
128
71
87
72
64
73
63
0
VERTEX
8
OBJECT__5
10
0
20
0
30
0
70
128
71
74
72
67
73
71
0
VERTEX
8
OBJECT__5
10
0
20
0
30
0
70
128
71
86
72
71
73
64
0
VERTEX
8
OBJECT__5
10
0
20
0
30
0
70
128
71
78
72
69
73
68
0
VERTEX
8
OBJECT__5
10
0
20
0
30
0
70
128
71
81
72
431
73
66
0
VERTEX
8
OBJECT__5
10
0
20
0
30
0
70
128
71
77
72
70
73
69
0
VERTEX
8
OBJECT__5
10
0
20
0
30
0
70
128
71
73
72
68
73
67
0
VERTEX
8
OBJECT__5
10
0
20
0
30
0
70
128
71
67
72
32
73
41
0
VERTEX
8
OBJECT__5
10
0
20
0
30
0
70
128
71
71
72
41
73
40
0
VERTEX
8
OBJECT__5
10
0
20
0
30
0
70
128
71
69
72
38
73
33
0
VERTEX
8
OBJECT__5
10
0
20
0
30
0
70
128
71
66
72
9
73
39
0
VERTEX
8
OBJECT__5
10
0
20
0
30
0
70
128
71
70
72
39
73
38
0
VERTEX
8
OBJECT__5
10
0
20
0
30
0
70
128
71
68
72
33
73
32
0
VERTEX
8
OBJECT__5
10
0
20
0
30
0
70
128
71
66
72
431
73
65
0
VERTEX
8
OBJECT__5
10
0
20
0
30
0
70
128
71
64
72
40
73
42
0
VERTEX
8
OBJECT__5
10
0
20
0
30
0
70
128
71
60
72
52
73
55
0
VERTEX
8
OBJECT__5
10
0
20
0
30
0
70
128
71
56
72
44
73
53
0
VERTEX
8
OBJECT__5
10
0
20
0
30
0
70
128
71
61
72
53
73
52
0
VERTEX
8
OBJECT__5
10
0
20
0
30
0
70
128
71
58
72
47
73
45
0
VERTEX
8
OBJECT__5
10
0
20
0
30
0
70
128
71
42
72
11
73
48
0
VERTEX
8
OBJECT__5
10
0
20
0
30
0
70
128
71
59
72
48
73
47
0
VERTEX
8
OBJECT__5
10
0
20
0
30
0
70
128
71
57
72
45
73
44
0
VERTEX
8
OBJECT__5
10
0
20
0
30
0
70
128
71
52
72
51
73
4
0
VERTEX
8
OBJECT__5
10
0
20
0
30
0
70
128
71
44
72
43
73
54
0
VERTEX
8
OBJECT__5
10
0
20
0
30
0
70
128
71
53
72
54
73
51
0
VERTEX
8
OBJECT__5
10
0
20
0
30
0
70
128
71
47
72
46
73
50
0
VERTEX
8
OBJECT__5
10
0
20
0
30
0
70
128
71
11
72
10
73
49
0
VERTEX
8
OBJECT__5
10
0
20
0
30
0
70
128
71
48
72
49
73
46
0
VERTEX
8
OBJECT__5
10
0
20
0
30
0
70
128
71
45
72
50
73
43
0
VERTEX
8
OBJECT__5
10
0
20
0
30
0
70
128
71
40
72
12
73
11
0
VERTEX
8
OBJECT__5
10
0
20
0
30
0
70
128
71
32
72
16
73
30
0
VERTEX
8
OBJECT__5
10
0
20
0
30
0
70
128
71
41
72
30
73
12
0
VERTEX
8
OBJECT__5
10
0
20
0
30
0
70
128
71
38
72
36
73
34
0
VERTEX
8
OBJECT__5
10
0
20
0
30
0
70
128
71
9
72
15
73
37
0
VERTEX
8
OBJECT__5
10
0
20
0
30
0
70
128
71
39
72
37
73
36
0
VERTEX
8
OBJECT__5
10
0
20
0
30
0
70
128
71
36
72
27
73
17
0
VERTEX
8
OBJECT__5
10
0
20
0
30
0
70
128
71
28
72
37
73
15
0
VERTEX
8
OBJECT__5
10
0
20
0
30
0
70
128
71
37
72
28
73
27
0
VERTEX
8
OBJECT__5
10
0
20
0
30
0
70
128
71
9
72
8
73
35
0
VERTEX
8
OBJECT__5
10
0
20
0
30
0
70
128
71
34
72
17
73
16
0
VERTEX
8
OBJECT__5
10
0
20
0
30
0
70
128
71
16
72
19
73
31
0
VERTEX
8
OBJECT__5
10
0
20
0
30
0
70
128
71
30
72
31
73
29
0
VERTEX
8
OBJECT__5
10
0
20
0
30
0
70
128
71
27
72
26
73
18
0
VERTEX
8
OBJECT__5
10
0
20
0
30
0
70
128
71
20
72
28
73
14
0
VERTEX
8
OBJECT__5
10
0
20
0
30
0
70
128
71
28
72
20
73
26
0
VERTEX
8
OBJECT__5
10
0
20
0
30
0
70
128
71
26
72
22
73
25
0
VERTEX
8
OBJECT__5
10
0
20
0
30
0
70
128
71
24
72
23
73
20
0
VERTEX
8
OBJECT__5
10
0
20
0
30
0
70
128
71
22
72
26
73
20
0
VERTEX
8
OBJECT__5
10
0
20
0
30
0
70
128
71
14
72
13
73
3
0
VERTEX
8
OBJECT__5
10
0
20
0
30
0
70
128
71
18
72
25
73
19
0
VERTEX
8
OBJECT__5
10
0
20
0
30
0
70
128
71
15
72
35
73
13
0
VERTEX
8
OBJECT__5
10
0
20
0
30
0
70
128
71
12
72
29
73
10
0
VERTEX
8
OBJECT__5
10
0
20
0
30
0
70
128
71
9
72
66
73
7
0
VERTEX
8
OBJECT__5
10
0
20
0
30
0
70
128
71
6
72
55
73
4
0
VERTEX
8
OBJECT__5
10
0
20
0
30
0
70
128
71
3
72
183
73
1
0
SEQEND
8
OBJECT__5
0
POLYLINE
8
OBJECT__7
66
1
70
64
71
76
72
74
62
253
0
VERTEX
8
OBJECT__7
10
61.916000
20
-16.444000
30
105.472000
70
192
0
VERTEX
8
OBJECT__7
10
61.002998
20
-17.108000
30
104.025002
70
192
0
VERTEX
8
OBJECT__7
10
62.988998
20
-17.052000
30
102.391998
70
192
0
VERTEX
8
OBJECT__7
10
65.427002
20
-15.986000
30
103.445999
70
192
0
VERTEX
8
OBJECT__7
10
60.071999
20
-16.684999
30
106.537003
70
192
0
VERTEX
8
OBJECT__7
10
60.006001
20
-17.110001
30
104.594002
70
192
0
VERTEX
8
OBJECT__7
10
60.326000
20
-17.118999
30
104.408997
70
192
0
VERTEX
8
OBJECT__7
10
59.201000
20
-17.087999
30
105.061996
70
192
0
VERTEX
8
OBJECT__7
10
60.049000
20
-16.677999
30
106.551003
70
192
0
VERTEX
8
OBJECT__7
10
57.005001
20
-15.737000
30
108.307999
70
192
0
VERTEX
8
OBJECT__7
10
56.749001
20
-16.597000
30
106.485001
70
192
0
VERTEX
8
OBJECT__7
10
56.009998
20
-16.448000
30
106.914001
70
192
0
VERTEX
8
OBJECT__7
10
54.356998
20
-15.771000
30
107.874001
70
192
0
VERTEX
8
OBJECT__7
10
52.784000
20
-13.302000
30
110.745003
70
192
0
VERTEX
8
OBJECT__7
10
51.555000
20
-13.962000
30
109.502998
70
192
0
VERTEX
8
OBJECT__7
10
53.666000
20
-15.324000
30
108.276001
70
192
0
VERTEX
8
OBJECT__7
10
55.362999
20
-15.230000
30
109.255997
70
192
0
VERTEX
8
OBJECT__7
10
54.866001
20
-15.076000
30
109.542999
70
192
0
VERTEX
8
OBJECT__7
10
51.394001
20
-12.119000
30
111.546997
70
192
0
VERTEX
8
OBJECT__7
10
50.167999
20
-12.669000
30
110.308998
70
192
0
VERTEX
8
OBJECT__7
10
50.868999
20
-13.322000
30
109.902000
70
192
0
VERTEX
8
OBJECT__7
10
48.577999
20
-10.589000
30
111.234001
70
192
0
VERTEX
8
OBJECT__7
10
50.529999
20
-11.382000
30
112.046997
70
192
0
VERTEX
8
OBJECT__7
10
49.459000
20
-9.415000
30
112.665001
70
192
0
VERTEX
8
OBJECT__7
10
48.042999
20
-9.889000
30
111.544998
70
192
0
VERTEX
8
OBJECT__7
10
47.103001
20
-8.135000
30
112.093002
70
192
0
VERTEX
8
OBJECT__7
10
45.896000
20
-4.700000
30
112.794998
70
192
0
VERTEX
8
OBJECT__7
10
46.835999
20
-7.375000
30
112.248001
70
192
0
VERTEX
8
OBJECT__7
10
47.661999
20
-6.114000
30
113.702003
70
192
0
VERTEX
8
OBJECT__7
10
48.540001
20
-7.726000
30
113.195000
70
192
0
VERTEX
8
OBJECT__7
10
47.076000
20
-2.540000
30
114.040001
70
192
0
VERTEX
8
OBJECT__7
10
45.511002
20
-2.688000
30
113.018997
70
192
0
VERTEX
8
OBJECT__7
10
45.721001
20
-3.789000
30
112.897003
70
192
0
VERTEX
8
OBJECT__7
10
47.396000
20
-4.493000
30
113.856003
70
192
0
VERTEX
8
OBJECT__7
10
45.354000
20
1.017000
30
113.111000
70
192
0
VERTEX
8
OBJECT__7
10
45.396999
20
0.004000
30
113.085999
70
192
0
VERTEX
8
OBJECT__7
10
46.660000
20
0.000000
30
114.280998
70
192
0
VERTEX
8
OBJECT__7
10
45.566002
20
3.059000
30
112.987999
70
192
0
VERTEX
8
OBJECT__7
10
46.816002
20
0.952000
30
114.191002
70
192
0
VERTEX
8
OBJECT__7
10
47.661999
20
6.114000
30
113.702003
70
192
0
VERTEX
8
OBJECT__7
10
46.476002
20
6.616000
30
112.457001
70
192
0
VERTEX
8
OBJECT__7
10
45.749001
20
3.777000
30
112.880997
70
192
0
VERTEX
8
OBJECT__7
10
47.134998
20
2.898000
30
114.005997
70
192
0
VERTEX
8
OBJECT__7
10
48.708000
20
8.035000
30
113.098000
70
192
0
VERTEX
8
OBJECT__7
10
47.261002
20
8.466000
30
112.000000
70
192
0
VERTEX
8
OBJECT__7
10
46.804001
20
7.388000
30
112.266998
70
192
0
VERTEX
8
OBJECT__7
10
47.796001
20
6.360000
30
113.625000
70
192
0
VERTEX
8
OBJECT__7
10
50.358002
20
11.067000
30
112.146004
70
192
0
VERTEX
8
OBJECT__7
10
48.587002
20
10.590000
30
111.228996
70
192
0
VERTEX
8
OBJECT__7
10
49.139000
20
11.474000
30
110.907997
70
192
0
VERTEX
8
OBJECT__7
10
50.408001
20
12.917000
30
110.169998
70
192
0
VERTEX
8
OBJECT__7
10
50.529999
20
11.382000
30
112.046997
70
192
0
VERTEX
8
OBJECT__7
10
54.151001
20
14.467000
30
109.956001
70
192
0
VERTEX
8
OBJECT__7
10
53.042000
20
15.036000
30
108.639000
70
192
0
VERTEX
8
OBJECT__7
10
50.881001
20
13.298000
30
109.894997
70
192
0
VERTEX
8
OBJECT__7
10
51.644001
20
12.332000
30
111.403000
70
192
0
VERTEX
8
OBJECT__7
10
54.653000
20
15.911000
30
107.702003
70
192
0
VERTEX
8
OBJECT__7
10
53.645000
20
15.364000
30
108.288002
70
192
0
VERTEX
8
OBJECT__7
10
54.866001
20
15.076000
30
109.542999
70
192
0
VERTEX
8
OBJECT__7
10
55.660999
20
15.322000
30
109.084000
70
192
0
VERTEX
8
OBJECT__7
10
58.681000
20
16.254999
30
107.339996
70
192
0
VERTEX
8
OBJECT__7
10
56.757999
20
16.584000
30
106.480003
70
192
0
VERTEX
8
OBJECT__7
10
57.745998
20
16.900000
30
105.905998
70
192
0
VERTEX
8
OBJECT__7
10
60.071999
20
16.684999
30
106.537003
70
192
0
VERTEX
8
OBJECT__7
10
59.521000
20
17.107000
30
104.875999
70
192
0
VERTEX
8
OBJECT__7
10
60.354000
20
16.648001
30
106.374001
70
192
0
VERTEX
8
OBJECT__7
10
60.326000
20
17.118999
30
104.408997
70
192
0
VERTEX
8
OBJECT__7
10
60.006001
20
17.114000
30
104.594002
70
192
0
VERTEX
8
OBJECT__7
10
63.226002
20
16.273001
30
104.716003
70
192
0
VERTEX
8
OBJECT__7
10
62.060001
20
17.080999
30
103.269997
70
192
0
VERTEX
8
OBJECT__7
10
65.045998
20
16.035999
30
103.665001
70
192
0
VERTEX
8
OBJECT__7
10
63.022999
20
17.052000
30
102.424004
70
192
0
VERTEX
8
OBJECT__7
10
63.481998
20
17.038000
30
102.019997
70
192
0
VERTEX
8
OBJECT__7
10
63.785999
20
17.028999
30
101.737000
70
192
0
VERTEX
8
OBJECT__7
10
65.427002
20
15.986000
30
103.445999
70
192
0
VERTEX
8
OBJECT__7
10
63.785999
20
-17.028999
30
101.737000
70
192
0
VERTEX
8
OBJECT__7
10
0
20
0
30
0
70
128
71
1
72
2
73
3
0
VERTEX
8
OBJECT__7
10
0
20
0
30
0
70
128
71
3
72
4
73
1
0
VERTEX
8
OBJECT__7
10
0
20
0
30
0
70
128
71
1
72
5
73
6
0
VERTEX
8
OBJECT__7
10
0
20
0
30
0
70
128
71
6
72
7
73
1
0
VERTEX
8
OBJECT__7
10
0
20
0
30
0
70
128
71
5
72
8
73
6
0
VERTEX
8
OBJECT__7
10
0
20
0
30
0
70
128
71
7
72
2
73
1
0
VERTEX
8
OBJECT__7
10
0
20
0
30
0
70
128
71
9
72
10
73
11
0
VERTEX
8
OBJECT__7
10
0
20
0
30
0
70
128
71
10
72
12
73
11
0
VERTEX
8
OBJECT__7
10
0
20
0
30
0
70
128
71
13
72
12
73
10
0
VERTEX
8
OBJECT__7
10
0
20
0
30
0
70
128
71
14
72
15
73
16
0
VERTEX
8
OBJECT__7
10
0
20
0
30
0
70
128
71
13
72
17
73
18
0
VERTEX
8
OBJECT__7
10
0
20
0
30
0
70
128
71
18
72
16
73
13
0
VERTEX
8
OBJECT__7
10
0
20
0
30
0
70
128
71
19
72
20
73
21
0
VERTEX
8
OBJECT__7
10
0
20
0
30
0
70
128
71
21
72
14
73
19
0
VERTEX
8
OBJECT__7
10
0
20
0
30
0
70
128
71
22
72
20
73
23
0
VERTEX
8
OBJECT__7
10
0
20
0
30
0
70
128
71
24
72
25
73
22
0
VERTEX
8
OBJECT__7
10
0
20
0
30
0
70
128
71
20
72
19
73
23
0
VERTEX
8
OBJECT__7
10
0
20
0
30
0
70
128
71
26
72
25
73
24
0
VERTEX
8
OBJECT__7
10
0
20
0
30
0
70
128
71
27
72
28
73
29
0
VERTEX
8
OBJECT__7
10
0
20
0
30
0
70
128
71
30
72
29
73
28
0
VERTEX
8
OBJECT__7
10
0
20
0
30
0
70
128
71
28
72
26
73
30
0
VERTEX
8
OBJECT__7
10
0
20
0
30
0
70
128
71
31
72
32
73
33
0
VERTEX
8
OBJECT__7
10
0
20
0
30
0
70
128
71
33
72
34
73
31
0
VERTEX
8
OBJECT__7
10
0
20
0
30
0
70
128
71
35
72
36
73
37
0
VERTEX
8
OBJECT__7
10
0
20
0
30
0
70
128
71
32
72
31
73
37
0
VERTEX
8
OBJECT__7
10
0
20
0
30
0
70
128
71
37
72
36
73
32
0
VERTEX
8
OBJECT__7
10
0
20
0
30
0
70
128
71
38
72
35
73
39
0
VERTEX
8
OBJECT__7
10
0
20
0
30
0
70
128
71
40
72
41
73
42
0
VERTEX
8
OBJECT__7
10
0
20
0
30
0
70
128
71
42
72
43
73
40
0
VERTEX
8
OBJECT__7
10
0
20
0
30
0
70
128
71
42
72
38
73
43
0
VERTEX
8
OBJECT__7
10
0
20
0
30
0
70
128
71
44
72
45
73
46
0
VERTEX
8
OBJECT__7
10
0
20
0
30
0
70
128
71
46
72
47
73
44
0
VERTEX
8
OBJECT__7
10
0
20
0
30
0
70
128
71
44
72
48
73
49
0
VERTEX
8
OBJECT__7
10
0
20
0
30
0
70
128
71
48
72
50
73
49
0
VERTEX
8
OBJECT__7
10
0
20
0
30
0
70
128
71
51
72
50
73
52
0
VERTEX
8
OBJECT__7
10
0
20
0
30
0
70
128
71
50
72
48
73
52
0
VERTEX
8
OBJECT__7
10
0
20
0
30
0
70
128
71
53
72
54
73
55
0
VERTEX
8
OBJECT__7
10
0
20
0
30
0
70
128
71
55
72
56
73
53
0
VERTEX
8
OBJECT__7
10
0
20
0
30
0
70
128
71
57
72
58
73
59
0
VERTEX
8
OBJECT__7
10
0
20
0
30
0
70
128
71
53
72
59
73
58
0
VERTEX
8
OBJECT__7
10
0
20
0
30
0
70
128
71
58
72
54
73
53
0
VERTEX
8
OBJECT__7
10
0
20
0
30
0
70
128
71
60
72
61
73
62
0
VERTEX
8
OBJECT__7
10
0
20
0
30
0
70
128
71
61
72
63
73
62
0
VERTEX
8
OBJECT__7
10
0
20
0
30
0
70
128
71
63
72
61
73
64
0
VERTEX
8
OBJECT__7
10
0
20
0
30
0
70
128
71
64
72
65
73
63
0
VERTEX
8
OBJECT__7
10
0
20
0
30
0
70
128
71
66
72
67
73
68
0
VERTEX
8
OBJECT__7
10
0
20
0
30
0
70
128
71
69
72
70
73
67
0
VERTEX
8
OBJECT__7
10
0
20
0
30
0
70
128
71
67
72
66
73
69
0
VERTEX
8
OBJECT__7
10
0
20
0
30
0
70
128
71
69
72
71
73
72
0
VERTEX
8
OBJECT__7
10
0
20
0
30
0
70
128
71
71
72
73
73
72
0
VERTEX
8
OBJECT__7
10
0
20
0
30
0
70
128
71
74
72
73
73
71
0
VERTEX
8
OBJECT__7
10
0
20
0
30
0
70
128
71
71
72
75
73
74
0
VERTEX
8
OBJECT__7
10
0
20
0
30
0
70
128
71
72
72
70
73
69
0
VERTEX
8
OBJECT__7
10
0
20
0
30
0
70
128
71
68
72
65
73
66
0
VERTEX
8
OBJECT__7
10
0
20
0
30
0
70
128
71
64
72
66
73
65
0
VERTEX
8
OBJECT__7
10
0
20
0
30
0
70
128
71
62
72
57
73
60
0
VERTEX
8
OBJECT__7
10
0
20
0
30
0
70
128
71
59
72
60
73
57
0
VERTEX
8
OBJECT__7
10
0
20
0
30
0
70
128
71
55
72
51
73
56
0
VERTEX
8
OBJECT__7
10
0
20
0
30
0
70
128
71
52
72
56
73
51
0
VERTEX
8
OBJECT__7
10
0
20
0
30
0
70
128
71
49
72
45
73
44
0
VERTEX
8
OBJECT__7
10
0
20
0
30
0
70
128
71
46
72
41
73
47
0
VERTEX
8
OBJECT__7
10
0
20
0
30
0
70
128
71
40
72
47
73
41
0
VERTEX
8
OBJECT__7
10
0
20
0
30
0
70
128
71
39
72
43
73
38
0
VERTEX
8
OBJECT__7
10
0
20
0
30
0
70
128
71
37
72
39
73
35
0
VERTEX
8
OBJECT__7
10
0
20
0
30
0
70
128
71
33
72
27
73
34
0
VERTEX
8
OBJECT__7
10
0
20
0
30
0
70
128
71
29
72
34
73
27
0
VERTEX
8
OBJECT__7
10
0
20
0
30
0
70
128
71
24
72
30
73
26
0
VERTEX
8
OBJECT__7
10
0
20
0
30
0
70
128
71
23
72
24
73
22
0
VERTEX
8
OBJECT__7
10
0
20
0
30
0
70
128
71
21
72
15
73
14
0
VERTEX
8
OBJECT__7
10
0
20
0
30
0
70
128
71
16
72
18
73
14
0
VERTEX
8
OBJECT__7
10
0
20
0
30
0
70
128
71
10
72
17
73
13
0
VERTEX
8
OBJECT__7
10
0
20
0
30
0
70
128
71
11
72
8
73
9
0
VERTEX
8
OBJECT__7
10
0
20
0
30
0
70
128
71
5
72
9
73
8
0
VERTEX
8
OBJECT__7
10
0
20
0
30
0
70
128
71
3
72
76
73
4
0
SEQEND
8
OBJECT__7
0
POLYLINE
8
OBJECT__8
66
1
70
64
71
18
72
18
62
253
0
VERTEX
8
OBJECT__8
10
71.401001
20
16.184000
30
96.688004
70
192
0
VERTEX
8
OBJECT__8
10
70.403999
20
14.879000
30
98.774002
70
192
0
VERTEX
8
OBJECT__8
10
70.699997
20
14.788000
30
98.531998
70
192
0
VERTEX
8
OBJECT__8
10
68.696999
20
16.459999
30
98.771004
70
192
0
VERTEX
8
OBJECT__8
10
69.498001
20
15.161000
30
99.517998
70
192
0
VERTEX
8
OBJECT__8
10
70.226997
20
16.934000
30
95.184998
70
192
0
VERTEX
8
OBJECT__8
10
67.501999
20
16.955999
30
97.667999
70
192
0
VERTEX
8
OBJECT__8
10
71.996002
20
14.385000
30
97.468002
70
192
0
VERTEX
8
OBJECT__8
10
73.588997
20
13.909000
30
96.424004
70
192
0
VERTEX
8
OBJECT__8
10
73.415001
20
15.381000
30
96.078003
70
192
0
VERTEX
8
OBJECT__8
10
72.901001
20
16.474001
30
95.152000
70
192
0
VERTEX
8
OBJECT__8
10
73.157997
20
15.928000
30
95.614998
70
192
0
VERTEX
8
OBJECT__8
10
64.950996
20
17.000000
30
100.661003
70
192
0
VERTEX
8
OBJECT__8
10
65.859001
20
16.712999
30
101.439003
70
192
0
VERTEX
8
OBJECT__8
10
64.894997
20
16.999001
30
100.612999
70
192
0
VERTEX
8
OBJECT__8
10
65.952003
20
16.683001
30
101.518997
70
192
0
VERTEX
8
OBJECT__8
10
66.651001
20
15.963000
30
102.128998
70
192
0
VERTEX
8
OBJECT__8
10
72.177002
20
16.907000
30
93.884003
70
192
0
VERTEX
8
OBJECT__8
10
0
20
0
30
0
70
128
71
1
72
2
73
3
0
VERTEX
8
OBJECT__8
10
0
20
0
30
0
70
128
71
4
72
5
73
2
0
VERTEX
8
OBJECT__8
10
0
20
0
30
0
70
128
71
2
72
1
73
4
0
VERTEX
8
OBJECT__8
10
0
20
0
30
0
70
128
71
6
72
7
73
4
0
VERTEX
8
OBJECT__8
10
0
20
0
30
0
70
128
71
8
72
9
73
10
0
VERTEX
8
OBJECT__8
10
0
20
0
30
0
70
128
71
10
72
1
73
8
0
VERTEX
8
OBJECT__8
10
0
20
0
30
0
70
128
71
6
72
1
73
11
0
VERTEX
8
OBJECT__8
10
0
20
0
30
0
70
128
71
1
72
12
73
11
0
VERTEX
8
OBJECT__8
10
0
20
0
30
0
70
128
71
7
72
13
73
14
0
VERTEX
8
OBJECT__8
10
0
20
0
30
0
70
128
71
7
72
15
73
13
0
VERTEX
8
OBJECT__8
10
0
20
0
30
0
70
128
71
4
72
16
73
17
0
VERTEX
8
OBJECT__8
10
0
20
0
30
0
70
128
71
4
72
14
73
16
0
VERTEX
8
OBJECT__8
10
0
20
0
30
0
70
128
71
17
72
5
73
4
0
VERTEX
8
OBJECT__8
10
0
20
0
30
0
70
128
71
14
72
4
73
7
0
VERTEX
8
OBJECT__8
10
0
20
0
30
0
70
128
71
11
72
18
73
6
0
VERTEX
8
OBJECT__8
10
0
20
0
30
0
70
128
71
10
72
12
73
1
0
VERTEX
8
OBJECT__8
10
0
20
0
30
0
70
128
71
4
72
1
73
6
0
VERTEX
8
OBJECT__8
10
0
20
0
30
0
70
128
71
3
72
8
73
1
0
SEQEND
8
OBJECT__8
0
POLYLINE
8
OBJECT__9
66
1
70
64
71
18
72
18
62
253
0
VERTEX
8
OBJECT__9
10
71.245003
20
-14.617000
30
98.039001
70
192
0
VERTEX
8
OBJECT__9
10
70.570000
20
-16.270000
30
97.260002
70
192
0
VERTEX
8
OBJECT__9
10
73.323997
20
-15.308000
30
95.921997
70
192
0
VERTEX
8
OBJECT__9
10
73.194000
20
-15.996000
30
95.676003
70
192
0
VERTEX
8
OBJECT__9
10
69.362000
20
-16.941999
30
95.888000
70
192
0
VERTEX
8
OBJECT__9
10
72.177002
20
-16.907000
30
93.884003
70
192
0
VERTEX
8
OBJECT__9
10
72.859001
20
-16.296000
30
95.084999
70
192
0
VERTEX
8
OBJECT__9
10
68.740997
20
-16.455999
30
98.732002
70
192
0
VERTEX
8
OBJECT__9
10
70.431000
20
-14.871000
30
98.726997
70
192
0
VERTEX
8
OBJECT__9
10
70.672997
20
-14.795000
30
98.522003
70
192
0
VERTEX
8
OBJECT__9
10
69.540001
20
-15.148000
30
99.480003
70
192
0
VERTEX
8
OBJECT__9
10
66.651001
20
-15.963000
30
102.128998
70
192
0
VERTEX
8
OBJECT__9
10
66.066002
20
-16.603001
30
101.616997
70
192
0
VERTEX
8
OBJECT__9
10
67.544998
20
-16.955999
30
97.624001
70
192
0
VERTEX
8
OBJECT__9
10
65.850998
20
-16.679001
30
101.432999
70
192
0
VERTEX
8
OBJECT__9
10
64.950996
20
-17.000000
30
100.661003
70
192
0
VERTEX
8
OBJECT__9
10
64.894997
20
-16.999001
30
100.612999
70
192
0
VERTEX
8
OBJECT__9
10
73.588997
20
-13.909000
30
96.424004
70
192
0
VERTEX
8
OBJECT__9
10
0
20
0
30
0
70
128
71
1
72
2
73
3
0
VERTEX
8
OBJECT__9
10
0
20
0
30
0
70
128
71
2
72
4
73
3
0
VERTEX
8
OBJECT__9
10
0
20
0
30
0
70
128
71
5
72
6
73
7
0
VERTEX
8
OBJECT__9
10
0
20
0
30
0
70
128
71
7
72
2
73
5
0
VERTEX
8
OBJECT__9
10
0
20
0
30
0
70
128
71
8
72
2
73
9
0
VERTEX
8
OBJECT__9
10
0
20
0
30
0
70
128
71
2
72
10
73
9
0
VERTEX
8
OBJECT__9
10
0
20
0
30
0
70
128
71
2
72
1
73
10
0
VERTEX
8
OBJECT__9
10
0
20
0
30
0
70
128
71
5
72
2
73
8
0
VERTEX
8
OBJECT__9
10
0
20
0
30
0
70
128
71
8
72
11
73
12
0
VERTEX
8
OBJECT__9
10
0
20
0
30
0
70
128
71
12
72
13
73
8
0
VERTEX
8
OBJECT__9
10
0
20
0
30
0
70
128
71
14
72
8
73
15
0
VERTEX
8
OBJECT__9
10
0
20
0
30
0
70
128
71
15
72
16
73
14
0
VERTEX
8
OBJECT__9
10
0
20
0
30
0
70
128
71
16
72
17
73
14
0
VERTEX
8
OBJECT__9
10
0
20
0
30
0
70
128
71
13
72
15
73
8
0
VERTEX
8
OBJECT__9
10
0
20
0
30
0
70
128
71
8
72
14
73
5
0
VERTEX
8
OBJECT__9
10
0
20
0
30
0
70
128
71
9
72
11
73
8
0
VERTEX
8
OBJECT__9
10
0
20
0
30
0
70
128
71
7
72
4
73
2
0
VERTEX
8
OBJECT__9
10
0
20
0
30
0
70
128
71
3
72
18
73
1
0
SEQEND
8
OBJECT__9
0
POLYLINE
8
OBJECT__10
66
1
70
64
71
11
72
9
62
253
0
VERTEX
8
OBJECT__10
10
65.427002
20
15.986000
30
103.445999
70
192
0
VERTEX
8
OBJECT__10
10
66.379997
20
15.913000
30
102.510002
70
192
0
VERTEX
8
OBJECT__10
10
64.627998
20
17.006001
30
100.900002
70
192
0
VERTEX
8
OBJECT__10
10
65.859001
20
16.712999
30
101.439003
70
192
0
VERTEX
8
OBJECT__10
10
64.950996
20
17.000000
30
100.661003
70
192
0
VERTEX
8
OBJECT__10
10
66.651001
20
15.963000
30
102.128998
70
192
0
VERTEX
8
OBJECT__10
10
65.952003
20
16.683001
30
101.518997
70
192
0
VERTEX
8
OBJECT__10
10
66.774002
20
15.880000
30
102.091003
70
192
0
VERTEX
8
OBJECT__10
10
66.739998
20
15.897000
30
102.109001
70
192
0
VERTEX
8
OBJECT__10
10
64.894997
20
16.999001
30
100.612999
70
192
0
VERTEX
8
OBJECT__10
10
63.785999
20
17.028999
30
101.737000
70
192
0
VERTEX
8
OBJECT__10
10
0
20
0
30
0
70
128
71
1
72
2
73
3
0
VERTEX
8
OBJECT__10
10
0
20
0
30
0
70
128
71
3
72
2
73
4
0
VERTEX
8
OBJECT__10
10
0
20
0
30
0
70
128
71
4
72
5
73
3
0
VERTEX
8
OBJECT__10
10
0
20
0
30
0
70
128
71
2
72
6
73
7
0
VERTEX
8
OBJECT__10
10
0
20
0
30
0
70
128
71
7
72
4
73
2
0
VERTEX
8
OBJECT__10
10
0
20
0
30
0
70
128
71
2
72
8
73
9
0
VERTEX
8
OBJECT__10
10
0
20
0
30
0
70
128
71
9
72
6
73
2
0
VERTEX
8
OBJECT__10
10
0
20
0
30
0
70
128
71
5
72
10
73
3
0
VERTEX
8
OBJECT__10
10
0
20
0
30
0
70
128
71
3
72
11
73
1
0
SEQEND
8
OBJECT__10
0
POLYLINE
8
OBJECT__11
66
1
70
64
71
11
72
9
62
253
0
VERTEX
8
OBJECT__11
10
65.427002
20
-15.986000
30
103.445999
70
192
0
VERTEX
8
OBJECT__11
10
63.785999
20
-17.028999
30
101.737000
70
192
0
VERTEX
8
OBJECT__11
10
64.400002
20
-17.011999
30
101.138000
70
192
0
VERTEX
8
OBJECT__11
10
66.122002
20
-15.934000
30
102.774002
70
192
0
VERTEX
8
OBJECT__11
10
65.850998
20
-16.679001
30
101.432999
70
192
0
VERTEX
8
OBJECT__11
10
66.066002
20
-16.603001
30
101.616997
70
192
0
VERTEX
8
OBJECT__11
10
64.950996
20
-17.000000
30
100.661003
70
192
0
VERTEX
8
OBJECT__11
10
64.894997
20
-16.999001
30
100.612999
70
192
0
VERTEX
8
OBJECT__11
10
66.651001
20
-15.963000
30
102.128998
70
192
0
VERTEX
8
OBJECT__11
10
66.655998
20
-15.956000
30
102.132004
70
192
0
VERTEX
8
OBJECT__11
10
66.774002
20
-15.880000
30
102.091003
70
192
0
VERTEX
8
OBJECT__11
10
0
20
0
30
0
70
128
71
1
72
2
73
3
0
VERTEX
8
OBJECT__11
10
0
20
0
30
0
70
128
71
4
72
5
73
6
0
VERTEX
8
OBJECT__11
10
0
20
0
30
0
70
128
71
3
72
7
73
5
0
VERTEX
8
OBJECT__11
10
0
20
0
30
0
70
128
71
3
72
8
73
7
0
VERTEX
8
OBJECT__11
10
0
20
0
30
0
70
128
71
5
72
4
73
3
0
VERTEX
8
OBJECT__11
10
0
20
0
30
0
70
128
71
6
72
9
73
4
0
VERTEX
8
OBJECT__11
10
0
20
0
30
0
70
128
71
9
72
10
73
4
0
VERTEX
8
OBJECT__11
10
0
20
0
30
0
70
128
71
10
72
11
73
4
0
VERTEX
8
OBJECT__11
10
0
20
0
30
0
70
128
71
3
72
4
73
1
0
SEQEND
8
OBJECT__11
0
POLYLINE
8
OBJECT__12
66
1
70
64
71
22
72
20
62
253
0
VERTEX
8
OBJECT__12
10
70.629997
20
12.654000
30
100.442001
70
192
0
VERTEX
8
OBJECT__12
10
74.328003
20
6.957000
30
98.306999
70
192
0
VERTEX
8
OBJECT__12
10
73.285004
20
9.677000
30
98.332001
70
192
0
VERTEX
8
OBJECT__12
10
74.352997
20
7.099000
30
97.714996
70
192
0
VERTEX
8
OBJECT__12
10
75.639999
20
0.000000
30
97.549004
70
192
0
VERTEX
8
OBJECT__12
10
75.853996
20
0.000000
30
96.848000
70
192
0
VERTEX
8
OBJECT__12
10
75.197998
20
5.061000
30
97.227997
70
192
0
VERTEX
8
OBJECT__12
10
74.328003
20
-6.957000
30
98.306999
70
192
0
VERTEX
8
OBJECT__12
10
75.197998
20
-5.061000
30
97.227997
70
192
0
VERTEX
8
OBJECT__12
10
74.352997
20
-7.099000
30
97.714996
70
192
0
VERTEX
8
OBJECT__12
10
70.629997
20
-12.654000
30
100.442001
70
192
0
VERTEX
8
OBJECT__12
10
70.634003
20
-13.006000
30
99.862999
70
192
0
VERTEX
8
OBJECT__12
10
73.285004
20
-9.677000
30
98.332001
70
192
0
VERTEX
8
OBJECT__12
10
70.285004
20
13.444000
30
100.064003
70
192
0
VERTEX
8
OBJECT__12
10
66.774002
20
15.880000
30
102.091003
70
192
0
VERTEX
8
OBJECT__12
10
70.634003
20
13.006000
30
99.862999
70
192
0
VERTEX
8
OBJECT__12
10
66.379997
20
15.913000
30
102.510002
70
192
0
VERTEX
8
OBJECT__12
10
66.122002
20
-15.934000
30
102.774002
70
192
0
VERTEX
8
OBJECT__12
10
66.774002
20
-15.880000
30
102.091003
70
192
0
VERTEX
8
OBJECT__12
10
70.285004
20
-13.444000
30
100.064003
70
192
0
VERTEX
8
OBJECT__12
10
65.427002
20
-15.986000
30
103.445999
70
192
0
VERTEX
8
OBJECT__12
10
65.427002
20
15.986000
30
103.445999
70
192
0
VERTEX
8
OBJECT__12
10
0
20
0
30
0
70
128
71
1
72
2
73
3
0
VERTEX
8
OBJECT__12
10
0
20
0
30
0
70
128
71
2
72
4
73
3
0
VERTEX
8
OBJECT__12
10
0
20
0
30
0
70
128
71
5
72
6
73
7
0
VERTEX
8
OBJECT__12
10
0
20
0
30
0
70
128
71
7
72
2
73
5
0
VERTEX
8
OBJECT__12
10
0
20
0
30
0
70
128
71
5
72
8
73
9
0
VERTEX
8
OBJECT__12
10
0
20
0
30
0
70
128
71
8
72
10
73
9
0
VERTEX
8
OBJECT__12
10
0
20
0
30
0
70
128
71
11
72
12
73
13
0
VERTEX
8
OBJECT__12
10
0
20
0
30
0
70
128
71
13
72
8
73
11
0
VERTEX
8
OBJECT__12
10
0
20
0
30
0
70
128
71
1
72
14
73
15
0
VERTEX
8
OBJECT__12
10
0
20
0
30
0
70
128
71
1
72
16
73
14
0
VERTEX
8
OBJECT__12
10
0
20
0
30
0
70
128
71
15
72
17
73
1
0
VERTEX
8
OBJECT__12
10
0
20
0
30
0
70
128
71
11
72
18
73
19
0
VERTEX
8
OBJECT__12
10
0
20
0
30
0
70
128
71
19
72
20
73
11
0
VERTEX
8
OBJECT__12
10
0
20
0
30
0
70
128
71
11
72
21
73
18
0
VERTEX
8
OBJECT__12
10
0
20
0
30
0
70
128
71
20
72
12
73
11
0
VERTEX
8
OBJECT__12
10
0
20
0
30
0
70
128
71
17
72
22
73
1
0
VERTEX
8
OBJECT__12
10
0
20
0
30
0
70
128
71
13
72
10
73
8
0
VERTEX
8
OBJECT__12
10
0
20
0
30
0
70
128
71
9
72
6
73
5
0
VERTEX
8
OBJECT__12
10
0
20
0
30
0
70
128
71
7
72
4
73
2
0
VERTEX
8
OBJECT__12
10
0
20
0
30
0
70
128
71
3
72
16
73
1
0
SEQEND
8
OBJECT__12
0
POLYLINE
8
OBJECT__13
66
1
70
64
71
39
72
44
62
253
0
VERTEX
8
OBJECT__13
10
77.403999
20
-6.108000
30
94.221001
70
192
0
VERTEX
8
OBJECT__13
10
75.996002
20
-5.540000
30
95.485001
70
192
0
VERTEX
8
OBJECT__13
10
73.902000
20
-10.593000
30
96.694000
70
192
0
VERTEX
8
OBJECT__13
10
78.196999
20
0.000000
30
93.764000
70
192
0
VERTEX
8
OBJECT__13
10
76.714996
20
0.000000
30
95.070000
70
192
0
VERTEX
8
OBJECT__13
10
77.403999
20
6.108000
30
94.221001
70
192
0
VERTEX
8
OBJECT__13
10
75.996002
20
5.540000
30
95.485001
70
192
0
VERTEX
8
OBJECT__13
10
75.096001
20
11.679000
30
95.554001
70
192
0
VERTEX
8
OBJECT__13
10
73.902000
20
10.593000
30
96.694000
70
192
0
VERTEX
8
OBJECT__13
10
73.285004
20
-9.677000
30
98.332001
70
192
0
VERTEX
8
OBJECT__13
10
70.634003
20
-13.006000
30
99.862999
70
192
0
VERTEX
8
OBJECT__13
10
70.617996
20
-14.716000
30
98.589996
70
192
0
VERTEX
8
OBJECT__13
10
74.352997
20
-7.099000
30
97.714996
70
192
0
VERTEX
8
OBJECT__13
10
75.197998
20
-5.061000
30
97.227997
70
192
0
VERTEX
8
OBJECT__13
10
75.853996
20
0.000000
30
96.848000
70
192
0
VERTEX
8
OBJECT__13
10
75.197998
20
5.061000
30
97.227997
70
192
0
VERTEX
8
OBJECT__13
10
73.285004
20
9.677000
30
98.332001
70
192
0
VERTEX
8
OBJECT__13
10
74.352997
20
7.099000
30
97.714996
70
192
0
VERTEX
8
OBJECT__13
10
70.617996
20
14.716000
30
98.589996
70
192
0
VERTEX
8
OBJECT__13
10
70.634003
20
13.006000
30
99.862999
70
192
0
VERTEX
8
OBJECT__13
10
70.285004
20
13.444000
30
100.064003
70
192
0
VERTEX
8
OBJECT__13
10
70.285004
20
-13.444000
30
100.064003
70
192
0
VERTEX
8
OBJECT__13
10
69.540001
20
-15.148000
30
99.480003
70
192
0
VERTEX
8
OBJECT__13
10
70.431000
20
-14.871000
30
98.726997
70
192
0
VERTEX
8
OBJECT__13
10
66.651001
20
-15.963000
30
102.128998
70
192
0
VERTEX
8
OBJECT__13
10
66.774002
20
-15.880000
30
102.091003
70
192
0
VERTEX
8
OBJECT__13
10
66.655998
20
-15.956000
30
102.132004
70
192
0
VERTEX
8
OBJECT__13
10
71.245003
20
-14.617000
30
98.039001
70
192
0
VERTEX
8
OBJECT__13
10
73.588997
20
-13.909000
30
96.424004
70
192
0
VERTEX
8
OBJECT__13
10
70.672997
20
-14.795000
30
98.522003
70
192
0
VERTEX
8
OBJECT__13
10
71.996002
20
14.385000
30
97.468002
70
192
0
VERTEX
8
OBJECT__13
10
70.699997
20
14.788000
30
98.531998
70
192
0
VERTEX
8
OBJECT__13
10
73.588997
20
13.909000
30
96.424004
70
192
0
VERTEX
8
OBJECT__13
10
70.403999
20
14.879000
30
98.774002
70
192
0
VERTEX
8
OBJECT__13
10
69.498001
20
15.161000
30
99.517998
70
192
0
VERTEX
8
OBJECT__13
10
66.651001
20
15.963000
30
102.128998
70
192
0
VERTEX
8
OBJECT__13
10
66.739998
20
15.897000
30
102.109001
70
192
0
VERTEX
8
OBJECT__13
10
66.774002
20
15.880000
30
102.091003
70
192
0
VERTEX
8
OBJECT__13
10
75.096001
20
-11.679000
30
95.554001
70
192
0
VERTEX
8
OBJECT__13
10
0
20
0
30
0
70
128
71
1
72
2
73
3
0
VERTEX
8
OBJECT__13
10
0
20
0
30
0
70
128
71
4
72
5
73
2
0
VERTEX
8
OBJECT__13
10
0
20
0
30
0
70
128
71
6
72
7
73
5
0
VERTEX
8
OBJECT__13
10
0
20
0
30
0
70
128
71
8
72
9
73
7
0
VERTEX
8
OBJECT__13
10
0
20
0
30
0
70
128
71
3
72
10
73
11
0
VERTEX
8
OBJECT__13
10
0
20
0
30
0
70
128
71
11
72
12
73
3
0
VERTEX
8
OBJECT__13
10
0
20
0
30
0
70
128
71
3
72
2
73
13
0
VERTEX
8
OBJECT__13
10
0
20
0
30
0
70
128
71
2
72
14
73
13
0
VERTEX
8
OBJECT__13
10
0
20
0
30
0
70
128
71
2
72
5
73
15
0
VERTEX
8
OBJECT__13
10
0
20
0
30
0
70
128
71
5
72
7
73
16
0
VERTEX
8
OBJECT__13
10
0
20
0
30
0
70
128
71
9
72
17
73
18
0
VERTEX
8
OBJECT__13
10
0
20
0
30
0
70
128
71
18
72
7
73
9
0
VERTEX
8
OBJECT__13
10
0
20
0
30
0
70
128
71
9
72
19
73
20
0
VERTEX
8
OBJECT__13
10
0
20
0
30
0
70
128
71
19
72
21
73
20
0
VERTEX
8
OBJECT__13
10
0
20
0
30
0
70
128
71
22
72
23
73
24
0
VERTEX
8
OBJECT__13
10
0
20
0
30
0
70
128
71
25
72
23
73
26
0
VERTEX
8
OBJECT__13
10
0
20
0
30
0
70
128
71
23
72
22
73
26
0
VERTEX
8
OBJECT__13
10
0
20
0
30
0
70
128
71
26
72
27
73
25
0
VERTEX
8
OBJECT__13
10
0
20
0
30
0
70
128
71
3
72
28
73
29
0
VERTEX
8
OBJECT__13
10
0
20
0
30
0
70
128
71
12
72
30
73
28
0
VERTEX
8
OBJECT__13
10
0
20
0
30
0
70
128
71
28
72
3
73
12
0
VERTEX
8
OBJECT__13
10
0
20
0
30
0
70
128
71
9
72
31
73
32
0
VERTEX
8
OBJECT__13
10
0
20
0
30
0
70
128
71
9
72
8
73
33
0
VERTEX
8
OBJECT__13
10
0
20
0
30
0
70
128
71
33
72
31
73
9
0
VERTEX
8
OBJECT__13
10
0
20
0
30
0
70
128
71
21
72
19
73
34
0
VERTEX
8
OBJECT__13
10
0
20
0
30
0
70
128
71
34
72
35
73
21
0
VERTEX
8
OBJECT__13
10
0
20
0
30
0
70
128
71
35
72
36
73
37
0
VERTEX
8
OBJECT__13
10
0
20
0
30
0
70
128
71
37
72
38
73
35
0
VERTEX
8
OBJECT__13
10
0
20
0
30
0
70
128
71
35
72
38
73
21
0
VERTEX
8
OBJECT__13
10
0
20
0
30
0
70
128
71
34
72
19
73
32
0
VERTEX
8
OBJECT__13
10
0
20
0
30
0
70
128
71
32
72
19
73
9
0
VERTEX
8
OBJECT__13
10
0
20
0
30
0
70
128
71
29
72
39
73
3
0
VERTEX
8
OBJECT__13
10
0
20
0
30
0
70
128
71
30
72
12
73
24
0
VERTEX
8
OBJECT__13
10
0
20
0
30
0
70
128
71
24
72
12
73
22
0
VERTEX
8
OBJECT__13
10
0
20
0
30
0
70
128
71
20
72
17
73
9
0
VERTEX
8
OBJECT__13
10
0
20
0
30
0
70
128
71
18
72
16
73
7
0
VERTEX
8
OBJECT__13
10
0
20
0
30
0
70
128
71
16
72
15
73
5
0
VERTEX
8
OBJECT__13
10
0
20
0
30
0
70
128
71
15
72
14
73
2
0
VERTEX
8
OBJECT__13
10
0
20
0
30
0
70
128
71
13
72
10
73
3
0
VERTEX
8
OBJECT__13
10
0
20
0
30
0
70
128
71
11
72
22
73
12
0
VERTEX
8
OBJECT__13
10
0
20
0
30
0
70
128
71
7
72
6
73
8
0
VERTEX
8
OBJECT__13
10
0
20
0
30
0
70
128
71
5
72
4
73
6
0
VERTEX
8
OBJECT__13
10
0
20
0
30
0
70
128
71
2
72
1
73
4
0
VERTEX
8
OBJECT__13
10
0
20
0
30
0
70
128
71
3
72
39
73
1
0
SEQEND
8
OBJECT__13
0
POLYLINE
8
OBJECT__14
66
1
70
64
71
125
72
169
62
253
0
VERTEX
8
OBJECT__14
10
84.690002
20
15.021000
30
89.568001
70
192
0
VERTEX
8
OBJECT__14
10
73.415001
20
15.381000
30
96.078003
70
192
0
VERTEX
8
OBJECT__14
10
73.588997
20
13.909000
30
96.424004
70
192
0
VERTEX
8
OBJECT__14
10
84.192001
20
16.114000
30
88.632004
70
192
0
VERTEX
8
OBJECT__14
10
73.157997
20
15.928000
30
95.614998
70
192
0
VERTEX
8
OBJECT__14
10
72.901001
20
16.474001
30
95.152000
70
192
0
VERTEX
8
OBJECT__14
10
83.473999
20
16.545000
30
87.360001
70
192
0
VERTEX
8
OBJECT__14
10
73.760002
20
16.856001
30
92.970001
70
192
0
VERTEX
8
OBJECT__14
10
84.841003
20
13.549000
30
89.928001
70
192
0
VERTEX
8
OBJECT__14
10
107.342003
20
12.770000
30
76.936996
70
192
0
VERTEX
8
OBJECT__14
10
107.200996
20
14.245000
30
76.570000
70
192
0
VERTEX
8
OBJECT__14
10
106.708000
20
15.338000
30
75.625999
70
192
0
VERTEX
8
OBJECT__14
10
99.914001
20
15.977000
30
77.860001
70
192
0
VERTEX
8
OBJECT__14
10
86.817001
20
16.430000
30
85.428001
70
192
0
VERTEX
8
OBJECT__14
10
105.990997
20
15.767000
30
74.348000
70
192
0
VERTEX
8
OBJECT__14
10
118.459000
20
13.557000
30
70.010002
70
192
0
VERTEX
8
OBJECT__14
10
117.934998
20
14.659000
30
68.939003
70
192
0
VERTEX
8
OBJECT__14
10
112.790001
20
15.289000
30
70.209999
70
192
0
VERTEX
8
OBJECT__14
10
117.160004
20
14.981000
30
67.549004
70
192
0
VERTEX
8
OBJECT__14
10
118.580002
20
11.998000
30
70.447998
70
192
0
VERTEX
8
OBJECT__14
10
121.259003
20
11.733000
30
68.901001
70
192
0
VERTEX
8
OBJECT__14
10
121.236000
20
13.358000
30
68.347000
70
192
0
VERTEX
8
OBJECT__14
10
120.728996
20
14.450000
30
67.124001
70
192
0
VERTEX
8
OBJECT__14
10
119.004997
20
14.810000
30
66.403999
70
192
0
VERTEX
8
OBJECT__14
10
119.198997
20
14.792000
30
66.282997
70
192
0
VERTEX
8
OBJECT__14
10
119.903999
20
14.653000
30
65.632004
70
192
0
VERTEX
8
OBJECT__14
10
123.040001
20
12.939000
30
67.195999
70
192
0
VERTEX
8
OBJECT__14
10
122.600998
20
13.956000
30
65.681999
70
192
0
VERTEX
8
OBJECT__14
10
121.360001
20
14.044000
30
64.325996
70
192
0
VERTEX
8
OBJECT__14
10
121.652000
20
13.922000
30
64.064003
70
192
0
VERTEX
8
OBJECT__14
10
125.280998
20
11.715000
30
65.778999
70
192
0
VERTEX
8
OBJECT__14
10
122.799004
20
11.267000
30
68.013000
70
192
0
VERTEX
8
OBJECT__14
10
124.906998
20
12.566000
30
63.963001
70
192
0
VERTEX
8
OBJECT__14
10
123.559998
20
12.431000
30
62.464001
70
192
0
VERTEX
8
OBJECT__14
10
123.737999
20
12.292000
30
62.313999
70
192
0
VERTEX
8
OBJECT__14
10
126.121002
20
11.015000
30
65.251999
70
192
0
VERTEX
8
OBJECT__14
10
124.688004
20
10.133000
30
66.921997
70
192
0
VERTEX
8
OBJECT__14
10
125.764999
20
11.787000
30
63.341000
70
192
0
VERTEX
8
OBJECT__14
10
124.499001
20
11.453000
30
61.709000
70
192
0
VERTEX
8
OBJECT__14
10
127.962997
20
8.812000
30
64.106003
70
192
0
VERTEX
8
OBJECT__14
10
125.392998
20
9.514000
30
66.514999
70
192
0
VERTEX
8
OBJECT__14
10
127.638000
20
9.374000
30
62.011002
70
192
0
VERTEX
8
OBJECT__14
10
125.460999
20
10.009000
30
60.974998
70
192
0
VERTEX
8
OBJECT__14
10
126.139000
20
8.991000
30
60.458000
70
192
0
VERTEX
8
OBJECT__14
10
128.455002
20
7.993000
30
63.801998
70
192
0
VERTEX
8
OBJECT__14
10
126.938004
20
7.605000
30
65.623001
70
192
0
VERTEX
8
OBJECT__14
10
128.136993
20
8.491000
30
61.666000
70
192
0
VERTEX
8
OBJECT__14
10
126.572998
20
8.119000
30
60.139999
70
192
0
VERTEX
8
OBJECT__14
10
129.710007
20
5.026000
30
63.030998
70
192
0
VERTEX
8
OBJECT__14
10
127.355003
20
6.896000
30
65.382004
70
192
0
VERTEX
8
OBJECT__14
10
129.403000
20
5.323000
30
60.803001
70
192
0
VERTEX
8
OBJECT__14
10
127.677002
20
5.053000
30
59.355000
70
192
0
VERTEX
8
OBJECT__14
10
126.963997
20
7.035000
30
59.862999
70
192
0
VERTEX
8
OBJECT__14
10
129.983994
20
4.019000
30
62.863998
70
192
0
VERTEX
8
OBJECT__14
10
128.421997
20
4.333000
30
64.765999
70
192
0
VERTEX
8
OBJECT__14
10
129.679001
20
4.253000
30
60.617001
70
192
0
VERTEX
8
OBJECT__14
10
127.917000
20
4.032000
30
59.188000
70
192
0
VERTEX
8
OBJECT__14
10
130.440994
20
0.663000
30
62.584999
70
192
0
VERTEX
8
OBJECT__14
10
128.654999
20
3.465000
30
64.630997
70
192
0
VERTEX
8
OBJECT__14
10
130.139999
20
0.701000
30
60.307999
70
192
0
VERTEX
8
OBJECT__14
10
128.317001
20
0.663000
30
58.910999
70
192
0
VERTEX
8
OBJECT__14
10
127.963997
20
3.639000
30
59.154999
70
192
0
VERTEX
8
OBJECT__14
10
130.431000
20
-0.897000
30
62.591000
70
192
0
VERTEX
8
OBJECT__14
10
129.044998
20
0.571000
30
64.405998
70
192
0
VERTEX
8
OBJECT__14
10
130.128998
20
-0.948000
30
60.314999
70
192
0
VERTEX
8
OBJECT__14
10
128.307999
20
-0.897000
30
58.917000
70
192
0
VERTEX
8
OBJECT__14
10
128.313004
20
0.000000
30
58.914001
70
192
0
VERTEX
8
OBJECT__14
10
129.035995
20
-0.772000
30
64.412003
70
192
0
VERTEX
8
OBJECT__14
10
128.610992
20
-3.645000
30
64.656998
70
192
0
VERTEX
8
OBJECT__14
10
129.932999
20
-4.228000
30
62.895000
70
192
0
VERTEX
8
OBJECT__14
10
129.628006
20
-4.475000
30
60.652000
70
192
0
VERTEX
8
OBJECT__14
10
127.950996
20
-3.636000
30
59.164001
70
192
0
VERTEX
8
OBJECT__14
10
127.872002
20
-4.244000
30
59.219002
70
192
0
VERTEX
8
OBJECT__14
10
128.169998
20
-5.087000
30
64.911003
70
192
0
VERTEX
8
OBJECT__14
10
129.414993
20
-5.900000
30
63.212002
70
192
0
VERTEX
8
OBJECT__14
10
129.104996
20
-6.252000
30
61.005001
70
192
0
VERTEX
8
OBJECT__14
10
127.417999
20
-5.945000
30
59.536999
70
192
0
VERTEX
8
OBJECT__14
10
127.013000
20
-7.485000
30
65.579002
70
192
0
VERTEX
8
OBJECT__14
10
128.052002
20
-8.672000
30
64.050003
70
192
0
VERTEX
8
OBJECT__14
10
127.728996
20
-9.223000
30
61.948002
70
192
0
VERTEX
8
OBJECT__14
10
126.218002
20
-8.841000
30
60.400002
70
192
0
VERTEX
8
OBJECT__14
10
126.967003
20
-7.032000
30
59.861000
70
192
0
VERTEX
8
OBJECT__14
10
126.087997
20
-8.768000
30
66.113998
70
192
0
VERTEX
8
OBJECT__14
10
126.947998
20
-10.159000
30
64.736000
70
192
0
VERTEX
8
OBJECT__14
10
126.609001
20
-10.843000
30
62.737999
70
192
0
VERTEX
8
OBJECT__14
10
125.491997
20
-10.052000
30
60.945999
70
192
0
VERTEX
8
OBJECT__14
10
125.240997
20
-10.472000
30
61.134998
70
192
0
VERTEX
8
OBJECT__14
10
124.379997
20
-10.366000
30
67.098999
70
192
0
VERTEX
8
OBJECT__14
10
124.915001
20
-11.975000
30
66.009003
70
192
0
VERTEX
8
OBJECT__14
10
124.530998
20
-12.857000
30
64.237999
70
192
0
VERTEX
8
OBJECT__14
10
123.555000
20
-12.437000
30
62.465000
70
192
0
VERTEX
8
OBJECT__14
10
123.403000
20
-12.615000
30
62.585999
70
192
0
VERTEX
8
OBJECT__14
10
123.230003
20
-11.067000
30
67.764000
70
192
0
VERTEX
8
OBJECT__14
10
123.550003
20
-12.733000
30
66.872002
70
192
0
VERTEX
8
OBJECT__14
10
123.126999
20
-13.719000
30
65.283997
70
192
0
VERTEX
8
OBJECT__14
10
122.134003
20
-13.623000
30
63.646999
70
192
0
VERTEX
8
OBJECT__14
10
121.208000
20
-11.742000
30
68.931000
70
192
0
VERTEX
8
OBJECT__14
10
121.177002
20
-13.364000
30
68.385002
70
192
0
VERTEX
8
OBJECT__14
10
120.667999
20
-14.458000
30
67.171997
70
192
0
VERTEX
8
OBJECT__14
10
119.846001
20
-14.668000
30
65.684998
70
192
0
VERTEX
8
OBJECT__14
10
121.352997
20
-13.979000
30
64.343002
70
192
0
VERTEX
8
OBJECT__14
10
120.166000
20
-13.425000
30
69.012001
70
192
0
VERTEX
8
OBJECT__14
10
119.632004
20
-14.528000
30
67.916000
70
192
0
VERTEX
8
OBJECT__14
10
119.198997
20
-14.792000
30
66.282997
70
192
0
VERTEX
8
OBJECT__14
10
118.844002
20
-14.826000
30
66.503998
70
192
0
VERTEX
8
OBJECT__14
10
119.005997
20
-14.811000
30
66.403999
70
192
0
VERTEX
8
OBJECT__14
10
120.286003
20
-11.849000
30
69.462997
70
192
0
VERTEX
8
OBJECT__14
10
108.251999
20
-12.724000
30
76.411003
70
192
0
VERTEX
8
OBJECT__14
10
108.114998
20
-14.204000
30
76.039001
70
192
0
VERTEX
8
OBJECT__14
10
107.623001
20
-15.298000
30
75.085999
70
192
0
VERTEX
8
OBJECT__14
10
106.903999
20
-15.721000
30
73.802002
70
192
0
VERTEX
8
OBJECT__14
10
112.782997
20
-15.280000
30
70.209000
70
192
0
VERTEX
8
OBJECT__14
10
80.815002
20
-15.171000
30
91.807999
70
192
0
VERTEX
8
OBJECT__14
10
80.319000
20
-16.264000
30
90.875999
70
192
0
VERTEX
8
OBJECT__14
10
86.818001
20
-16.441000
30
85.431999
70
192
0
VERTEX
8
OBJECT__14
10
99.902000
20
-15.972000
30
77.856003
70
192
0
VERTEX
8
OBJECT__14
10
79.602997
20
-16.698999
30
89.609001
70
192
0
VERTEX
8
OBJECT__14
10
73.323997
20
-15.308000
30
95.921997
70
192
0
VERTEX
8
OBJECT__14
10
80.966003
20
-13.703000
30
92.164001
70
192
0
VERTEX
8
OBJECT__14
10
73.194000
20
-15.996000
30
95.676003
70
192
0
VERTEX
8
OBJECT__14
10
72.859001
20
-16.296000
30
95.084999
70
192
0
VERTEX
8
OBJECT__14
10
73.763000
20
-16.862000
30
92.971001
70
192
0
VERTEX
8
OBJECT__14
10
72.177002
20
-16.907000
30
93.884003
70
192
0
VERTEX
8
OBJECT__14
10
73.588997
20
-13.909000
30
96.424004
70
192
0
VERTEX
8
OBJECT__14
10
72.177002
20
16.907000
30
93.884003
70
192
0
VERTEX
8
OBJECT__14
10
0
20
0
30
0
70
128
71
1
72
2
73
3
0
VERTEX
8
OBJECT__14
10
0
20
0
30
0
70
128
71
1
72
4
73
5
0
VERTEX
8
OBJECT__14
10
0
20
0
30
0
70
128
71
4
72
6
73
5
0
VERTEX
8
OBJECT__14
10
0
20
0
30
0
70
128
71
4
72
7
73
8
0
VERTEX
8
OBJECT__14
10
0
20
0
30
0
70
128
71
8
72
6
73
4
0
VERTEX
8
OBJECT__14
10
0
20
0
30
0
70
128
71
1
72
9
73
10
0
VERTEX
8
OBJECT__14
10
0
20
0
30
0
70
128
71
11
72
12
73
4
0
VERTEX
8
OBJECT__14
10
0
20
0
30
0
70
128
71
4
72
12
73
13
0
VERTEX
8
OBJECT__14
10
0
20
0
30
0
70
128
71
13
72
14
73
4
0
VERTEX
8
OBJECT__14
10
0
20
0
30
0
70
128
71
12
72
15
73
13
0
VERTEX
8
OBJECT__14
10
0
20
0
30
0
70
128
71
16
72
11
73
10
0
VERTEX
8
OBJECT__14
10
0
20
0
30
0
70
128
71
16
72
17
73
12
0
VERTEX
8
OBJECT__14
10
0
20
0
30
0
70
128
71
12
72
17
73
18
0
VERTEX
8
OBJECT__14
10
0
20
0
30
0
70
128
71
17
72
19
73
18
0
VERTEX
8
OBJECT__14
10
0
20
0
30
0
70
128
71
16
72
20
73
21
0
VERTEX
8
OBJECT__14
10
0
20
0
30
0
70
128
71
22
72
23
73
17
0
VERTEX
8
OBJECT__14
10
0
20
0
30
0
70
128
71
17
72
23
73
24
0
VERTEX
8
OBJECT__14
10
0
20
0
30
0
70
128
71
23
72
25
73
24
0
VERTEX
8
OBJECT__14
10
0
20
0
30
0
70
128
71
23
72
26
73
25
0
VERTEX
8
OBJECT__14
10
0
20
0
30
0
70
128
71
27
72
22
73
21
0
VERTEX
8
OBJECT__14
10
0
20
0
30
0
70
128
71
27
72
28
73
23
0
VERTEX
8
OBJECT__14
10
0
20
0
30
0
70
128
71
28
72
29
73
26
0
VERTEX
8
OBJECT__14
10
0
20
0
30
0
70
128
71
28
72
30
73
29
0
VERTEX
8
OBJECT__14
10
0
20
0
30
0
70
128
71
31
72
27
73
32
0
VERTEX
8
OBJECT__14
10
0
20
0
30
0
70
128
71
31
72
33
73
28
0
VERTEX
8
OBJECT__14
10
0
20
0
30
0
70
128
71
33
72
34
73
30
0
VERTEX
8
OBJECT__14
10
0
20
0
30
0
70
128
71
33
72
35
73
34
0
VERTEX
8
OBJECT__14
10
0
20
0
30
0
70
128
71
36
72
31
73
37
0
VERTEX
8
OBJECT__14
10
0
20
0
30
0
70
128
71
36
72
38
73
33
0
VERTEX
8
OBJECT__14
10
0
20
0
30
0
70
128
71
38
72
39
73
35
0
VERTEX
8
OBJECT__14
10
0
20
0
30
0
70
128
71
40
72
36
73
41
0
VERTEX
8
OBJECT__14
10
0
20
0
30
0
70
128
71
40
72
42
73
38
0
VERTEX
8
OBJECT__14
10
0
20
0
30
0
70
128
71
38
72
42
73
43
0
VERTEX
8
OBJECT__14
10
0
20
0
30
0
70
128
71
42
72
44
73
43
0
VERTEX
8
OBJECT__14
10
0
20
0
30
0
70
128
71
45
72
40
73
46
0
VERTEX
8
OBJECT__14
10
0
20
0
30
0
70
128
71
45
72
47
73
42
0
VERTEX
8
OBJECT__14
10
0
20
0
30
0
70
128
71
47
72
48
73
44
0
VERTEX
8
OBJECT__14
10
0
20
0
30
0
70
128
71
49
72
45
73
50
0
VERTEX
8
OBJECT__14
10
0
20
0
30
0
70
128
71
49
72
51
73
47
0
VERTEX
8
OBJECT__14
10
0
20
0
30
0
70
128
71
51
72
52
73
53
0
VERTEX
8
OBJECT__14
10
0
20
0
30
0
70
128
71
53
72
47
73
51
0
VERTEX
8
OBJECT__14
10
0
20
0
30
0
70
128
71
54
72
49
73
55
0
VERTEX
8
OBJECT__14
10
0
20
0
30
0
70
128
71
54
72
56
73
51
0
VERTEX
8
OBJECT__14
10
0
20
0
30
0
70
128
71
56
72
57
73
52
0
VERTEX
8
OBJECT__14
10
0
20
0
30
0
70
128
71
58
72
54
73
59
0
VERTEX
8
OBJECT__14
10
0
20
0
30
0
70
128
71
58
72
60
73
56
0
VERTEX
8
OBJECT__14
10
0
20
0
30
0
70
128
71
60
72
61
73
62
0
VERTEX
8
OBJECT__14
10
0
20
0
30
0
70
128
71
62
72
56
73
60
0
VERTEX
8
OBJECT__14
10
0
20
0
30
0
70
128
71
63
72
58
73
64
0
VERTEX
8
OBJECT__14
10
0
20
0
30
0
70
128
71
63
72
65
73
60
0
VERTEX
8
OBJECT__14
10
0
20
0
30
0
70
128
71
65
72
66
73
67
0
VERTEX
8
OBJECT__14
10
0
20
0
30
0
70
128
71
67
72
60
73
65
0
VERTEX
8
OBJECT__14
10
0
20
0
30
0
70
128
71
63
72
68
73
69
0
VERTEX
8
OBJECT__14
10
0
20
0
30
0
70
128
71
70
72
71
73
65
0
VERTEX
8
OBJECT__14
10
0
20
0
30
0
70
128
71
65
72
71
73
72
0
VERTEX
8
OBJECT__14
10
0
20
0
30
0
70
128
71
71
72
73
73
72
0
VERTEX
8
OBJECT__14
10
0
20
0
30
0
70
128
71
70
72
69
73
74
0
VERTEX
8
OBJECT__14
10
0
20
0
30
0
70
128
71
75
72
76
73
71
0
VERTEX
8
OBJECT__14
10
0
20
0
30
0
70
128
71
71
72
76
73
77
0
VERTEX
8
OBJECT__14
10
0
20
0
30
0
70
128
71
75
72
74
73
78
0
VERTEX
8
OBJECT__14
10
0
20
0
30
0
70
128
71
79
72
80
73
76
0
VERTEX
8
OBJECT__14
10
0
20
0
30
0
70
128
71
80
72
81
73
82
0
VERTEX
8
OBJECT__14
10
0
20
0
30
0
70
128
71
82
72
76
73
80
0
VERTEX
8
OBJECT__14
10
0
20
0
30
0
70
128
71
79
72
78
73
83
0
VERTEX
8
OBJECT__14
10
0
20
0
30
0
70
128
71
84
72
85
73
80
0
VERTEX
8
OBJECT__14
10
0
20
0
30
0
70
128
71
80
72
85
73
86
0
VERTEX
8
OBJECT__14
10
0
20
0
30
0
70
128
71
85
72
87
73
86
0
VERTEX
8
OBJECT__14
10
0
20
0
30
0
70
128
71
84
72
83
73
88
0
VERTEX
8
OBJECT__14
10
0
20
0
30
0
70
128
71
89
72
90
73
85
0
VERTEX
8
OBJECT__14
10
0
20
0
30
0
70
128
71
85
72
90
73
91
0
VERTEX
8
OBJECT__14
10
0
20
0
30
0
70
128
71
90
72
92
73
91
0
VERTEX
8
OBJECT__14
10
0
20
0
30
0
70
128
71
89
72
88
73
93
0
VERTEX
8
OBJECT__14
10
0
20
0
30
0
70
128
71
94
72
95
73
90
0
VERTEX
8
OBJECT__14
10
0
20
0
30
0
70
128
71
90
72
95
73
96
0
VERTEX
8
OBJECT__14
10
0
20
0
30
0
70
128
71
94
72
93
73
97
0
VERTEX
8
OBJECT__14
10
0
20
0
30
0
70
128
71
98
72
99
73
95
0
VERTEX
8
OBJECT__14
10
0
20
0
30
0
70
128
71
99
72
100
73
101
0
VERTEX
8
OBJECT__14
10
0
20
0
30
0
70
128
71
101
72
95
73
99
0
VERTEX
8
OBJECT__14
10
0
20
0
30
0
70
128
71
102
72
98
73
97
0
VERTEX
8
OBJECT__14
10
0
20
0
30
0
70
128
71
102
72
103
73
99
0
VERTEX
8
OBJECT__14
10
0
20
0
30
0
70
128
71
99
72
103
73
104
0
VERTEX
8
OBJECT__14
10
0
20
0
30
0
70
128
71
103
72
105
73
106
0
VERTEX
8
OBJECT__14
10
0
20
0
30
0
70
128
71
106
72
104
73
103
0
VERTEX
8
OBJECT__14
10
0
20
0
30
0
70
128
71
102
72
107
73
108
0
VERTEX
8
OBJECT__14
10
0
20
0
30
0
70
128
71
109
72
110
73
103
0
VERTEX
8
OBJECT__14
10
0
20
0
30
0
70
128
71
110
72
111
73
112
0
VERTEX
8
OBJECT__14
10
0
20
0
30
0
70
128
71
112
72
103
73
110
0
VERTEX
8
OBJECT__14
10
0
20
0
30
0
70
128
71
113
72
109
73
108
0
VERTEX
8
OBJECT__14
10
0
20
0
30
0
70
128
71
113
72
114
73
110
0
VERTEX
8
OBJECT__14
10
0
20
0
30
0
70
128
71
110
72
114
73
115
0
VERTEX
8
OBJECT__14
10
0
20
0
30
0
70
128
71
115
72
116
73
110
0
VERTEX
8
OBJECT__14
10
0
20
0
30
0
70
128
71
114
72
117
73
115
0
VERTEX
8
OBJECT__14
10
0
20
0
30
0
70
128
71
118
72
113
73
119
0
VERTEX
8
OBJECT__14
10
0
20
0
30
0
70
128
71
113
72
118
73
120
0
VERTEX
8
OBJECT__14
10
0
20
0
30
0
70
128
71
120
72
114
73
113
0
VERTEX
8
OBJECT__14
10
0
20
0
30
0
70
128
71
114
72
121
73
122
0
VERTEX
8
OBJECT__14
10
0
20
0
30
0
70
128
71
121
72
123
73
122
0
VERTEX
8
OBJECT__14
10
0
20
0
30
0
70
128
71
122
72
117
73
114
0
VERTEX
8
OBJECT__14
10
0
20
0
30
0
70
128
71
120
72
121
73
114
0
VERTEX
8
OBJECT__14
10
0
20
0
30
0
70
128
71
119
72
124
73
118
0
VERTEX
8
OBJECT__14
10
0
20
0
30
0
70
128
71
116
72
111
73
110
0
VERTEX
8
OBJECT__14
10
0
20
0
30
0
70
128
71
110
72
109
73
113
0
VERTEX
8
OBJECT__14
10
0
20
0
30
0
70
128
71
108
72
119
73
113
0
VERTEX
8
OBJECT__14
10
0
20
0
30
0
70
128
71
112
72
105
73
103
0
VERTEX
8
OBJECT__14
10
0
20
0
30
0
70
128
71
103
72
102
73
109
0
VERTEX
8
OBJECT__14
10
0
20
0
30
0
70
128
71
108
72
109
73
102
0
VERTEX
8
OBJECT__14
10
0
20
0
30
0
70
128
71
104
72
100
73
99
0
VERTEX
8
OBJECT__14
10
0
20
0
30
0
70
128
71
99
72
98
73
102
0
VERTEX
8
OBJECT__14
10
0
20
0
30
0
70
128
71
97
72
107
73
102
0
VERTEX
8
OBJECT__14
10
0
20
0
30
0
70
128
71
101
72
96
73
95
0
VERTEX
8
OBJECT__14
10
0
20
0
30
0
70
128
71
95
72
94
73
98
0
VERTEX
8
OBJECT__14
10
0
20
0
30
0
70
128
71
97
72
98
73
94
0
VERTEX
8
OBJECT__14
10
0
20
0
30
0
70
128
71
96
72
92
73
90
0
VERTEX
8
OBJECT__14
10
0
20
0
30
0
70
128
71
90
72
89
73
94
0
VERTEX
8
OBJECT__14
10
0
20
0
30
0
70
128
71
93
72
94
73
89
0
VERTEX
8
OBJECT__14
10
0
20
0
30
0
70
128
71
91
72
87
73
85
0
VERTEX
8
OBJECT__14
10
0
20
0
30
0
70
128
71
85
72
84
73
89
0
VERTEX
8
OBJECT__14
10
0
20
0
30
0
70
128
71
88
72
89
73
84
0
VERTEX
8
OBJECT__14
10
0
20
0
30
0
70
128
71
86
72
81
73
80
0
VERTEX
8
OBJECT__14
10
0
20
0
30
0
70
128
71
80
72
79
73
84
0
VERTEX
8
OBJECT__14
10
0
20
0
30
0
70
128
71
83
72
84
73
79
0
VERTEX
8
OBJECT__14
10
0
20
0
30
0
70
128
71
82
72
77
73
76
0
VERTEX
8
OBJECT__14
10
0
20
0
30
0
70
128
71
76
72
75
73
79
0
VERTEX
8
OBJECT__14
10
0
20
0
30
0
70
128
71
78
72
79
73
75
0
VERTEX
8
OBJECT__14
10
0
20
0
30
0
70
128
71
77
72
73
73
71
0
VERTEX
8
OBJECT__14
10
0
20
0
30
0
70
128
71
71
72
70
73
75
0
VERTEX
8
OBJECT__14
10
0
20
0
30
0
70
128
71
74
72
75
73
70
0
VERTEX
8
OBJECT__14
10
0
20
0
30
0
70
128
71
72
72
66
73
65
0
VERTEX
8
OBJECT__14
10
0
20
0
30
0
70
128
71
65
72
63
73
70
0
VERTEX
8
OBJECT__14
10
0
20
0
30
0
70
128
71
69
72
70
73
63
0
VERTEX
8
OBJECT__14
10
0
20
0
30
0
70
128
71
67
72
61
73
60
0
VERTEX
8
OBJECT__14
10
0
20
0
30
0
70
128
71
60
72
58
73
63
0
VERTEX
8
OBJECT__14
10
0
20
0
30
0
70
128
71
64
72
68
73
63
0
VERTEX
8
OBJECT__14
10
0
20
0
30
0
70
128
71
62
72
57
73
56
0
VERTEX
8
OBJECT__14
10
0
20
0
30
0
70
128
71
56
72
54
73
58
0
VERTEX
8
OBJECT__14
10
0
20
0
30
0
70
128
71
59
72
64
73
58
0
VERTEX
8
OBJECT__14
10
0
20
0
30
0
70
128
71
52
72
51
73
56
0
VERTEX
8
OBJECT__14
10
0
20
0
30
0
70
128
71
51
72
49
73
54
0
VERTEX
8
OBJECT__14
10
0
20
0
30
0
70
128
71
55
72
59
73
54
0
VERTEX
8
OBJECT__14
10
0
20
0
30
0
70
128
71
53
72
48
73
47
0
VERTEX
8
OBJECT__14
10
0
20
0
30
0
70
128
71
47
72
45
73
49
0
VERTEX
8
OBJECT__14
10
0
20
0
30
0
70
128
71
50
72
55
73
49
0
VERTEX
8
OBJECT__14
10
0
20
0
30
0
70
128
71
44
72
42
73
47
0
VERTEX
8
OBJECT__14
10
0
20
0
30
0
70
128
71
42
72
40
73
45
0
VERTEX
8
OBJECT__14
10
0
20
0
30
0
70
128
71
46
72
50
73
45
0
VERTEX
8
OBJECT__14
10
0
20
0
30
0
70
128
71
43
72
39
73
38
0
VERTEX
8
OBJECT__14
10
0
20
0
30
0
70
128
71
38
72
36
73
40
0
VERTEX
8
OBJECT__14
10
0
20
0
30
0
70
128
71
41
72
46
73
40
0
VERTEX
8
OBJECT__14
10
0
20
0
30
0
70
128
71
35
72
33
73
38
0
VERTEX
8
OBJECT__14
10
0
20
0
30
0
70
128
71
33
72
31
73
36
0
VERTEX
8
OBJECT__14
10
0
20
0
30
0
70
128
71
37
72
41
73
36
0
VERTEX
8
OBJECT__14
10
0
20
0
30
0
70
128
71
30
72
28
73
33
0
VERTEX
8
OBJECT__14
10
0
20
0
30
0
70
128
71
28
72
27
73
31
0
VERTEX
8
OBJECT__14
10
0
20
0
30
0
70
128
71
32
72
37
73
31
0
VERTEX
8
OBJECT__14
10
0
20
0
30
0
70
128
71
26
72
23
73
28
0
VERTEX
8
OBJECT__14
10
0
20
0
30
0
70
128
71
23
72
22
73
27
0
VERTEX
8
OBJECT__14
10
0
20
0
30
0
70
128
71
21
72
32
73
27
0
VERTEX
8
OBJECT__14
10
0
20
0
30
0
70
128
71
24
72
19
73
17
0
VERTEX
8
OBJECT__14
10
0
20
0
30
0
70
128
71
17
72
16
73
22
0
VERTEX
8
OBJECT__14
10
0
20
0
30
0
70
128
71
21
72
22
73
16
0
VERTEX
8
OBJECT__14
10
0
20
0
30
0
70
128
71
18
72
15
73
12
0
VERTEX
8
OBJECT__14
10
0
20
0
30
0
70
128
71
12
72
11
73
16
0
VERTEX
8
OBJECT__14
10
0
20
0
30
0
70
128
71
10
72
20
73
16
0
VERTEX
8
OBJECT__14
10
0
20
0
30
0
70
128
71
14
72
7
73
4
0
VERTEX
8
OBJECT__14
10
0
20
0
30
0
70
128
71
4
72
1
73
11
0
VERTEX
8
OBJECT__14
10
0
20
0
30
0
70
128
71
10
72
11
73
1
0
VERTEX
8
OBJECT__14
10
0
20
0
30
0
70
128
71
8
72
125
73
6
0
VERTEX
8
OBJECT__14
10
0
20
0
30
0
70
128
71
5
72
2
73
1
0
VERTEX
8
OBJECT__14
10
0
20
0
30
0
70
128
71
3
72
9
73
1
0
SEQEND
8
OBJECT__14
0
POLYLINE
8
OBJECT__15
66
1
70
64
71
30
72
28
62
253
0
VERTEX
8
OBJECT__15
10
121.259003
20
11.733000
30
68.901001
70
192
0
VERTEX
8
OBJECT__15
10
125.392998
20
9.514000
30
66.514999
70
192
0
VERTEX
8
OBJECT__15
10
124.688004
20
10.133000
30
66.921997
70
192
0
VERTEX
8
OBJECT__15
10
121.208000
20
-11.742000
30
68.931000
70
192
0
VERTEX
8
OBJECT__15
10
123.230003
20
-11.067000
30
67.764000
70
192
0
VERTEX
8
OBJECT__15
10
124.379997
20
-10.366000
30
67.098999
70
192
0
VERTEX
8
OBJECT__15
10
122.799004
20
11.267000
30
68.013000
70
192
0
VERTEX
8
OBJECT__15
10
126.087997
20
-8.768000
30
66.113998
70
192
0
VERTEX
8
OBJECT__15
10
118.580002
20
11.998000
30
70.447998
70
192
0
VERTEX
8
OBJECT__15
10
126.938004
20
7.605000
30
65.623001
70
192
0
VERTEX
8
OBJECT__15
10
127.013000
20
-7.485000
30
65.579002
70
192
0
VERTEX
8
OBJECT__15
10
127.355003
20
6.896000
30
65.382004
70
192
0
VERTEX
8
OBJECT__15
10
120.286003
20
-11.849000
30
69.462997
70
192
0
VERTEX
8
OBJECT__15
10
128.169998
20
-5.087000
30
64.911003
70
192
0
VERTEX
8
OBJECT__15
10
128.610992
20
-3.645000
30
64.656998
70
192
0
VERTEX
8
OBJECT__15
10
128.421997
20
4.333000
30
64.765999
70
192
0
VERTEX
8
OBJECT__15
10
78.196999
20
0.000000
30
93.764000
70
192
0
VERTEX
8
OBJECT__15
10
77.403999
20
-6.108000
30
94.221001
70
192
0
VERTEX
8
OBJECT__15
10
108.251999
20
-12.724000
30
76.411003
70
192
0
VERTEX
8
OBJECT__15
10
129.044998
20
0.571000
30
64.405998
70
192
0
VERTEX
8
OBJECT__15
10
107.342003
20
12.770000
30
76.936996
70
192
0
VERTEX
8
OBJECT__15
10
128.654999
20
3.465000
30
64.630997
70
192
0
VERTEX
8
OBJECT__15
10
129.035995
20
-0.772000
30
64.412003
70
192
0
VERTEX
8
OBJECT__15
10
77.403999
20
6.108000
30
94.221001
70
192
0
VERTEX
8
OBJECT__15
10
84.841003
20
13.549000
30
89.928001
70
192
0
VERTEX
8
OBJECT__15
10
75.096001
20
-11.679000
30
95.554001
70
192
0
VERTEX
8
OBJECT__15
10
80.966003
20
-13.703000
30
92.164001
70
192
0
VERTEX
8
OBJECT__15
10
73.588997
20
13.909000
30
96.424004
70
192
0
VERTEX
8
OBJECT__15
10
75.096001
20
11.679000
30
95.554001
70
192
0
VERTEX
8
OBJECT__15
10
73.588997
20
-13.909000
30
96.424004
70
192
0
VERTEX
8
OBJECT__15
10
0
20
0
30
0
70
128
71
1
72
2
73
3
0
VERTEX
8
OBJECT__15
10
0
20
0
30
0
70
128
71
4
72
5
73
6
0
VERTEX
8
OBJECT__15
10
0
20
0
30
0
70
128
71
3
72
7
73
1
0
VERTEX
8
OBJECT__15
10
0
20
0
30
0
70
128
71
6
72
8
73
4
0
VERTEX
8
OBJECT__15
10
0
20
0
30
0
70
128
71
9
72
10
73
2
0
VERTEX
8
OBJECT__15
10
0
20
0
30
0
70
128
71
8
72
11
73
4
0
VERTEX
8
OBJECT__15
10
0
20
0
30
0
70
128
71
9
72
12
73
10
0
VERTEX
8
OBJECT__15
10
0
20
0
30
0
70
128
71
13
72
14
73
15
0
VERTEX
8
OBJECT__15
10
0
20
0
30
0
70
128
71
14
72
13
73
4
0
VERTEX
8
OBJECT__15
10
0
20
0
30
0
70
128
71
9
72
16
73
12
0
VERTEX
8
OBJECT__15
10
0
20
0
30
0
70
128
71
11
72
14
73
4
0
VERTEX
8
OBJECT__15
10
0
20
0
30
0
70
128
71
17
72
18
73
19
0
VERTEX
8
OBJECT__15
10
0
20
0
30
0
70
128
71
17
72
20
73
21
0
VERTEX
8
OBJECT__15
10
0
20
0
30
0
70
128
71
9
72
22
73
16
0
VERTEX
8
OBJECT__15
10
0
20
0
30
0
70
128
71
15
72
23
73
13
0
VERTEX
8
OBJECT__15
10
0
20
0
30
0
70
128
71
19
72
20
73
17
0
VERTEX
8
OBJECT__15
10
0
20
0
30
0
70
128
71
20
72
9
73
21
0
VERTEX
8
OBJECT__15
10
0
20
0
30
0
70
128
71
9
72
20
73
22
0
VERTEX
8
OBJECT__15
10
0
20
0
30
0
70
128
71
19
72
13
73
20
0
VERTEX
8
OBJECT__15
10
0
20
0
30
0
70
128
71
1
72
9
73
2
0
VERTEX
8
OBJECT__15
10
0
20
0
30
0
70
128
71
24
72
21
73
25
0
VERTEX
8
OBJECT__15
10
0
20
0
30
0
70
128
71
18
72
26
73
27
0
VERTEX
8
OBJECT__15
10
0
20
0
30
0
70
128
71
21
72
24
73
17
0
VERTEX
8
OBJECT__15
10
0
20
0
30
0
70
128
71
25
72
28
73
29
0
VERTEX
8
OBJECT__15
10
0
20
0
30
0
70
128
71
27
72
19
73
18
0
VERTEX
8
OBJECT__15
10
0
20
0
30
0
70
128
71
25
72
29
73
24
0
VERTEX
8
OBJECT__15
10
0
20
0
30
0
70
128
71
23
72
20
73
13
0
VERTEX
8
OBJECT__15
10
0
20
0
30
0
70
128
71
26
72
30
73
27
0
SEQEND
8
OBJECT__15
0
POLYLINE
8
OBJECT__16
66
1
70
64
71
29
72
29
62
253
0
VERTEX
8
OBJECT__16
10
47.612000
20
7.528000
30
113.731003
70
192
0
VERTEX
8
OBJECT__16
10
51.480999
20
8.111000
30
111.497002
70
192
0
VERTEX
8
OBJECT__16
10
49.459999
20
2.869000
30
112.664001
70
192
0
VERTEX
8
OBJECT__16
10
51.782001
20
13.565000
30
111.323997
70
192
0
VERTEX
8
OBJECT__16
10
55.174000
20
11.951000
30
109.364998
70
192
0
VERTEX
8
OBJECT__16
10
76.176003
20
0.000000
30
97.239998
70
192
0
VERTEX
8
OBJECT__16
10
74.688004
20
-7.528000
30
98.098999
70
192
0
VERTEX
8
OBJECT__16
10
72.068001
20
-5.613000
30
99.611000
70
192
0
VERTEX
8
OBJECT__16
10
70.517998
20
-13.565000
30
100.505997
70
192
0
VERTEX
8
OBJECT__16
10
69.147003
20
-10.255000
30
101.297997
70
192
0
VERTEX
8
OBJECT__16
10
57.806999
20
16.915001
30
107.845001
70
192
0
VERTEX
8
OBJECT__16
10
59.901001
20
13.724000
30
106.636002
70
192
0
VERTEX
8
OBJECT__16
10
64.492996
20
16.915001
30
103.985001
70
192
0
VERTEX
8
OBJECT__16
10
64.843002
20
13.125000
30
103.782997
70
192
0
VERTEX
8
OBJECT__16
10
70.517998
20
13.565000
30
100.505997
70
192
0
VERTEX
8
OBJECT__16
10
69.147003
20
10.255000
30
101.297997
70
192
0
VERTEX
8
OBJECT__16
10
64.492996
20
-16.915001
30
103.985001
70
192
0
VERTEX
8
OBJECT__16
10
64.843002
20
-13.125000
30
103.782997
70
192
0
VERTEX
8
OBJECT__16
10
73.100998
20
0.000000
30
99.014999
70
192
0
VERTEX
8
OBJECT__16
10
72.068001
20
5.613000
30
99.611000
70
192
0
VERTEX
8
OBJECT__16
10
74.688004
20
7.528000
30
98.098999
70
192
0
VERTEX
8
OBJECT__16
10
57.806999
20
-16.915001
30
107.845001
70
192
0
VERTEX
8
OBJECT__16
10
59.901001
20
-13.724000
30
106.636002
70
192
0
VERTEX
8
OBJECT__16
10
51.782001
20
-13.565000
30
111.323997
70
192
0
VERTEX
8
OBJECT__16
10
55.174000
20
-11.951000
30
109.364998
70
192
0
VERTEX
8
OBJECT__16
10
47.612000
20
-7.528000
30
113.731003
70
192
0
VERTEX
8
OBJECT__16
10
51.480999
20
-8.111000
30
111.497002
70
192
0
VERTEX
8
OBJECT__16
10
46.124001
20
0.000000
30
114.589996
70
192
0
VERTEX
8
OBJECT__16
10
49.459999
20
-2.869000
30
112.664001
70
192
0
VERTEX
8
OBJECT__16
10
0
20
0
30
0
70
128
71
1
72
2
73
3
0
VERTEX
8
OBJECT__16
10
0
20
0
30
0
70
128
71
4
72
5
73
2
0
VERTEX
8
OBJECT__16
10
0
20
0
30
0
70
128
71
6
72
7
73
8
0
VERTEX
8
OBJECT__16
10
0
20
0
30
0
70
128
71
7
72
9
73
10
0
VERTEX
8
OBJECT__16
10
0
20
0
30
0
70
128
71
2
72
1
73
4
0
VERTEX
8
OBJECT__16
10
0
20
0
30
0
70
128
71
11
72
12
73
5
0
VERTEX
8
OBJECT__16
10
0
20
0
30
0
70
128
71
13
72
14
73
12
0
VERTEX
8
OBJECT__16
10
0
20
0
30
0
70
128
71
15
72
16
73
14
0
VERTEX
8
OBJECT__16
10
0
20
0
30
0
70
128
71
10
72
8
73
7
0
VERTEX
8
OBJECT__16
10
0
20
0
30
0
70
128
71
9
72
17
73
18
0
VERTEX
8
OBJECT__16
10
0
20
0
30
0
70
128
71
5
72
4
73
11
0
VERTEX
8
OBJECT__16
10
0
20
0
30
0
70
128
71
14
72
13
73
15
0
VERTEX
8
OBJECT__16
10
0
20
0
30
0
70
128
71
6
72
19
73
20
0
VERTEX
8
OBJECT__16
10
0
20
0
30
0
70
128
71
18
72
10
73
9
0
VERTEX
8
OBJECT__16
10
0
20
0
30
0
70
128
71
12
72
11
73
13
0
VERTEX
8
OBJECT__16
10
0
20
0
30
0
70
128
71
21
72
20
73
16
0
VERTEX
8
OBJECT__16
10
0
20
0
30
0
70
128
71
8
72
19
73
6
0
VERTEX
8
OBJECT__16
10
0
20
0
30
0
70
128
71
17
72
22
73
23
0
VERTEX
8
OBJECT__16
10
0
20
0
30
0
70
128
71
16
72
15
73
21
0
VERTEX
8
OBJECT__16
10
0
20
0
30
0
70
128
71
23
72
18
73
17
0
VERTEX
8
OBJECT__16
10
0
20
0
30
0
70
128
71
22
72
24
73
25
0
VERTEX
8
OBJECT__16
10
0
20
0
30
0
70
128
71
24
72
26
73
27
0
VERTEX
8
OBJECT__16
10
0
20
0
30
0
70
128
71
20
72
21
73
6
0
VERTEX
8
OBJECT__16
10
0
20
0
30
0
70
128
71
27
72
25
73
24
0
VERTEX
8
OBJECT__16
10
0
20
0
30
0
70
128
71
26
72
28
73
29
0
VERTEX
8
OBJECT__16
10
0
20
0
30
0
70
128
71
25
72
23
73
22
0
VERTEX
8
OBJECT__16
10
0
20
0
30
0
70
128
71
28
72
3
73
29
0
VERTEX
8
OBJECT__16
10
0
20
0
30
0
70
128
71
29
72
27
73
26
0
VERTEX
8
OBJECT__16
10
0
20
0
30
0
70
128
71
3
72
28
73
1
0
SEQEND
8
OBJECT__16
0
POLYLINE
8
OBJECT__17
66
1
70
64
71
28
72
28
62
253
0
VERTEX
8
OBJECT__17
10
75.688004
20
7.528000
30
99.831001
70
192
0
VERTEX
8
OBJECT__17
10
77.176003
20
0.000000
30
98.972000
70
192
0
VERTEX
8
OBJECT__17
10
76.176003
20
0.000000
30
97.239998
70
192
0
VERTEX
8
OBJECT__17
10
71.517998
20
13.565000
30
102.237999
70
192
0
VERTEX
8
OBJECT__17
10
74.688004
20
7.528000
30
98.098999
70
192
0
VERTEX
8
OBJECT__17
10
65.492996
20
16.915001
30
105.717003
70
192
0
VERTEX
8
OBJECT__17
10
70.517998
20
13.565000
30
100.505997
70
192
0
VERTEX
8
OBJECT__17
10
58.806999
20
16.915001
30
109.577003
70
192
0
VERTEX
8
OBJECT__17
10
64.492996
20
16.915001
30
103.985001
70
192
0
VERTEX
8
OBJECT__17
10
52.782001
20
13.565000
30
113.056000
70
192
0
VERTEX
8
OBJECT__17
10
57.806999
20
16.915001
30
107.845001
70
192
0
VERTEX
8
OBJECT__17
10
48.612000
20
7.528000
30
115.462997
70
192
0
VERTEX
8
OBJECT__17
10
51.782001
20
13.565000
30
111.323997
70
192
0
VERTEX
8
OBJECT__17
10
47.124001
20
0.000000
30
116.321999
70
192
0
VERTEX
8
OBJECT__17
10
47.612000
20
7.528000
30
113.731003
70
192
0
VERTEX
8
OBJECT__17
10
47.612000
20
-7.528000
30
113.731003
70
192
0
VERTEX
8
OBJECT__17
10
48.612000
20
-7.528000
30
115.462997
70
192
0
VERTEX
8
OBJECT__17
10
51.782001
20
-13.565000
30
111.323997
70
192
0
VERTEX
8
OBJECT__17
10
52.782001
20
-13.565000
30
113.056000
70
192
0
VERTEX
8
OBJECT__17
10
57.806999
20
-16.915001
30
107.845001
70
192
0
VERTEX
8
OBJECT__17
10
58.806999
20
-16.915001
30
109.577003
70
192
0
VERTEX
8
OBJECT__17
10
64.492996
20
-16.915001
30
103.985001
70
192
0
VERTEX
8
OBJECT__17
10
65.492996
20
-16.915001
30
105.717003
70
192
0
VERTEX
8
OBJECT__17
10
70.517998
20
-13.565000
30
100.505997
70
192
0
VERTEX
8
OBJECT__17
10
71.517998
20
-13.565000
30
102.237999
70
192
0
VERTEX
8
OBJECT__17
10
74.688004
20
-7.528000
30
98.098999
70
192
0
VERTEX
8
OBJECT__17
10
75.688004
20
-7.528000
30
99.831001
70
192
0
VERTEX
8
OBJECT__17
10
46.124001
20
0.000000
30
114.589996
70
192
0
VERTEX
8
OBJECT__17
10
0
20
0
30
0
70
128
71
1
72
2
73
3
0
VERTEX
8
OBJECT__17
10
0
20
0
30
0
70
128
71
4
72
1
73
5
0
VERTEX
8
OBJECT__17
10
0
20
0
30
0
70
128
71
6
72
4
73
7
0
VERTEX
8
OBJECT__17
10
0
20
0
30
0
70
128
71
8
72
6
73
9
0
VERTEX
8
OBJECT__17
10
0
20
0
30
0
70
128
71
10
72
8
73
11
0
VERTEX
8
OBJECT__17
10
0
20
0
30
0
70
128
71
12
72
10
73
13
0
VERTEX
8
OBJECT__17
10
0
20
0
30
0
70
128
71
14
72
12
73
15
0
VERTEX
8
OBJECT__17
10
0
20
0
30
0
70
128
71
16
72
17
73
14
0
VERTEX
8
OBJECT__17
10
0
20
0
30
0
70
128
71
18
72
19
73
17
0
VERTEX
8
OBJECT__17
10
0
20
0
30
0
70
128
71
20
72
21
73
19
0
VERTEX
8
OBJECT__17
10
0
20
0
30
0
70
128
71
22
72
23
73
21
0
VERTEX
8
OBJECT__17
10
0
20
0
30
0
70
128
71
24
72
25
73
23
0
VERTEX
8
OBJECT__17
10
0
20
0
30
0
70
128
71
26
72
27
73
25
0
VERTEX
8
OBJECT__17
10
0
20
0
30
0
70
128
71
3
72
2
73
27
0
VERTEX
8
OBJECT__17
10
0
20
0
30
0
70
128
71
27
72
26
73
3
0
VERTEX
8
OBJECT__17
10
0
20
0
30
0
70
128
71
25
72
24
73
26
0
VERTEX
8
OBJECT__17
10
0
20
0
30
0
70
128
71
23
72
22
73
24
0
VERTEX
8
OBJECT__17
10
0
20
0
30
0
70
128
71
21
72
20
73
22
0
VERTEX
8
OBJECT__17
10
0
20
0
30
0
70
128
71
19
72
18
73
20
0
VERTEX
8
OBJECT__17
10
0
20
0
30
0
70
128
71
17
72
16
73
18
0
VERTEX
8
OBJECT__17
10
0
20
0
30
0
70
128
71
14
72
28
73
16
0
VERTEX
8
OBJECT__17
10
0
20
0
30
0
70
128
71
15
72
28
73
14
0
VERTEX
8
OBJECT__17
10
0
20
0
30
0
70
128
71
13
72
15
73
12
0
VERTEX
8
OBJECT__17
10
0
20
0
30
0
70
128
71
11
72
13
73
10
0
VERTEX
8
OBJECT__17
10
0
20
0
30
0
70
128
71
9
72
11
73
8
0
VERTEX
8
OBJECT__17
10
0
20
0
30
0
70
128
71
7
72
9
73
6
0
VERTEX
8
OBJECT__17
10
0
20
0
30
0
70
128
71
5
72
7
73
4
0
VERTEX
8
OBJECT__17
10
0
20
0
30
0
70
128
71
3
72
5
73
1
0
SEQEND
8
OBJECT__17
0
POLYLINE
8
OBJECT__19
66
1
70
64
71
26
72
26
62
253
0
VERTEX
8
OBJECT__19
10
71.517998
20
13.565000
30
102.237999
70
192
0
VERTEX
8
OBJECT__19
10
68.125999
20
11.951000
30
104.196999
70
192
0
VERTEX
8
OBJECT__19
10
72.500000
20
6.900000
30
101.670998
70
192
0
VERTEX
8
OBJECT__19
10
65.492996
20
16.915001
30
105.717003
70
192
0
VERTEX
8
OBJECT__19
10
62.150002
20
13.800000
30
107.647003
70
192
0
VERTEX
8
OBJECT__19
10
75.688004
20
7.528000
30
99.831001
70
192
0
VERTEX
8
OBJECT__19
10
58.806999
20
16.915001
30
109.577003
70
192
0
VERTEX
8
OBJECT__19
10
52.782001
20
13.565000
30
113.056000
70
192
0
VERTEX
8
OBJECT__19
10
56.174000
20
11.951000
30
111.097000
70
192
0
VERTEX
8
OBJECT__19
10
48.612000
20
7.528000
30
115.462997
70
192
0
VERTEX
8
OBJECT__19
10
51.799999
20
6.900000
30
113.623001
70
192
0
VERTEX
8
OBJECT__19
10
47.124001
20
0.000000
30
116.321999
70
192
0
VERTEX
8
OBJECT__19
10
50.199001
20
0.000000
30
114.546997
70
192
0
VERTEX
8
OBJECT__19
10
48.612000
20
-7.528000
30
115.462997
70
192
0
VERTEX
8
OBJECT__19
10
51.799999
20
-6.900000
30
113.623001
70
192
0
VERTEX
8
OBJECT__19
10
52.782001
20
-13.565000
30
113.056000
70
192
0
VERTEX
8
OBJECT__19
10
56.174000
20
-11.951000
30
111.097000
70
192
0
VERTEX
8
OBJECT__19
10
58.806999
20
-16.915001
30
109.577003
70
192
0
VERTEX
8
OBJECT__19
10
62.150002
20
-13.800000
30
107.647003
70
192
0
VERTEX
8
OBJECT__19
10
65.492996
20
-16.915001
30
105.717003
70
192
0
VERTEX
8
OBJECT__19
10
71.517998
20
-13.565000
30
102.237999
70
192
0
VERTEX
8
OBJECT__19
10
68.125999
20
-11.951000
30
104.196999
70
192
0
VERTEX
8
OBJECT__19
10
75.688004
20
-7.528000
30
99.831001
70
192
0
VERTEX
8
OBJECT__19
10
72.500000
20
-6.900000
30
101.670998
70
192
0
VERTEX
8
OBJECT__19
10
77.176003
20
0.000000
30
98.972000
70
192
0
VERTEX
8
OBJECT__19
10
74.100998
20
0.000000
30
100.747002
70
192
0
VERTEX
8
OBJECT__19
10
0
20
0
30
0
70
128
71
1
72
2
73
3
0
VERTEX
8
OBJECT__19
10
0
20
0
30
0
70
128
71
4
72
5
73
2
0
VERTEX
8
OBJECT__19
10
0
20
0
30
0
70
128
71
3
72
6
73
1
0
VERTEX
8
OBJECT__19
10
0
20
0
30
0
70
128
71
4
72
7
73
5
0
VERTEX
8
OBJECT__19
10
0
20
0
30
0
70
128
71
7
72
8
73
9
0
VERTEX
8
OBJECT__19
10
0
20
0
30
0
70
128
71
8
72
10
73
11
0
VERTEX
8
OBJECT__19
10
0
20
0
30
0
70
128
71
10
72
12
73
13
0
VERTEX
8
OBJECT__19
10
0
20
0
30
0
70
128
71
14
72
15
73
13
0
VERTEX
8
OBJECT__19
10
0
20
0
30
0
70
128
71
16
72
17
73
15
0
VERTEX
8
OBJECT__19
10
0
20
0
30
0
70
128
71
18
72
19
73
17
0
VERTEX
8
OBJECT__19
10
0
20
0
30
0
70
128
71
20
72
21
73
22
0
VERTEX
8
OBJECT__19
10
0
20
0
30
0
70
128
71
2
72
1
73
4
0
VERTEX
8
OBJECT__19
10
0
20
0
30
0
70
128
71
11
72
9
73
8
0
VERTEX
8
OBJECT__19
10
0
20
0
30
0
70
128
71
13
72
12
73
14
0
VERTEX
8
OBJECT__19
10
0
20
0
30
0
70
128
71
17
72
16
73
18
0
VERTEX
8
OBJECT__19
10
0
20
0
30
0
70
128
71
22
72
19
73
20
0
VERTEX
8
OBJECT__19
10
0
20
0
30
0
70
128
71
21
72
23
73
24
0
VERTEX
8
OBJECT__19
10
0
20
0
30
0
70
128
71
9
72
5
73
7
0
VERTEX
8
OBJECT__19
10
0
20
0
30
0
70
128
71
15
72
14
73
16
0
VERTEX
8
OBJECT__19
10
0
20
0
30
0
70
128
71
24
72
22
73
21
0
VERTEX
8
OBJECT__19
10
0
20
0
30
0
70
128
71
23
72
25
73
26
0
VERTEX
8
OBJECT__19
10
0
20
0
30
0
70
128
71
13
72
11
73
10
0
VERTEX
8
OBJECT__19
10
0
20
0
30
0
70
128
71
26
72
24
73
23
0
VERTEX
8
OBJECT__19
10
0
20
0
30
0
70
128
71
19
72
18
73
20
0
VERTEX
8
OBJECT__19
10
0
20
0
30
0
70
128
71
3
72
26
73
6
0
VERTEX
8
OBJECT__19
10
0
20
0
30
0
70
128
71
26
72
25
73
6
0
SEQEND
8
OBJECT__19
0
POLYLINE
8
OBJECT__20
66
1
70
64
71
36
72
36
62
253
0
VERTEX
8
OBJECT__20
10
74.100998
20
0.000000
30
100.747002
70
192
0
VERTEX
8
OBJECT__20
10
72.500000
20
6.900000
30
101.670998
70
192
0
VERTEX
8
OBJECT__20
10
73.732002
20
6.413000
30
103.268997
70
192
0
VERTEX
8
OBJECT__20
10
73.420998
20
6.819000
30
103.448997
70
192
0
VERTEX
8
OBJECT__20
10
68.125999
20
11.951000
30
104.196999
70
192
0
VERTEX
8
OBJECT__20
10
69.939003
20
11.357000
30
105.459000
70
192
0
VERTEX
8
OBJECT__20
10
69.056999
20
11.743000
30
105.968002
70
192
0
VERTEX
8
OBJECT__20
10
62.150002
20
13.800000
30
107.647003
70
192
0
VERTEX
8
OBJECT__20
10
64.591003
20
13.699000
30
108.546997
70
192
0
VERTEX
8
OBJECT__20
10
63.181000
20
13.502000
30
109.361000
70
192
0
VERTEX
8
OBJECT__20
10
56.174000
20
11.951000
30
111.097000
70
192
0
VERTEX
8
OBJECT__20
10
58.911999
20
12.903000
30
111.825996
70
192
0
VERTEX
8
OBJECT__20
10
57.349998
20
11.658000
30
112.727997
70
192
0
VERTEX
8
OBJECT__20
10
51.799999
20
6.900000
30
113.623001
70
192
0
VERTEX
8
OBJECT__20
10
54.203999
20
9.151000
30
114.543999
70
192
0
VERTEX
8
OBJECT__20
10
53.098999
20
6.719000
30
115.181999
70
192
0
VERTEX
8
OBJECT__20
10
50.199001
20
0.000000
30
114.546997
70
192
0
VERTEX
8
OBJECT__20
10
51.546001
20
3.303000
30
116.079002
70
192
0
VERTEX
8
OBJECT__20
10
51.546001
20
0.000000
30
116.079002
70
192
0
VERTEX
8
OBJECT__20
10
51.799999
20
-6.900000
30
113.623001
70
192
0
VERTEX
8
OBJECT__20
10
53.098999
20
-6.719000
30
115.181999
70
192
0
VERTEX
8
OBJECT__20
10
51.546001
20
-3.303000
30
116.079002
70
192
0
VERTEX
8
OBJECT__20
10
56.174000
20
-11.951000
30
111.097000
70
192
0
VERTEX
8
OBJECT__20
10
57.349998
20
-11.658000
30
112.727997
70
192
0
VERTEX
8
OBJECT__20
10
54.203999
20
-9.151000
30
114.543999
70
192
0
VERTEX
8
OBJECT__20
10
62.150002
20
-13.800000
30
107.647003
70
192
0
VERTEX
8
OBJECT__20
10
63.181000
20
-13.502000
30
109.361000
70
192
0
VERTEX
8
OBJECT__20
10
58.911999
20
-12.903000
30
111.825996
70
192
0
VERTEX
8
OBJECT__20
10
68.125999
20
-11.951000
30
104.196999
70
192
0
VERTEX
8
OBJECT__20
10
69.056999
20
-11.743000
30
105.968002
70
192
0
VERTEX
8
OBJECT__20
10
64.591003
20
-13.699000
30
108.546997
70
192
0
VERTEX
8
OBJECT__20
10
72.500000
20
-6.900000
30
101.670998
70
192
0
VERTEX
8
OBJECT__20
10
73.420998
20
-6.819000
30
103.448997
70
192
0
VERTEX
8
OBJECT__20
10
69.939003
20
-11.357000
30
105.459000
70
192
0
VERTEX
8
OBJECT__20
10
75.100998
20
0.000000
30
102.478996
70
192
0
VERTEX
8
OBJECT__20
10
73.732002
20
-6.413000
30
103.268997
70
192
0
VERTEX
8
OBJECT__20
10
0
20
0
30
0
70
128
71
1
72
2
73
3
0
VERTEX
8
OBJECT__20
10
0
20
0
30
0
70
128
71
2
72
4
73
3
0
VERTEX
8
OBJECT__20
10
0
20
0
30
0
70
128
71
2
72
5
73
6
0
VERTEX
8
OBJECT__20
10
0
20
0
30
0
70
128
71
5
72
7
73
6
0
VERTEX
8
OBJECT__20
10
0
20
0
30
0
70
128
71
5
72
8
73
9
0
VERTEX
8
OBJECT__20
10
0
20
0
30
0
70
128
71
8
72
10
73
9
0
VERTEX
8
OBJECT__20
10
0
20
0
30
0
70
128
71
8
72
11
73
12
0
VERTEX
8
OBJECT__20
10
0
20
0
30
0
70
128
71
11
72
13
73
12
0
VERTEX
8
OBJECT__20
10
0
20
0
30
0
70
128
71
11
72
14
73
15
0
VERTEX
8
OBJECT__20
10
0
20
0
30
0
70
128
71
14
72
16
73
15
0
VERTEX
8
OBJECT__20
10
0
20
0
30
0
70
128
71
14
72
17
73
18
0
VERTEX
8
OBJECT__20
10
0
20
0
30
0
70
128
71
17
72
19
73
18
0
VERTEX
8
OBJECT__20
10
0
20
0
30
0
70
128
71
20
72
21
73
22
0
VERTEX
8
OBJECT__20
10
0
20
0
30
0
70
128
71
22
72
17
73
20
0
VERTEX
8
OBJECT__20
10
0
20
0
30
0
70
128
71
23
72
24
73
25
0
VERTEX
8
OBJECT__20
10
0
20
0
30
0
70
128
71
25
72
20
73
23
0
VERTEX
8
OBJECT__20
10
0
20
0
30
0
70
128
71
26
72
27
73
28
0
VERTEX
8
OBJECT__20
10
0
20
0
30
0
70
128
71
28
72
23
73
26
0
VERTEX
8
OBJECT__20
10
0
20
0
30
0
70
128
71
29
72
30
73
31
0
VERTEX
8
OBJECT__20
10
0
20
0
30
0
70
128
71
31
72
26
73
29
0
VERTEX
8
OBJECT__20
10
0
20
0
30
0
70
128
71
32
72
33
73
34
0
VERTEX
8
OBJECT__20
10
0
20
0
30
0
70
128
71
34
72
29
73
32
0
VERTEX
8
OBJECT__20
10
0
20
0
30
0
70
128
71
1
72
35
73
36
0
VERTEX
8
OBJECT__20
10
0
20
0
30
0
70
128
71
36
72
32
73
1
0
VERTEX
8
OBJECT__20
10
0
20
0
30
0
70
128
71
36
72
33
73
32
0
VERTEX
8
OBJECT__20
10
0
20
0
30
0
70
128
71
34
72
30
73
29
0
VERTEX
8
OBJECT__20
10
0
20
0
30
0
70
128
71
31
72
27
73
26
0
VERTEX
8
OBJECT__20
10
0
20
0
30
0
70
128
71
28
72
24
73
23
0
VERTEX
8
OBJECT__20
10
0
20
0
30
0
70
128
71
25
72
21
73
20
0
VERTEX
8
OBJECT__20
10
0
20
0
30
0
70
128
71
22
72
19
73
17
0
VERTEX
8
OBJECT__20
10
0
20
0
30
0
70
128
71
18
72
16
73
14
0
VERTEX
8
OBJECT__20
10
0
20
0
30
0
70
128
71
15
72
13
73
11
0
VERTEX
8
OBJECT__20
10
0
20
0
30
0
70
128
71
12
72
10
73
8
0
VERTEX
8
OBJECT__20
10
0
20
0
30
0
70
128
71
9
72
7
73
5
0
VERTEX
8
OBJECT__20
10
0
20
0
30
0
70
128
71
6
72
4
73
2
0
VERTEX
8
OBJECT__20
10
0
20
0
30
0
70
128
71
3
72
35
73
1
0
SEQEND
8
OBJECT__20
0
POLYLINE
8
OBJECT__21
66
1
70
64
71
77
72
77
62
253
0
VERTEX
8
OBJECT__21
10
70.086998
20
11.941000
30
105.880997
70
192
0
VERTEX
8
OBJECT__21
10
69.939003
20
11.357000
30
105.459000
70
192
0
VERTEX
8
OBJECT__21
10
69.056999
20
11.743000
30
105.968002
70
192
0
VERTEX
8
OBJECT__21
10
64.591003
20
13.699000
30
108.546997
70
192
0
VERTEX
8
OBJECT__21
10
66.556000
20
13.598000
30
107.766998
70
192
0
VERTEX
8
OBJECT__21
10
67.735001
20
13.009000
30
106.964996
70
192
0
VERTEX
8
OBJECT__21
10
65.045998
20
14.433000
30
109.181999
70
192
0
VERTEX
8
OBJECT__21
10
73.930000
20
6.960000
30
103.509003
70
192
0
VERTEX
8
OBJECT__21
10
74.067001
20
6.534000
30
103.393997
70
192
0
VERTEX
8
OBJECT__21
10
73.732002
20
6.413000
30
103.268997
70
192
0
VERTEX
8
OBJECT__21
10
73.420998
20
6.819000
30
103.448997
70
192
0
VERTEX
8
OBJECT__21
10
73.316002
20
9.499000
30
104.549004
70
192
0
VERTEX
8
OBJECT__21
10
70.468002
20
11.782000
30
105.777000
70
192
0
VERTEX
8
OBJECT__21
10
71.825996
20
11.219000
30
105.408997
70
192
0
VERTEX
8
OBJECT__21
10
75.100998
20
0.000000
30
102.478996
70
192
0
VERTEX
8
OBJECT__21
10
75.431000
20
2.958000
30
102.794998
70
192
0
VERTEX
8
OBJECT__21
10
76.287003
20
1.217000
30
102.834000
70
192
0
VERTEX
8
OBJECT__21
10
74.388000
20
5.537000
30
103.123001
70
192
0
VERTEX
8
OBJECT__21
10
75.080002
20
-3.756000
30
102.846001
70
192
0
VERTEX
8
OBJECT__21
10
74.516998
20
-5.178000
30
103.049004
70
192
0
VERTEX
8
OBJECT__21
10
76.331001
20
0.000000
30
102.807999
70
192
0
VERTEX
8
OBJECT__21
10
76.287003
20
-1.217000
30
102.834000
70
192
0
VERTEX
8
OBJECT__21
10
73.732002
20
-6.413000
30
103.268997
70
192
0
VERTEX
8
OBJECT__21
10
69.939003
20
-11.357000
30
105.459000
70
192
0
VERTEX
8
OBJECT__21
10
73.420998
20
-6.819000
30
103.448997
70
192
0
VERTEX
8
OBJECT__21
10
73.709999
20
-7.757000
30
103.789001
70
192
0
VERTEX
8
OBJECT__21
10
73.316002
20
-9.499000
30
104.549004
70
192
0
VERTEX
8
OBJECT__21
10
71.825996
20
-11.219000
30
105.408997
70
192
0
VERTEX
8
OBJECT__21
10
74.091003
20
-6.539000
30
103.439003
70
192
0
VERTEX
8
OBJECT__21
10
64.591003
20
-13.699000
30
108.546997
70
192
0
VERTEX
8
OBJECT__21
10
69.056999
20
-11.743000
30
105.968002
70
192
0
VERTEX
8
OBJECT__21
10
68.045998
20
-12.860000
30
106.785004
70
192
0
VERTEX
8
OBJECT__21
10
69.331001
20
-12.271000
30
106.165001
70
192
0
VERTEX
8
OBJECT__21
10
70.499001
20
-11.779000
30
105.810997
70
192
0
VERTEX
8
OBJECT__21
10
65.931000
20
-13.928000
30
108.279999
70
192
0
VERTEX
8
OBJECT__21
10
58.911999
20
-12.903000
30
111.825996
70
192
0
VERTEX
8
OBJECT__21
10
63.181000
20
-13.502000
30
109.361000
70
192
0
VERTEX
8
OBJECT__21
10
60.050999
20
-13.598000
30
111.523003
70
192
0
VERTEX
8
OBJECT__21
10
65.041000
20
-14.431000
30
109.165001
70
192
0
VERTEX
8
OBJECT__21
10
64.653999
20
-14.650000
30
109.550003
70
192
0
VERTEX
8
OBJECT__21
10
62.546001
20
-14.650000
30
110.766998
70
192
0
VERTEX
8
OBJECT__21
10
54.203999
20
-9.151000
30
114.543999
70
192
0
VERTEX
8
OBJECT__21
10
57.349998
20
-11.658000
30
112.727997
70
192
0
VERTEX
8
OBJECT__21
10
56.652000
20
-11.941000
30
113.637001
70
192
0
VERTEX
8
OBJECT__21
10
55.374001
20
-11.219000
30
114.907997
70
192
0
VERTEX
8
OBJECT__21
10
58.766998
20
-13.009000
30
112.141998
70
192
0
VERTEX
8
OBJECT__21
10
58.957001
20
-13.096000
30
112.050003
70
192
0
VERTEX
8
OBJECT__21
10
51.546001
20
-3.303000
30
116.079002
70
192
0
VERTEX
8
OBJECT__21
10
53.098999
20
-6.719000
30
115.181999
70
192
0
VERTEX
8
OBJECT__21
10
52.113998
20
-5.537000
30
115.983002
70
192
0
VERTEX
8
OBJECT__21
10
53.883999
20
-9.499000
30
115.767998
70
192
0
VERTEX
8
OBJECT__21
10
52.676998
20
-6.960000
30
115.779999
70
192
0
VERTEX
8
OBJECT__21
10
54.070999
20
-9.748000
30
115.660004
70
192
0
VERTEX
8
OBJECT__21
10
51.546001
20
0.000000
30
116.079002
70
192
0
VERTEX
8
OBJECT__21
10
51.306999
20
-2.958000
30
116.723000
70
192
0
VERTEX
8
OBJECT__21
10
50.912998
20
1.217000
30
117.483002
70
192
0
VERTEX
8
OBJECT__21
10
51.437000
20
3.384000
30
116.596001
70
192
0
VERTEX
8
OBJECT__21
10
50.912998
20
-1.217000
30
117.483002
70
192
0
VERTEX
8
OBJECT__21
10
51.546001
20
3.303000
30
116.079002
70
192
0
VERTEX
8
OBJECT__21
10
51.439999
20
-3.384000
30
116.600998
70
192
0
VERTEX
8
OBJECT__21
10
54.203999
20
9.151000
30
114.543999
70
192
0
VERTEX
8
OBJECT__21
10
53.098999
20
6.719000
30
115.181999
70
192
0
VERTEX
8
OBJECT__21
10
53.028999
20
7.757000
30
115.728996
70
192
0
VERTEX
8
OBJECT__21
10
53.883999
20
9.499000
30
115.767998
70
192
0
VERTEX
8
OBJECT__21
10
51.527000
20
3.756000
30
116.444000
70
192
0
VERTEX
8
OBJECT__21
10
51.985001
20
5.178000
30
116.057999
70
192
0
VERTEX
8
OBJECT__21
10
57.349998
20
11.658000
30
112.727997
70
192
0
VERTEX
8
OBJECT__21
10
57.276001
20
12.271000
30
113.125000
70
192
0
VERTEX
8
OBJECT__21
10
58.455002
20
12.860000
30
112.321999
70
192
0
VERTEX
8
OBJECT__21
10
55.374001
20
11.219000
30
114.907997
70
192
0
VERTEX
8
OBJECT__21
10
54.070999
20
9.748000
30
115.660004
70
192
0
VERTEX
8
OBJECT__21
10
58.911999
20
12.903000
30
111.825996
70
192
0
VERTEX
8
OBJECT__21
10
63.181000
20
13.502000
30
109.361000
70
192
0
VERTEX
8
OBJECT__21
10
60.806999
20
13.928000
30
111.237999
70
192
0
VERTEX
8
OBJECT__21
10
62.546001
20
14.650000
30
110.766998
70
192
0
VERTEX
8
OBJECT__21
10
64.653999
20
14.650000
30
109.550003
70
192
0
VERTEX
8
OBJECT__21
10
58.977001
20
13.097000
30
112.082001
70
192
0
VERTEX
8
OBJECT__21
10
0
20
0
30
0
70
128
71
1
72
2
73
3
0
VERTEX
8
OBJECT__21
10
0
20
0
30
0
70
128
71
4
72
5
73
6
0
VERTEX
8
OBJECT__21
10
0
20
0
30
0
70
128
71
4
72
7
73
5
0
VERTEX
8
OBJECT__21
10
0
20
0
30
0
70
128
71
6
72
3
73
4
0
VERTEX
8
OBJECT__21
10
0
20
0
30
0
70
128
71
3
72
6
73
1
0
VERTEX
8
OBJECT__21
10
0
20
0
30
0
70
128
71
8
72
9
73
10
0
VERTEX
8
OBJECT__21
10
0
20
0
30
0
70
128
71
11
72
2
73
12
0
VERTEX
8
OBJECT__21
10
0
20
0
30
0
70
128
71
2
72
13
73
14
0
VERTEX
8
OBJECT__21
10
0
20
0
30
0
70
128
71
14
72
12
73
2
0
VERTEX
8
OBJECT__21
10
0
20
0
30
0
70
128
71
12
72
8
73
11
0
VERTEX
8
OBJECT__21
10
0
20
0
30
0
70
128
71
15
72
16
73
17
0
VERTEX
8
OBJECT__21
10
0
20
0
30
0
70
128
71
15
72
10
73
18
0
VERTEX
8
OBJECT__21
10
0
20
0
30
0
70
128
71
10
72
9
73
18
0
VERTEX
8
OBJECT__21
10
0
20
0
30
0
70
128
71
18
72
16
73
15
0
VERTEX
8
OBJECT__21
10
0
20
0
30
0
70
128
71
15
72
19
73
20
0
VERTEX
8
OBJECT__21
10
0
20
0
30
0
70
128
71
15
72
21
73
22
0
VERTEX
8
OBJECT__21
10
0
20
0
30
0
70
128
71
22
72
19
73
15
0
VERTEX
8
OBJECT__21
10
0
20
0
30
0
70
128
71
20
72
23
73
15
0
VERTEX
8
OBJECT__21
10
0
20
0
30
0
70
128
71
24
72
25
73
26
0
VERTEX
8
OBJECT__21
10
0
20
0
30
0
70
128
71
26
72
27
73
24
0
VERTEX
8
OBJECT__21
10
0
20
0
30
0
70
128
71
27
72
28
73
24
0
VERTEX
8
OBJECT__21
10
0
20
0
30
0
70
128
71
29
72
26
73
25
0
VERTEX
8
OBJECT__21
10
0
20
0
30
0
70
128
71
25
72
23
73
29
0
VERTEX
8
OBJECT__21
10
0
20
0
30
0
70
128
71
30
72
31
73
32
0
VERTEX
8
OBJECT__21
10
0
20
0
30
0
70
128
71
33
72
31
73
24
0
VERTEX
8
OBJECT__21
10
0
20
0
30
0
70
128
71
24
72
34
73
33
0
VERTEX
8
OBJECT__21
10
0
20
0
30
0
70
128
71
33
72
32
73
31
0
VERTEX
8
OBJECT__21
10
0
20
0
30
0
70
128
71
32
72
35
73
30
0
VERTEX
8
OBJECT__21
10
0
20
0
30
0
70
128
71
36
72
37
73
38
0
VERTEX
8
OBJECT__21
10
0
20
0
30
0
70
128
71
37
72
30
73
39
0
VERTEX
8
OBJECT__21
10
0
20
0
30
0
70
128
71
37
72
40
73
41
0
VERTEX
8
OBJECT__21
10
0
20
0
30
0
70
128
71
41
72
38
73
37
0
VERTEX
8
OBJECT__21
10
0
20
0
30
0
70
128
71
39
72
40
73
37
0
VERTEX
8
OBJECT__21
10
0
20
0
30
0
70
128
71
42
72
43
73
44
0
VERTEX
8
OBJECT__21
10
0
20
0
30
0
70
128
71
44
72
45
73
42
0
VERTEX
8
OBJECT__21
10
0
20
0
30
0
70
128
71
43
72
36
73
46
0
VERTEX
8
OBJECT__21
10
0
20
0
30
0
70
128
71
46
72
44
73
43
0
VERTEX
8
OBJECT__21
10
0
20
0
30
0
70
128
71
36
72
47
73
46
0
VERTEX
8
OBJECT__21
10
0
20
0
30
0
70
128
71
48
72
49
73
50
0
VERTEX
8
OBJECT__21
10
0
20
0
30
0
70
128
71
51
72
52
73
49
0
VERTEX
8
OBJECT__21
10
0
20
0
30
0
70
128
71
42
72
53
73
51
0
VERTEX
8
OBJECT__21
10
0
20
0
30
0
70
128
71
49
72
42
73
51
0
VERTEX
8
OBJECT__21
10
0
20
0
30
0
70
128
71
52
72
50
73
49
0
VERTEX
8
OBJECT__21
10
0
20
0
30
0
70
128
71
54
72
48
73
55
0
VERTEX
8
OBJECT__21
10
0
20
0
30
0
70
128
71
54
72
56
73
57
0
VERTEX
8
OBJECT__21
10
0
20
0
30
0
70
128
71
54
72
58
73
56
0
VERTEX
8
OBJECT__21
10
0
20
0
30
0
70
128
71
57
72
59
73
54
0
VERTEX
8
OBJECT__21
10
0
20
0
30
0
70
128
71
48
72
60
73
55
0
VERTEX
8
OBJECT__21
10
0
20
0
30
0
70
128
71
61
72
62
73
63
0
VERTEX
8
OBJECT__21
10
0
20
0
30
0
70
128
71
63
72
64
73
61
0
VERTEX
8
OBJECT__21
10
0
20
0
30
0
70
128
71
59
72
65
73
66
0
VERTEX
8
OBJECT__21
10
0
20
0
30
0
70
128
71
59
72
57
73
65
0
VERTEX
8
OBJECT__21
10
0
20
0
30
0
70
128
71
66
72
62
73
59
0
VERTEX
8
OBJECT__21
10
0
20
0
30
0
70
128
71
66
72
63
73
62
0
VERTEX
8
OBJECT__21
10
0
20
0
30
0
70
128
71
67
72
68
73
69
0
VERTEX
8
OBJECT__21
10
0
20
0
30
0
70
128
71
67
72
61
73
70
0
VERTEX
8
OBJECT__21
10
0
20
0
30
0
70
128
71
61
72
71
73
70
0
VERTEX
8
OBJECT__21
10
0
20
0
30
0
70
128
71
70
72
68
73
67
0
VERTEX
8
OBJECT__21
10
0
20
0
30
0
70
128
71
69
72
72
73
67
0
VERTEX
8
OBJECT__21
10
0
20
0
30
0
70
128
71
73
72
74
73
75
0
VERTEX
8
OBJECT__21
10
0
20
0
30
0
70
128
71
73
72
76
73
7
0
VERTEX
8
OBJECT__21
10
0
20
0
30
0
70
128
71
7
72
4
73
73
0
VERTEX
8
OBJECT__21
10
0
20
0
30
0
70
128
71
72
72
77
73
74
0
VERTEX
8
OBJECT__21
10
0
20
0
30
0
70
128
71
74
72
73
73
72
0
VERTEX
8
OBJECT__21
10
0
20
0
30
0
70
128
71
75
72
76
73
73
0
VERTEX
8
OBJECT__21
10
0
20
0
30
0
70
128
71
69
72
77
73
72
0
VERTEX
8
OBJECT__21
10
0
20
0
30
0
70
128
71
64
72
71
73
61
0
VERTEX
8
OBJECT__21
10
0
20
0
30
0
70
128
71
55
72
58
73
54
0
VERTEX
8
OBJECT__21
10
0
20
0
30
0
70
128
71
50
72
60
73
48
0
VERTEX
8
OBJECT__21
10
0
20
0
30
0
70
128
71
45
72
53
73
42
0
VERTEX
8
OBJECT__21
10
0
20
0
30
0
70
128
71
38
72
47
73
36
0
VERTEX
8
OBJECT__21
10
0
20
0
30
0
70
128
71
35
72
39
73
30
0
VERTEX
8
OBJECT__21
10
0
20
0
30
0
70
128
71
28
72
34
73
24
0
VERTEX
8
OBJECT__21
10
0
20
0
30
0
70
128
71
20
72
29
73
23
0
VERTEX
8
OBJECT__21
10
0
20
0
30
0
70
128
71
17
72
21
73
15
0
VERTEX
8
OBJECT__21
10
0
20
0
30
0
70
128
71
10
72
11
73
8
0
VERTEX
8
OBJECT__21
10
0
20
0
30
0
70
128
71
1
72
13
73
2
0
SEQEND
8
OBJECT__21
0
POLYLINE
8
OBJECT__22
66
1
70
64
71
13
72
11
62
253
0
VERTEX
8
OBJECT__22
10
62.064999
20
13.009000
30
117.856003
70
192
0
VERTEX
8
OBJECT__22
10
58.455002
20
12.860000
30
112.321999
70
192
0
VERTEX
8
OBJECT__22
10
57.276001
20
12.271000
30
113.125000
70
192
0
VERTEX
8
OBJECT__22
10
59.332001
20
11.782000
30
119.042999
70
192
0
VERTEX
8
OBJECT__22
10
59.713001
20
11.941000
30
118.940002
70
192
0
VERTEX
8
OBJECT__22
10
63.243999
20
13.598000
30
117.053001
70
192
0
VERTEX
8
OBJECT__22
10
64.753998
20
14.433000
30
115.638000
70
192
0
VERTEX
8
OBJECT__22
10
60.806999
20
13.928000
30
111.237999
70
192
0
VERTEX
8
OBJECT__22
10
58.977001
20
13.097000
30
112.082001
70
192
0
VERTEX
8
OBJECT__22
10
65.146004
20
14.650000
30
115.269997
70
192
0
VERTEX
8
OBJECT__22
10
62.546001
20
14.650000
30
110.766998
70
192
0
VERTEX
8
OBJECT__22
10
55.374001
20
11.219000
30
114.907997
70
192
0
VERTEX
8
OBJECT__22
10
57.973999
20
11.219000
30
119.411003
70
192
0
VERTEX
8
OBJECT__22
10
0
20
0
30
0
70
128
71
1
72
2
73
3
0
VERTEX
8
OBJECT__22
10
0
20
0
30
0
70
128
71
3
72
4
73
5
0
VERTEX
8
OBJECT__22
10
0
20
0
30
0
70
128
71
6
72
7
73
8
0
VERTEX
8
OBJECT__22
10
0
20
0
30
0
70
128
71
1
72
9
73
2
0
VERTEX
8
OBJECT__22
10
0
20
0
30
0
70
128
71
9
72
1
73
6
0
VERTEX
8
OBJECT__22
10
0
20
0
30
0
70
128
71
7
72
10
73
11
0
VERTEX
8
OBJECT__22
10
0
20
0
30
0
70
128
71
8
72
9
73
6
0
VERTEX
8
OBJECT__22
10
0
20
0
30
0
70
128
71
3
72
5
73
1
0
VERTEX
8
OBJECT__22
10
0
20
0
30
0
70
128
71
3
72
12
73
13
0
VERTEX
8
OBJECT__22
10
0
20
0
30
0
70
128
71
13
72
4
73
3
0
VERTEX
8
OBJECT__22
10
0
20
0
30
0
70
128
71
11
72
8
73
7
0
SEQEND
8
OBJECT__22
0
POLYLINE
8
OBJECT__23
66
1
70
64
71
67
72
67
62
253
0
VERTEX
8
OBJECT__23
10
70.888000
20
12.903000
30
112.994003
70
192
0
VERTEX
8
OBJECT__23
10
75.596001
20
9.151000
30
110.276001
70
192
0
VERTEX
8
OBJECT__23
10
72.524002
20
12.271000
30
111.695999
70
192
0
VERTEX
8
OBJECT__23
10
75.728996
20
9.748000
30
109.160004
70
192
0
VERTEX
8
OBJECT__23
10
74.426003
20
11.219000
30
109.912003
70
192
0
VERTEX
8
OBJECT__23
10
71.345001
20
12.860000
30
112.498001
70
192
0
VERTEX
8
OBJECT__23
10
65.209000
20
13.699000
30
116.273003
70
192
0
VERTEX
8
OBJECT__23
10
68.992996
20
13.928000
30
113.582001
70
192
0
VERTEX
8
OBJECT__23
10
67.253998
20
14.650000
30
114.053001
70
192
0
VERTEX
8
OBJECT__23
10
65.146004
20
14.650000
30
115.269997
70
192
0
VERTEX
8
OBJECT__23
10
70.822998
20
13.097000
30
112.738998
70
192
0
VERTEX
8
OBJECT__23
10
59.861000
20
11.357000
30
119.361000
70
192
0
VERTEX
8
OBJECT__23
10
62.064999
20
13.009000
30
117.856003
70
192
0
VERTEX
8
OBJECT__23
10
64.753998
20
14.433000
30
115.638000
70
192
0
VERTEX
8
OBJECT__23
10
63.243999
20
13.598000
30
117.053001
70
192
0
VERTEX
8
OBJECT__23
10
59.713001
20
11.941000
30
118.940002
70
192
0
VERTEX
8
OBJECT__23
10
56.484001
20
9.499000
30
120.271004
70
192
0
VERTEX
8
OBJECT__23
10
55.869999
20
6.960000
30
121.310997
70
192
0
VERTEX
8
OBJECT__23
10
59.332001
20
11.782000
30
119.042999
70
192
0
VERTEX
8
OBJECT__23
10
57.973999
20
11.219000
30
119.411003
70
192
0
VERTEX
8
OBJECT__23
10
56.068001
20
6.413000
30
121.551003
70
192
0
VERTEX
8
OBJECT__23
10
54.699001
20
0.000000
30
122.341003
70
192
0
VERTEX
8
OBJECT__23
10
54.368999
20
2.958000
30
122.025002
70
192
0
VERTEX
8
OBJECT__23
10
53.513000
20
1.217000
30
121.987000
70
192
0
VERTEX
8
OBJECT__23
10
55.411999
20
5.537000
30
121.696999
70
192
0
VERTEX
8
OBJECT__23
10
55.733002
20
6.534000
30
121.426003
70
192
0
VERTEX
8
OBJECT__23
10
54.720001
20
-3.756000
30
121.973999
70
192
0
VERTEX
8
OBJECT__23
10
55.283001
20
-5.178000
30
121.771004
70
192
0
VERTEX
8
OBJECT__23
10
53.469002
20
0.000000
30
122.012001
70
192
0
VERTEX
8
OBJECT__23
10
53.513000
20
-1.217000
30
121.987000
70
192
0
VERTEX
8
OBJECT__23
10
56.068001
20
-6.413000
30
121.551003
70
192
0
VERTEX
8
OBJECT__23
10
59.861000
20
-11.357000
30
119.361000
70
192
0
VERTEX
8
OBJECT__23
10
56.090000
20
-7.757000
30
121.030998
70
192
0
VERTEX
8
OBJECT__23
10
56.484001
20
-9.499000
30
120.271004
70
192
0
VERTEX
8
OBJECT__23
10
57.973999
20
-11.219000
30
119.411003
70
192
0
VERTEX
8
OBJECT__23
10
55.709000
20
-6.539000
30
121.380997
70
192
0
VERTEX
8
OBJECT__23
10
65.209000
20
-13.699000
30
116.273003
70
192
0
VERTEX
8
OBJECT__23
10
61.754002
20
-12.860000
30
118.035004
70
192
0
VERTEX
8
OBJECT__23
10
59.300999
20
-11.779000
30
119.009003
70
192
0
VERTEX
8
OBJECT__23
10
60.469002
20
-12.271000
30
118.654999
70
192
0
VERTEX
8
OBJECT__23
10
63.868999
20
-13.928000
30
116.540001
70
192
0
VERTEX
8
OBJECT__23
10
70.888000
20
-12.903000
30
112.994003
70
192
0
VERTEX
8
OBJECT__23
10
69.749001
20
-13.598000
30
113.297997
70
192
0
VERTEX
8
OBJECT__23
10
64.759003
20
-14.431000
30
115.654999
70
192
0
VERTEX
8
OBJECT__23
10
65.146004
20
-14.650000
30
115.269997
70
192
0
VERTEX
8
OBJECT__23
10
67.253998
20
-14.650000
30
114.053001
70
192
0
VERTEX
8
OBJECT__23
10
75.596001
20
-9.151000
30
110.276001
70
192
0
VERTEX
8
OBJECT__23
10
73.148003
20
-11.941000
30
111.182999
70
192
0
VERTEX
8
OBJECT__23
10
74.426003
20
-11.219000
30
109.912003
70
192
0
VERTEX
8
OBJECT__23
10
71.032997
20
-13.009000
30
112.678001
70
192
0
VERTEX
8
OBJECT__23
10
70.843002
20
-13.096000
30
112.769997
70
192
0
VERTEX
8
OBJECT__23
10
78.253998
20
-3.303000
30
108.741997
70
192
0
VERTEX
8
OBJECT__23
10
77.685997
20
-5.537000
30
108.836998
70
192
0
VERTEX
8
OBJECT__23
10
75.728996
20
-9.748000
30
109.160004
70
192
0
VERTEX
8
OBJECT__23
10
75.916000
20
-9.499000
30
109.052002
70
192
0
VERTEX
8
OBJECT__23
10
77.123001
20
-6.960000
30
109.040001
70
192
0
VERTEX
8
OBJECT__23
10
78.600998
20
0.000000
30
108.541000
70
192
0
VERTEX
8
OBJECT__23
10
78.492996
20
-2.958000
30
108.097000
70
192
0
VERTEX
8
OBJECT__23
10
78.887001
20
-1.217000
30
107.336998
70
192
0
VERTEX
8
OBJECT__23
10
78.360001
20
-3.384000
30
108.219002
70
192
0
VERTEX
8
OBJECT__23
10
78.253998
20
3.303000
30
108.741997
70
192
0
VERTEX
8
OBJECT__23
10
78.887001
20
1.217000
30
107.336998
70
192
0
VERTEX
8
OBJECT__23
10
78.362999
20
3.384000
30
108.223999
70
192
0
VERTEX
8
OBJECT__23
10
76.771004
20
7.757000
30
109.091003
70
192
0
VERTEX
8
OBJECT__23
10
75.916000
20
9.499000
30
109.052002
70
192
0
VERTEX
8
OBJECT__23
10
77.815002
20
5.178000
30
108.762001
70
192
0
VERTEX
8
OBJECT__23
10
78.273003
20
3.756000
30
108.375999
70
192
0
VERTEX
8
OBJECT__23
10
0
20
0
30
0
70
128
71
1
72
2
73
3
0
VERTEX
8
OBJECT__23
10
0
20
0
30
0
70
128
71
2
72
4
73
5
0
VERTEX
8
OBJECT__23
10
0
20
0
30
0
70
128
71
5
72
3
73
2
0
VERTEX
8
OBJECT__23
10
0
20
0
30
0
70
128
71
3
72
6
73
1
0
VERTEX
8
OBJECT__23
10
0
20
0
30
0
70
128
71
7
72
8
73
9
0
VERTEX
8
OBJECT__23
10
0
20
0
30
0
70
128
71
9
72
10
73
7
0
VERTEX
8
OBJECT__23
10
0
20
0
30
0
70
128
71
1
72
11
73
8
0
VERTEX
8
OBJECT__23
10
0
20
0
30
0
70
128
71
8
72
7
73
1
0
VERTEX
8
OBJECT__23
10
0
20
0
30
0
70
128
71
12
72
7
73
13
0
VERTEX
8
OBJECT__23
10
0
20
0
30
0
70
128
71
7
72
14
73
15
0
VERTEX
8
OBJECT__23
10
0
20
0
30
0
70
128
71
15
72
13
73
7
0
VERTEX
8
OBJECT__23
10
0
20
0
30
0
70
128
71
13
72
16
73
12
0
VERTEX
8
OBJECT__23
10
0
20
0
30
0
70
128
71
12
72
17
73
18
0
VERTEX
8
OBJECT__23
10
0
20
0
30
0
70
128
71
12
72
19
73
20
0
VERTEX
8
OBJECT__23
10
0
20
0
30
0
70
128
71
20
72
17
73
12
0
VERTEX
8
OBJECT__23
10
0
20
0
30
0
70
128
71
18
72
21
73
12
0
VERTEX
8
OBJECT__23
10
0
20
0
30
0
70
128
71
22
72
23
73
24
0
VERTEX
8
OBJECT__23
10
0
20
0
30
0
70
128
71
22
72
21
73
25
0
VERTEX
8
OBJECT__23
10
0
20
0
30
0
70
128
71
21
72
26
73
25
0
VERTEX
8
OBJECT__23
10
0
20
0
30
0
70
128
71
25
72
23
73
22
0
VERTEX
8
OBJECT__23
10
0
20
0
30
0
70
128
71
22
72
27
73
28
0
VERTEX
8
OBJECT__23
10
0
20
0
30
0
70
128
71
22
72
29
73
30
0
VERTEX
8
OBJECT__23
10
0
20
0
30
0
70
128
71
30
72
27
73
22
0
VERTEX
8
OBJECT__23
10
0
20
0
30
0
70
128
71
28
72
31
73
22
0
VERTEX
8
OBJECT__23
10
0
20
0
30
0
70
128
71
32
72
33
73
34
0
VERTEX
8
OBJECT__23
10
0
20
0
30
0
70
128
71
34
72
35
73
32
0
VERTEX
8
OBJECT__23
10
0
20
0
30
0
70
128
71
31
72
36
73
33
0
VERTEX
8
OBJECT__23
10
0
20
0
30
0
70
128
71
33
72
32
73
31
0
VERTEX
8
OBJECT__23
10
0
20
0
30
0
70
128
71
37
72
32
73
38
0
VERTEX
8
OBJECT__23
10
0
20
0
30
0
70
128
71
32
72
39
73
40
0
VERTEX
8
OBJECT__23
10
0
20
0
30
0
70
128
71
40
72
38
73
32
0
VERTEX
8
OBJECT__23
10
0
20
0
30
0
70
128
71
38
72
41
73
37
0
VERTEX
8
OBJECT__23
10
0
20
0
30
0
70
128
71
42
72
37
73
43
0
VERTEX
8
OBJECT__23
10
0
20
0
30
0
70
128
71
37
72
44
73
45
0
VERTEX
8
OBJECT__23
10
0
20
0
30
0
70
128
71
45
72
46
73
37
0
VERTEX
8
OBJECT__23
10
0
20
0
30
0
70
128
71
46
72
43
73
37
0
VERTEX
8
OBJECT__23
10
0
20
0
30
0
70
128
71
47
72
48
73
49
0
VERTEX
8
OBJECT__23
10
0
20
0
30
0
70
128
71
42
72
50
73
48
0
VERTEX
8
OBJECT__23
10
0
20
0
30
0
70
128
71
48
72
47
73
42
0
VERTEX
8
OBJECT__23
10
0
20
0
30
0
70
128
71
42
72
51
73
50
0
VERTEX
8
OBJECT__23
10
0
20
0
30
0
70
128
71
52
72
47
73
53
0
VERTEX
8
OBJECT__23
10
0
20
0
30
0
70
128
71
47
72
54
73
55
0
VERTEX
8
OBJECT__23
10
0
20
0
30
0
70
128
71
55
72
56
73
47
0
VERTEX
8
OBJECT__23
10
0
20
0
30
0
70
128
71
56
72
53
73
47
0
VERTEX
8
OBJECT__23
10
0
20
0
30
0
70
128
71
57
72
52
73
58
0
VERTEX
8
OBJECT__23
10
0
20
0
30
0
70
128
71
58
72
59
73
57
0
VERTEX
8
OBJECT__23
10
0
20
0
30
0
70
128
71
52
72
60
73
58
0
VERTEX
8
OBJECT__23
10
0
20
0
30
0
70
128
71
61
72
57
73
62
0
VERTEX
8
OBJECT__23
10
0
20
0
30
0
70
128
71
62
72
63
73
61
0
VERTEX
8
OBJECT__23
10
0
20
0
30
0
70
128
71
2
72
64
73
65
0
VERTEX
8
OBJECT__23
10
0
20
0
30
0
70
128
71
2
72
61
73
66
0
VERTEX
8
OBJECT__23
10
0
20
0
30
0
70
128
71
61
72
63
73
67
0
VERTEX
8
OBJECT__23
10
0
20
0
30
0
70
128
71
67
72
66
73
61
0
VERTEX
8
OBJECT__23
10
0
20
0
30
0
70
128
71
66
72
64
73
2
0
VERTEX
8
OBJECT__23
10
0
20
0
30
0
70
128
71
65
72
4
73
2
0
VERTEX
8
OBJECT__23
10
0
20
0
30
0
70
128
71
59
72
62
73
57
0
VERTEX
8
OBJECT__23
10
0
20
0
30
0
70
128
71
53
72
60
73
52
0
VERTEX
8
OBJECT__23
10
0
20
0
30
0
70
128
71
49
72
54
73
47
0
VERTEX
8
OBJECT__23
10
0
20
0
30
0
70
128
71
43
72
51
73
42
0
VERTEX
8
OBJECT__23
10
0
20
0
30
0
70
128
71
41
72
44
73
37
0
VERTEX
8
OBJECT__23
10
0
20
0
30
0
70
128
71
35
72
39
73
32
0
VERTEX
8
OBJECT__23
10
0
20
0
30
0
70
128
71
28
72
36
73
31
0
VERTEX
8
OBJECT__23
10
0
20
0
30
0
70
128
71
24
72
29
73
22
0
VERTEX
8
OBJECT__23
10
0
20
0
30
0
70
128
71
18
72
26
73
21
0
VERTEX
8
OBJECT__23
10
0
20
0
30
0
70
128
71
16
72
19
73
12
0
VERTEX
8
OBJECT__23
10
0
20
0
30
0
70
128
71
10
72
14
73
7
0
VERTEX
8
OBJECT__23
10
0
20
0
30
0
70
128
71
6
72
11
73
1
0
SEQEND
8
OBJECT__23
0
POLYLINE
8
OBJECT__24
66
1
70
64
71
12
72
10
62
253
0
VERTEX
8
OBJECT__24
10
55.869999
20
6.960000
30
121.310997
70
192
0
VERTEX
8
OBJECT__24
10
56.484001
20
9.499000
30
120.271004
70
192
0
VERTEX
8
OBJECT__24
10
53.883999
20
9.499000
30
115.767998
70
192
0
VERTEX
8
OBJECT__24
10
51.437000
20
3.384000
30
116.596001
70
192
0
VERTEX
8
OBJECT__24
10
50.912998
20
1.217000
30
117.483002
70
192
0
VERTEX
8
OBJECT__24
10
53.513000
20
1.217000
30
121.987000
70
192
0
VERTEX
8
OBJECT__24
10
51.985001
20
5.178000
30
116.057999
70
192
0
VERTEX
8
OBJECT__24
10
51.527000
20
3.756000
30
116.444000
70
192
0
VERTEX
8
OBJECT__24
10
55.411999
20
5.537000
30
121.696999
70
192
0
VERTEX
8
OBJECT__24
10
53.028999
20
7.757000
30
115.728996
70
192
0
VERTEX
8
OBJECT__24
10
54.368999
20
2.958000
30
122.025002
70
192
0
VERTEX
8
OBJECT__24
10
55.733002
20
6.534000
30
121.426003
70
192
0
VERTEX
8
OBJECT__24
10
0
20
0
30
0
70
128
71
1
72
2
73
3
0
VERTEX
8
OBJECT__24
10
0
20
0
30
0
70
128
71
4
72
5
73
6
0
VERTEX
8
OBJECT__24
10
0
20
0
30
0
70
128
71
7
72
8
73
9
0
VERTEX
8
OBJECT__24
10
0
20
0
30
0
70
128
71
3
72
10
73
1
0
VERTEX
8
OBJECT__24
10
0
20
0
30
0
70
128
71
6
72
11
73
4
0
VERTEX
8
OBJECT__24
10
0
20
0
30
0
70
128
71
9
72
12
73
7
0
VERTEX
8
OBJECT__24
10
0
20
0
30
0
70
128
71
7
72
12
73
1
0
VERTEX
8
OBJECT__24
10
0
20
0
30
0
70
128
71
8
72
4
73
9
0
VERTEX
8
OBJECT__24
10
0
20
0
30
0
70
128
71
11
72
9
73
4
0
VERTEX
8
OBJECT__24
10
0
20
0
30
0
70
128
71
10
72
7
73
1
0
SEQEND
8
OBJECT__24
0
POLYLINE
8
OBJECT__25
66
1
70
64
71
12
72
10
62
253
0
VERTEX
8
OBJECT__25
10
52.113998
20
-5.537000
30
115.983002
70
192
0
VERTEX
8
OBJECT__25
10
55.283001
20
-5.178000
30
121.771004
70
192
0
VERTEX
8
OBJECT__25
10
54.720001
20
-3.756000
30
121.973999
70
192
0
VERTEX
8
OBJECT__25
10
53.513000
20
-1.217000
30
121.987000
70
192
0
VERTEX
8
OBJECT__25
10
50.912998
20
-1.217000
30
117.483002
70
192
0
VERTEX
8
OBJECT__25
10
52.676998
20
-6.960000
30
115.779999
70
192
0
VERTEX
8
OBJECT__25
10
53.883999
20
-9.499000
30
115.767998
70
192
0
VERTEX
8
OBJECT__25
10
56.484001
20
-9.499000
30
120.271004
70
192
0
VERTEX
8
OBJECT__25
10
55.709000
20
-6.539000
30
121.380997
70
192
0
VERTEX
8
OBJECT__25
10
51.306999
20
-2.958000
30
116.723000
70
192
0
VERTEX
8
OBJECT__25
10
56.090000
20
-7.757000
30
121.030998
70
192
0
VERTEX
8
OBJECT__25
10
51.439999
20
-3.384000
30
116.600998
70
192
0
VERTEX
8
OBJECT__25
10
0
20
0
30
0
70
128
71
1
72
2
73
3
0
VERTEX
8
OBJECT__25
10
0
20
0
30
0
70
128
71
3
72
4
73
5
0
VERTEX
8
OBJECT__25
10
0
20
0
30
0
70
128
71
6
72
7
73
8
0
VERTEX
8
OBJECT__25
10
0
20
0
30
0
70
128
71
1
72
9
73
2
0
VERTEX
8
OBJECT__25
10
0
20
0
30
0
70
128
71
5
72
10
73
3
0
VERTEX
8
OBJECT__25
10
0
20
0
30
0
70
128
71
8
72
11
73
6
0
VERTEX
8
OBJECT__25
10
0
20
0
30
0
70
128
71
10
72
12
73
3
0
VERTEX
8
OBJECT__25
10
0
20
0
30
0
70
128
71
9
72
1
73
6
0
VERTEX
8
OBJECT__25
10
0
20
0
30
0
70
128
71
11
72
9
73
6
0
VERTEX
8
OBJECT__25
10
0
20
0
30
0
70
128
71
3
72
12
73
1
0
SEQEND
8
OBJECT__25
0
POLYLINE
8
OBJECT__26
66
1
70
64
71
13
72
11
62
253
0
VERTEX
8
OBJECT__26
10
61.754002
20
-12.860000
30
118.035004
70
192
0
VERTEX
8
OBJECT__26
10
58.957001
20
-13.096000
30
112.050003
70
192
0
VERTEX
8
OBJECT__26
10
60.050999
20
-13.598000
30
111.523003
70
192
0
VERTEX
8
OBJECT__26
10
60.469002
20
-12.271000
30
118.654999
70
192
0
VERTEX
8
OBJECT__26
10
59.300999
20
-11.779000
30
119.009003
70
192
0
VERTEX
8
OBJECT__26
10
56.652000
20
-11.941000
30
113.637001
70
192
0
VERTEX
8
OBJECT__26
10
58.766998
20
-13.009000
30
112.141998
70
192
0
VERTEX
8
OBJECT__26
10
64.759003
20
-14.431000
30
115.654999
70
192
0
VERTEX
8
OBJECT__26
10
63.868999
20
-13.928000
30
116.540001
70
192
0
VERTEX
8
OBJECT__26
10
57.973999
20
-11.219000
30
119.411003
70
192
0
VERTEX
8
OBJECT__26
10
55.374001
20
-11.219000
30
114.907997
70
192
0
VERTEX
8
OBJECT__26
10
62.546001
20
-14.650000
30
110.766998
70
192
0
VERTEX
8
OBJECT__26
10
65.146004
20
-14.650000
30
115.269997
70
192
0
VERTEX
8
OBJECT__26
10
0
20
0
30
0
70
128
71
1
72
2
73
3
0
VERTEX
8
OBJECT__26
10
0
20
0
30
0
70
128
71
4
72
5
73
6
0
VERTEX
8
OBJECT__26
10
0
20
0
30
0
70
128
71
1
72
4
73
7
0
VERTEX
8
OBJECT__26
10
0
20
0
30
0
70
128
71
3
72
8
73
9
0
VERTEX
8
OBJECT__26
10
0
20
0
30
0
70
128
71
7
72
2
73
1
0
VERTEX
8
OBJECT__26
10
0
20
0
30
0
70
128
71
5
72
10
73
11
0
VERTEX
8
OBJECT__26
10
0
20
0
30
0
70
128
71
6
72
7
73
4
0
VERTEX
8
OBJECT__26
10
0
20
0
30
0
70
128
71
3
72
9
73
1
0
VERTEX
8
OBJECT__26
10
0
20
0
30
0
70
128
71
3
72
12
73
13
0
VERTEX
8
OBJECT__26
10
0
20
0
30
0
70
128
71
13
72
8
73
3
0
VERTEX
8
OBJECT__26
10
0
20
0
30
0
70
128
71
11
72
6
73
5
0
SEQEND
8
OBJECT__26
0
POLYLINE
8
OBJECT__27
66
1
70
64
71
13
72
11
62
253
0
VERTEX
8
OBJECT__27
10
68.045998
20
-12.860000
30
106.785004
70
192
0
VERTEX
8
OBJECT__27
10
70.843002
20
-13.096000
30
112.769997
70
192
0
VERTEX
8
OBJECT__27
10
69.749001
20
-13.598000
30
113.297997
70
192
0
VERTEX
8
OBJECT__27
10
65.041000
20
-14.431000
30
109.165001
70
192
0
VERTEX
8
OBJECT__27
10
65.931000
20
-13.928000
30
108.279999
70
192
0
VERTEX
8
OBJECT__27
10
67.253998
20
-14.650000
30
114.053001
70
192
0
VERTEX
8
OBJECT__27
10
64.653999
20
-14.650000
30
109.550003
70
192
0
VERTEX
8
OBJECT__27
10
69.331001
20
-12.271000
30
106.165001
70
192
0
VERTEX
8
OBJECT__27
10
70.499001
20
-11.779000
30
105.810997
70
192
0
VERTEX
8
OBJECT__27
10
73.148003
20
-11.941000
30
111.182999
70
192
0
VERTEX
8
OBJECT__27
10
71.032997
20
-13.009000
30
112.678001
70
192
0
VERTEX
8
OBJECT__27
10
71.825996
20
-11.219000
30
105.408997
70
192
0
VERTEX
8
OBJECT__27
10
74.426003
20
-11.219000
30
109.912003
70
192
0
VERTEX
8
OBJECT__27
10
0
20
0
30
0
70
128
71
1
72
2
73
3
0
VERTEX
8
OBJECT__27
10
0
20
0
30
0
70
128
71
3
72
4
73
5
0
VERTEX
8
OBJECT__27
10
0
20
0
30
0
70
128
71
3
72
6
73
7
0
VERTEX
8
OBJECT__27
10
0
20
0
30
0
70
128
71
8
72
9
73
10
0
VERTEX
8
OBJECT__27
10
0
20
0
30
0
70
128
71
1
72
8
73
11
0
VERTEX
8
OBJECT__27
10
0
20
0
30
0
70
128
71
7
72
4
73
3
0
VERTEX
8
OBJECT__27
10
0
20
0
30
0
70
128
71
11
72
2
73
1
0
VERTEX
8
OBJECT__27
10
0
20
0
30
0
70
128
71
9
72
12
73
13
0
VERTEX
8
OBJECT__27
10
0
20
0
30
0
70
128
71
10
72
11
73
8
0
VERTEX
8
OBJECT__27
10
0
20
0
30
0
70
128
71
3
72
5
73
1
0
VERTEX
8
OBJECT__27
10
0
20
0
30
0
70
128
71
13
72
10
73
9
0
SEQEND
8
OBJECT__27
0
POLYLINE
8
OBJECT__28
66
1
70
64
71
12
72
10
62
253
0
VERTEX
8
OBJECT__28
10
77.123001
20
-6.960000
30
109.040001
70
192
0
VERTEX
8
OBJECT__28
10
75.916000
20
-9.499000
30
109.052002
70
192
0
VERTEX
8
OBJECT__28
10
73.316002
20
-9.499000
30
104.549004
70
192
0
VERTEX
8
OBJECT__28
10
77.685997
20
-5.537000
30
108.836998
70
192
0
VERTEX
8
OBJECT__28
10
74.516998
20
-5.178000
30
103.049004
70
192
0
VERTEX
8
OBJECT__28
10
75.080002
20
-3.756000
30
102.846001
70
192
0
VERTEX
8
OBJECT__28
10
73.709999
20
-7.757000
30
103.789001
70
192
0
VERTEX
8
OBJECT__28
10
74.091003
20
-6.539000
30
103.439003
70
192
0
VERTEX
8
OBJECT__28
10
76.287003
20
-1.217000
30
102.834000
70
192
0
VERTEX
8
OBJECT__28
10
78.887001
20
-1.217000
30
107.336998
70
192
0
VERTEX
8
OBJECT__28
10
78.492996
20
-2.958000
30
108.097000
70
192
0
VERTEX
8
OBJECT__28
10
78.360001
20
-3.384000
30
108.219002
70
192
0
VERTEX
8
OBJECT__28
10
0
20
0
30
0
70
128
71
1
72
2
73
3
0
VERTEX
8
OBJECT__28
10
0
20
0
30
0
70
128
71
4
72
5
73
6
0
VERTEX
8
OBJECT__28
10
0
20
0
30
0
70
128
71
3
72
7
73
1
0
VERTEX
8
OBJECT__28
10
0
20
0
30
0
70
128
71
4
72
8
73
5
0
VERTEX
8
OBJECT__28
10
0
20
0
30
0
70
128
71
8
72
4
73
1
0
VERTEX
8
OBJECT__28
10
0
20
0
30
0
70
128
71
6
72
9
73
10
0
VERTEX
8
OBJECT__28
10
0
20
0
30
0
70
128
71
7
72
8
73
1
0
VERTEX
8
OBJECT__28
10
0
20
0
30
0
70
128
71
10
72
11
73
6
0
VERTEX
8
OBJECT__28
10
0
20
0
30
0
70
128
71
11
72
12
73
6
0
VERTEX
8
OBJECT__28
10
0
20
0
30
0
70
128
71
6
72
12
73
4
0
SEQEND
8
OBJECT__28
0
POLYLINE
8
OBJECT__29
66
1
70
64
71
12
72
10
62
253
0
VERTEX
8
OBJECT__29
10
73.930000
20
6.960000
30
103.509003
70
192
0
VERTEX
8
OBJECT__29
10
73.316002
20
9.499000
30
104.549004
70
192
0
VERTEX
8
OBJECT__29
10
75.916000
20
9.499000
30
109.052002
70
192
0
VERTEX
8
OBJECT__29
10
76.771004
20
7.757000
30
109.091003
70
192
0
VERTEX
8
OBJECT__29
10
77.815002
20
5.178000
30
108.762001
70
192
0
VERTEX
8
OBJECT__29
10
78.273003
20
3.756000
30
108.375999
70
192
0
VERTEX
8
OBJECT__29
10
74.388000
20
5.537000
30
103.123001
70
192
0
VERTEX
8
OBJECT__29
10
78.362999
20
3.384000
30
108.223999
70
192
0
VERTEX
8
OBJECT__29
10
78.887001
20
1.217000
30
107.336998
70
192
0
VERTEX
8
OBJECT__29
10
76.287003
20
1.217000
30
102.834000
70
192
0
VERTEX
8
OBJECT__29
10
74.067001
20
6.534000
30
103.393997
70
192
0
VERTEX
8
OBJECT__29
10
75.431000
20
2.958000
30
102.794998
70
192
0
VERTEX
8
OBJECT__29
10
0
20
0
30
0
70
128
71
1
72
2
73
3
0
VERTEX
8
OBJECT__29
10
0
20
0
30
0
70
128
71
3
72
4
73
1
0
VERTEX
8
OBJECT__29
10
0
20
0
30
0
70
128
71
5
72
6
73
7
0
VERTEX
8
OBJECT__29
10
0
20
0
30
0
70
128
71
8
72
9
73
10
0
VERTEX
8
OBJECT__29
10
0
20
0
30
0
70
128
71
5
72
11
73
1
0
VERTEX
8
OBJECT__29
10
0
20
0
30
0
70
128
71
7
72
11
73
5
0
VERTEX
8
OBJECT__29
10
0
20
0
30
0
70
128
71
10
72
12
73
8
0
VERTEX
8
OBJECT__29
10
0
20
0
30
0
70
128
71
6
72
8
73
7
0
VERTEX
8
OBJECT__29
10
0
20
0
30
0
70
128
71
4
72
5
73
1
0
VERTEX
8
OBJECT__29
10
0
20
0
30
0
70
128
71
12
72
7
73
8
0
SEQEND
8
OBJECT__29
0
POLYLINE
8
OBJECT__30
66
1
70
64
71
13
72
11
62
253
0
VERTEX
8
OBJECT__30
10
67.735001
20
13.009000
30
106.964996
70
192
0
VERTEX
8
OBJECT__30
10
71.345001
20
12.860000
30
112.498001
70
192
0
VERTEX
8
OBJECT__30
10
72.524002
20
12.271000
30
111.695999
70
192
0
VERTEX
8
OBJECT__30
10
70.468002
20
11.782000
30
105.777000
70
192
0
VERTEX
8
OBJECT__30
10
70.086998
20
11.941000
30
105.880997
70
192
0
VERTEX
8
OBJECT__30
10
66.556000
20
13.598000
30
107.766998
70
192
0
VERTEX
8
OBJECT__30
10
65.045998
20
14.433000
30
109.181999
70
192
0
VERTEX
8
OBJECT__30
10
68.992996
20
13.928000
30
113.582001
70
192
0
VERTEX
8
OBJECT__30
10
70.822998
20
13.097000
30
112.738998
70
192
0
VERTEX
8
OBJECT__30
10
74.426003
20
11.219000
30
109.912003
70
192
0
VERTEX
8
OBJECT__30
10
71.825996
20
11.219000
30
105.408997
70
192
0
VERTEX
8
OBJECT__30
10
64.653999
20
14.650000
30
109.550003
70
192
0
VERTEX
8
OBJECT__30
10
67.253998
20
14.650000
30
114.053001
70
192
0
VERTEX
8
OBJECT__30
10
0
20
0
30
0
70
128
71
1
72
2
73
3
0
VERTEX
8
OBJECT__30
10
0
20
0
30
0
70
128
71
3
72
4
73
5
0
VERTEX
8
OBJECT__30
10
0
20
0
30
0
70
128
71
6
72
7
73
8
0
VERTEX
8
OBJECT__30
10
0
20
0
30
0
70
128
71
1
72
9
73
2
0
VERTEX
8
OBJECT__30
10
0
20
0
30
0
70
128
71
9
72
1
73
6
0
VERTEX
8
OBJECT__30
10
0
20
0
30
0
70
128
71
8
72
9
73
6
0
VERTEX
8
OBJECT__30
10
0
20
0
30
0
70
128
71
3
72
10
73
11
0
VERTEX
8
OBJECT__30
10
0
20
0
30
0
70
128
71
7
72
12
73
13
0
VERTEX
8
OBJECT__30
10
0
20
0
30
0
70
128
71
11
72
4
73
3
0
VERTEX
8
OBJECT__30
10
0
20
0
30
0
70
128
71
3
72
5
73
1
0
VERTEX
8
OBJECT__30
10
0
20
0
30
0
70
128
71
13
72
8
73
7
0
SEQEND
8
OBJECT__30
0
POLYLINE
8
OBJECT__31
66
1
70
64
71
4
72
2
62
253
0
VERTEX
8
OBJECT__31
10
65.146004
20
14.650000
30
115.269997
70
192
0
VERTEX
8
OBJECT__31
10
67.253998
20
14.650000
30
114.053001
70
192
0
VERTEX
8
OBJECT__31
10
64.653999
20
14.650000
30
109.550003
70
192
0
VERTEX
8
OBJECT__31
10
62.546001
20
14.650000
30
110.766998
70
192
0
VERTEX
8
OBJECT__31
10
0
20
0
30
0
70
128
71
1
72
2
73
3
0
VERTEX
8
OBJECT__31
10
0
20
0
30
0
70
128
71
3
72
4
73
1
0
SEQEND
8
OBJECT__31
0
POLYLINE
8
OBJECT__32
66
1
70
64
71
5
72
3
62
253
0
VERTEX
8
OBJECT__32
10
71.825996
20
11.219000
30
105.408997
70
192
0
VERTEX
8
OBJECT__32
10
74.426003
20
11.219000
30
109.912003
70
192
0
VERTEX
8
OBJECT__32
10
75.728996
20
9.748000
30
109.160004
70
192
0
VERTEX
8
OBJECT__32
10
73.316002
20
9.499000
30
104.549004
70
192
0
VERTEX
8
OBJECT__32
10
75.916000
20
9.499000
30
109.052002
70
192
0
VERTEX
8
OBJECT__32
10
0
20
0
30
0
70
128
71
1
72
2
73
3
0
VERTEX
8
OBJECT__32
10
0
20
0
30
0
70
128
71
3
72
4
73
1
0
VERTEX
8
OBJECT__32
10
0
20
0
30
0
70
128
71
3
72
5
73
4
0
SEQEND
8
OBJECT__32
0
POLYLINE
8
OBJECT__33
66
1
70
64
71
5
72
3
62
253
0
VERTEX
8
OBJECT__33
10
78.887001
20
-1.217000
30
107.336998
70
192
0
VERTEX
8
OBJECT__33
10
76.287003
20
-1.217000
30
102.834000
70
192
0
VERTEX
8
OBJECT__33
10
76.331001
20
0.000000
30
102.807999
70
192
0
VERTEX
8
OBJECT__33
10
78.887001
20
1.217000
30
107.336998
70
192
0
VERTEX
8
OBJECT__33
10
76.287003
20
1.217000
30
102.834000
70
192
0
VERTEX
8
OBJECT__33
10
0
20
0
30
0
70
128
71
1
72
2
73
3
0
VERTEX
8
OBJECT__33
10
0
20
0
30
0
70
128
71
3
72
4
73
1
0
VERTEX
8
OBJECT__33
10
0
20
0
30
0
70
128
71
3
72
5
73
4
0
SEQEND
8
OBJECT__33
0
POLYLINE
8
OBJECT__34
66
1
70
64
71
5
72
3
62
253
0
VERTEX
8
OBJECT__34
10
71.825996
20
-11.219000
30
105.408997
70
192
0
VERTEX
8
OBJECT__34
10
73.316002
20
-9.499000
30
104.549004
70
192
0
VERTEX
8
OBJECT__34
10
75.728996
20
-9.748000
30
109.160004
70
192
0
VERTEX
8
OBJECT__34
10
75.916000
20
-9.499000
30
109.052002
70
192
0
VERTEX
8
OBJECT__34
10
74.426003
20
-11.219000
30
109.912003
70
192
0
VERTEX
8
OBJECT__34
10
0
20
0
30
0
70
128
71
1
72
2
73
3
0
VERTEX
8
OBJECT__34
10
0
20
0
30
0
70
128
71
2
72
4
73
3
0
VERTEX
8
OBJECT__34
10
0
20
0
30
0
70
128
71
3
72
5
73
1
0
SEQEND
8
OBJECT__34
0
POLYLINE
8
OBJECT__35
66
1
70
64
71
4
72
2
62
253
0
VERTEX
8
OBJECT__35
10
67.253998
20
-14.650000
30
114.053001
70
192
0
VERTEX
8
OBJECT__35
10
65.146004
20
-14.650000
30
115.269997
70
192
0
VERTEX
8
OBJECT__35
10
62.546001
20
-14.650000
30
110.766998
70
192
0
VERTEX
8
OBJECT__35
10
64.653999
20
-14.650000
30
109.550003
70
192
0
VERTEX
8
OBJECT__35
10
0
20
0
30
0
70
128
71
1
72
2
73
3
0
VERTEX
8
OBJECT__35
10
0
20
0
30
0
70
128
71
3
72
4
73
1
0
SEQEND
8
OBJECT__35
0
POLYLINE
8
OBJECT__36
66
1
70
64
71
5
72
3
62
253
0
VERTEX
8
OBJECT__36
10
57.973999
20
-11.219000
30
119.411003
70
192
0
VERTEX
8
OBJECT__36
10
56.484001
20
-9.499000
30
120.271004
70
192
0
VERTEX
8
OBJECT__36
10
54.070999
20
-9.748000
30
115.660004
70
192
0
VERTEX
8
OBJECT__36
10
53.883999
20
-9.499000
30
115.767998
70
192
0
VERTEX
8
OBJECT__36
10
55.374001
20
-11.219000
30
114.907997
70
192
0
VERTEX
8
OBJECT__36
10
0
20
0
30
0
70
128
71
1
72
2
73
3
0
VERTEX
8
OBJECT__36
10
0
20
0
30
0
70
128
71
2
72
4
73
3
0
VERTEX
8
OBJECT__36
10
0
20
0
30
0
70
128
71
3
72
5
73
1
0
SEQEND
8
OBJECT__36
0
POLYLINE
8
OBJECT__37
66
1
70
64
71
5
72
3
62
253
0
VERTEX
8
OBJECT__37
10
50.912998
20
-1.217000
30
117.483002
70
192
0
VERTEX
8
OBJECT__37
10
53.513000
20
-1.217000
30
121.987000
70
192
0
VERTEX
8
OBJECT__37
10
53.469002
20
0.000000
30
122.012001
70
192
0
VERTEX
8
OBJECT__37
10
50.912998
20
1.217000
30
117.483002
70
192
0
VERTEX
8
OBJECT__37
10
53.513000
20
1.217000
30
121.987000
70
192
0
VERTEX
8
OBJECT__37
10
0
20
0
30
0
70
128
71
1
72
2
73
3
0
VERTEX
8
OBJECT__37
10
0
20
0
30
0
70
128
71
3
72
4
73
1
0
VERTEX
8
OBJECT__37
10
0
20
0
30
0
70
128
71
3
72
5
73
4
0
SEQEND
8
OBJECT__37
0
POLYLINE
8
OBJECT__38
66
1
70
64
71
5
72
3
62
253
0
VERTEX
8
OBJECT__38
10
57.973999
20
11.219000
30
119.411003
70
192
0
VERTEX
8
OBJECT__38
10
55.374001
20
11.219000
30
114.907997
70
192
0
VERTEX
8
OBJECT__38
10
54.070999
20
9.748000
30
115.660004
70
192
0
VERTEX
8
OBJECT__38
10
56.484001
20
9.499000
30
120.271004
70
192
0
VERTEX
8
OBJECT__38
10
53.883999
20
9.499000
30
115.767998
70
192
0
VERTEX
8
OBJECT__38
10
0
20
0
30
0
70
128
71
1
72
2
73
3
0
VERTEX
8
OBJECT__38
10
0
20
0
30
0
70
128
71
3
72
4
73
1
0
VERTEX
8
OBJECT__38
10
0
20
0
30
0
70
128
71
3
72
5
73
4
0
SEQEND
8
OBJECT__38
0
POLYLINE
8
OBJECT__39
66
1
70
64
71
11
72
9
62
253
0
VERTEX
8
OBJECT__39
10
103.627998
20
7.040000
30
47.592999
70
192
0
VERTEX
8
OBJECT__39
10
119.322998
20
7.040000
30
51.799000
70
192
0
VERTEX
8
OBJECT__39
10
121.752998
20
1.530000
30
52.450001
70
192
0
VERTEX
8
OBJECT__39
10
108.550003
20
10.315000
30
48.911999
70
192
0
VERTEX
8
OBJECT__39
10
114.401001
20
10.315000
30
50.480000
70
192
0
VERTEX
8
OBJECT__39
10
117.088997
20
-9.043000
30
51.200001
70
192
0
VERTEX
8
OBJECT__39
10
102.029999
20
-4.466000
30
47.165001
70
192
0
VERTEX
8
OBJECT__39
10
101.196999
20
1.530000
30
46.942001
70
192
0
VERTEX
8
OBJECT__39
10
111.474998
20
-10.750000
30
49.695999
70
192
0
VERTEX
8
OBJECT__39
10
105.862000
20
-9.043000
30
48.192001
70
192
0
VERTEX
8
OBJECT__39
10
120.920998
20
-4.466000
30
52.227001
70
192
0
VERTEX
8
OBJECT__39
10
0
20
0
30
0
70
128
71
1
72
2
73
3
0
VERTEX
8
OBJECT__39
10
0
20
0
30
0
70
128
71
1
72
4
73
5
0
VERTEX
8
OBJECT__39
10
0
20
0
30
0
70
128
71
6
72
7
73
8
0
VERTEX
8
OBJECT__39
10
0
20
0
30
0
70
128
71
7
72
6
73
9
0
VERTEX
8
OBJECT__39
10
0
20
0
30
0
70
128
71
5
72
2
73
1
0
VERTEX
8
OBJECT__39
10
0
20
0
30
0
70
128
71
9
72
10
73
7
0
VERTEX
8
OBJECT__39
10
0
20
0
30
0
70
128
71
3
72
11
73
1
0
VERTEX
8
OBJECT__39
10
0
20
0
30
0
70
128
71
11
72
6
73
1
0
VERTEX
8
OBJECT__39
10
0
20
0
30
0
70
128
71
8
72
1
73
6
0
SEQEND
8
OBJECT__39
0
POLYLINE
8
OBJECT__40
66
1
70
64
71
40
72
40
62
253
0
VERTEX
8
OBJECT__40
10
117.088997
20
-9.043000
30
51.200001
70
192
0
VERTEX
8
OBJECT__40
10
120.920998
20
-4.466000
30
52.227001
70
192
0
VERTEX
8
OBJECT__40
10
120.515999
20
-6.203000
30
52.446999
70
192
0
VERTEX
8
OBJECT__40
10
121.140999
20
-4.618000
30
52.615002
70
192
0
VERTEX
8
OBJECT__40
10
117.577003
20
-9.312000
30
51.659000
70
192
0
VERTEX
8
OBJECT__40
10
121.752998
20
1.530000
30
52.450001
70
192
0
VERTEX
8
OBJECT__40
10
122.103996
20
1.608000
30
52.872002
70
192
0
VERTEX
8
OBJECT__40
10
122.103996
20
-2.175000
30
52.872002
70
192
0
VERTEX
8
OBJECT__40
10
119.322998
20
7.040000
30
51.799000
70
192
0
VERTEX
8
OBJECT__40
10
120.515999
20
6.203000
30
52.446999
70
192
0
VERTEX
8
OBJECT__40
10
122.103996
20
2.175000
30
52.872002
70
192
0
VERTEX
8
OBJECT__40
10
119.511002
20
7.267000
30
52.178001
70
192
0
VERTEX
8
OBJECT__40
10
114.401001
20
10.315000
30
50.480000
70
192
0
VERTEX
8
OBJECT__40
10
114.430000
20
10.753000
30
50.816002
70
192
0
VERTEX
8
OBJECT__40
10
117.577003
20
9.312000
30
51.659000
70
192
0
VERTEX
8
OBJECT__40
10
108.550003
20
10.315000
30
48.911999
70
192
0
VERTEX
8
OBJECT__40
10
103.627998
20
7.040000
30
47.592999
70
192
0
VERTEX
8
OBJECT__40
10
105.209999
20
9.312000
30
48.346001
70
192
0
VERTEX
8
OBJECT__40
10
103.276001
20
7.267000
30
47.827000
70
192
0
VERTEX
8
OBJECT__40
10
101.196999
20
1.530000
30
46.942001
70
192
0
VERTEX
8
OBJECT__40
10
100.681999
20
2.175000
30
47.132999
70
192
0
VERTEX
8
OBJECT__40
10
102.269997
20
6.203000
30
47.557999
70
192
0
VERTEX
8
OBJECT__40
10
100.681999
20
1.608000
30
47.132999
70
192
0
VERTEX
8
OBJECT__40
10
102.029999
20
-4.466000
30
47.165001
70
192
0
VERTEX
8
OBJECT__40
10
100.681999
20
-2.175000
30
47.132999
70
192
0
VERTEX
8
OBJECT__40
10
101.644997
20
-4.618000
30
47.390999
70
192
0
VERTEX
8
OBJECT__40
10
105.862000
20
-9.043000
30
48.192001
70
192
0
VERTEX
8
OBJECT__40
10
105.209999
20
-9.312000
30
48.346001
70
192
0
VERTEX
8
OBJECT__40
10
102.269997
20
-6.203000
30
47.557999
70
192
0
VERTEX
8
OBJECT__40
10
105.514999
20
-9.452000
30
48.428001
70
192
0
VERTEX
8
OBJECT__40
10
111.474998
20
-10.750000
30
49.695999
70
192
0
VERTEX
8
OBJECT__40
10
113.891998
20
-11.000000
30
50.672001
70
192
0
VERTEX
8
OBJECT__40
10
117.271004
20
-9.452000
30
51.577000
70
192
0
VERTEX
8
OBJECT__40
10
110.796997
20
-11.000000
30
49.674999
70
192
0
VERTEX
8
OBJECT__40
10
108.894997
20
-11.000000
30
49.333000
70
192
0
VERTEX
8
OBJECT__40
10
111.427002
20
-11.000000
30
49.877998
70
192
0
VERTEX
8
OBJECT__40
10
112.071999
20
11.000000
30
50.016998
70
192
0
VERTEX
8
OBJECT__40
10
113.891998
20
11.000000
30
50.672001
70
192
0
VERTEX
8
OBJECT__40
10
108.356003
20
10.753000
30
49.188999
70
192
0
VERTEX
8
OBJECT__40
10
108.894997
20
11.000000
30
49.333000
70
192
0
VERTEX
8
OBJECT__40
10
0
20
0
30
0
70
128
71
1
72
2
73
3
0
VERTEX
8
OBJECT__40
10
0
20
0
30
0
70
128
71
2
72
4
73
3
0
VERTEX
8
OBJECT__40
10
0
20
0
30
0
70
128
71
3
72
5
73
1
0
VERTEX
8
OBJECT__40
10
0
20
0
30
0
70
128
71
6
72
7
73
8
0
VERTEX
8
OBJECT__40
10
0
20
0
30
0
70
128
71
8
72
2
73
6
0
VERTEX
8
OBJECT__40
10
0
20
0
30
0
70
128
71
6
72
9
73
10
0
VERTEX
8
OBJECT__40
10
0
20
0
30
0
70
128
71
10
72
11
73
6
0
VERTEX
8
OBJECT__40
10
0
20
0
30
0
70
128
71
9
72
12
73
10
0
VERTEX
8
OBJECT__40
10
0
20
0
30
0
70
128
71
13
72
14
73
15
0
VERTEX
8
OBJECT__40
10
0
20
0
30
0
70
128
71
15
72
9
73
13
0
VERTEX
8
OBJECT__40
10
0
20
0
30
0
70
128
71
16
72
17
73
18
0
VERTEX
8
OBJECT__40
10
0
20
0
30
0
70
128
71
17
72
19
73
18
0
VERTEX
8
OBJECT__40
10
0
20
0
30
0
70
128
71
20
72
21
73
22
0
VERTEX
8
OBJECT__40
10
0
20
0
30
0
70
128
71
20
72
23
73
21
0
VERTEX
8
OBJECT__40
10
0
20
0
30
0
70
128
71
22
72
17
73
20
0
VERTEX
8
OBJECT__40
10
0
20
0
30
0
70
128
71
20
72
24
73
25
0
VERTEX
8
OBJECT__40
10
0
20
0
30
0
70
128
71
24
72
26
73
25
0
VERTEX
8
OBJECT__40
10
0
20
0
30
0
70
128
71
27
72
28
73
29
0
VERTEX
8
OBJECT__40
10
0
20
0
30
0
70
128
71
29
72
24
73
27
0
VERTEX
8
OBJECT__40
10
0
20
0
30
0
70
128
71
27
72
30
73
28
0
VERTEX
8
OBJECT__40
10
0
20
0
30
0
70
128
71
31
72
1
73
32
0
VERTEX
8
OBJECT__40
10
0
20
0
30
0
70
128
71
1
72
33
73
32
0
VERTEX
8
OBJECT__40
10
0
20
0
30
0
70
128
71
27
72
34
73
35
0
VERTEX
8
OBJECT__40
10
0
20
0
30
0
70
128
71
27
72
31
73
34
0
VERTEX
8
OBJECT__40
10
0
20
0
30
0
70
128
71
31
72
36
73
34
0
VERTEX
8
OBJECT__40
10
0
20
0
30
0
70
128
71
13
72
37
73
38
0
VERTEX
8
OBJECT__40
10
0
20
0
30
0
70
128
71
16
72
39
73
40
0
VERTEX
8
OBJECT__40
10
0
20
0
30
0
70
128
71
40
72
37
73
16
0
VERTEX
8
OBJECT__40
10
0
20
0
30
0
70
128
71
37
72
13
73
16
0
VERTEX
8
OBJECT__40
10
0
20
0
30
0
70
128
71
38
72
14
73
13
0
VERTEX
8
OBJECT__40
10
0
20
0
30
0
70
128
71
35
72
30
73
27
0
VERTEX
8
OBJECT__40
10
0
20
0
30
0
70
128
71
32
72
36
73
31
0
VERTEX
8
OBJECT__40
10
0
20
0
30
0
70
128
71
29
72
26
73
24
0
VERTEX
8
OBJECT__40
10
0
20
0
30
0
70
128
71
25
72
23
73
20
0
VERTEX
8
OBJECT__40
10
0
20
0
30
0
70
128
71
22
72
19
73
17
0
VERTEX
8
OBJECT__40
10
0
20
0
30
0
70
128
71
18
72
39
73
16
0
VERTEX
8
OBJECT__40
10
0
20
0
30
0
70
128
71
15
72
12
73
9
0
VERTEX
8
OBJECT__40
10
0
20
0
30
0
70
128
71
11
72
7
73
6
0
VERTEX
8
OBJECT__40
10
0
20
0
30
0
70
128
71
8
72
4
73
2
0
VERTEX
8
OBJECT__40
10
0
20
0
30
0
70
128
71
5
72
33
73
1
0
SEQEND
8
OBJECT__40
0
POLYLINE
8
OBJECT__42
66
1
70
64
71
35
72
33
62
253
0
VERTEX
8
OBJECT__42
10
102.692001
20
7.588000
30
48.568001
70
192
0
VERTEX
8
OBJECT__42
10
104.711998
20
9.724000
30
49.109001
70
192
0
VERTEX
8
OBJECT__42
10
105.209999
20
9.312000
30
48.346001
70
192
0
VERTEX
8
OBJECT__42
10
103.276001
20
7.267000
30
47.827000
70
192
0
VERTEX
8
OBJECT__42
10
102.269997
20
6.203000
30
47.557999
70
192
0
VERTEX
8
OBJECT__42
10
101.641998
20
6.478000
30
48.285999
70
192
0
VERTEX
8
OBJECT__42
10
100.681999
20
2.175000
30
47.132999
70
192
0
VERTEX
8
OBJECT__42
10
99.984001
20
1.679000
30
47.841999
70
192
0
VERTEX
8
OBJECT__42
10
99.984001
20
2.271000
30
47.841999
70
192
0
VERTEX
8
OBJECT__42
10
100.681999
20
1.608000
30
47.132999
70
192
0
VERTEX
8
OBJECT__42
10
100.681999
20
-2.175000
30
47.132999
70
192
0
VERTEX
8
OBJECT__42
10
99.984001
20
-2.271000
30
47.841999
70
192
0
VERTEX
8
OBJECT__42
10
100.989998
20
-4.822000
30
48.111000
70
192
0
VERTEX
8
OBJECT__42
10
101.644997
20
-4.618000
30
47.390999
70
192
0
VERTEX
8
OBJECT__42
10
102.269997
20
-6.203000
30
47.557999
70
192
0
VERTEX
8
OBJECT__42
10
101.641998
20
-6.478000
30
48.285999
70
192
0
VERTEX
8
OBJECT__42
10
105.209999
20
-9.312000
30
48.346001
70
192
0
VERTEX
8
OBJECT__42
10
107.060997
20
-11.000000
30
49.685001
70
192
0
VERTEX
8
OBJECT__42
10
107.043999
20
-11.000000
30
49.734001
70
192
0
VERTEX
8
OBJECT__42
10
105.023003
20
-9.894000
30
49.192001
70
192
0
VERTEX
8
OBJECT__42
10
105.514999
20
-9.452000
30
48.428001
70
192
0
VERTEX
8
OBJECT__42
10
107.133003
20
-11.000000
30
49.573002
70
192
0
VERTEX
8
OBJECT__42
10
104.711998
20
-9.724000
30
49.109001
70
192
0
VERTEX
8
OBJECT__42
10
107.272003
20
-11.000000
30
49.460999
70
192
0
VERTEX
8
OBJECT__42
10
108.894997
20
-11.000000
30
49.333000
70
192
0
VERTEX
8
OBJECT__42
10
108.761002
20
-11.000000
30
49.317001
70
192
0
VERTEX
8
OBJECT__42
10
107.754997
20
-11.000000
30
49.307999
70
192
0
VERTEX
8
OBJECT__42
10
107.595001
20
11.000000
30
49.338001
70
192
0
VERTEX
8
OBJECT__42
10
108.536003
20
11.000000
30
49.294998
70
192
0
VERTEX
8
OBJECT__42
10
108.356003
20
10.753000
30
49.188999
70
192
0
VERTEX
8
OBJECT__42
10
107.281998
20
11.000000
30
49.455002
70
192
0
VERTEX
8
OBJECT__42
10
107.134003
20
11.000000
30
49.571999
70
192
0
VERTEX
8
OBJECT__42
10
107.043999
20
11.000000
30
49.734001
70
192
0
VERTEX
8
OBJECT__42
10
107.065002
20
11.000000
30
49.674999
70
192
0
VERTEX
8
OBJECT__42
10
108.894997
20
11.000000
30
49.333000
70
192
0
VERTEX
8
OBJECT__42
10
0
20
0
30
0
70
128
71
1
72
2
73
3
0
VERTEX
8
OBJECT__42
10
0
20
0
30
0
70
128
71
1
72
4
73
5
0
VERTEX
8
OBJECT__42
10
0
20
0
30
0
70
128
71
5
72
6
73
1
0
VERTEX
8
OBJECT__42
10
0
20
0
30
0
70
128
71
6
72
5
73
7
0
VERTEX
8
OBJECT__42
10
0
20
0
30
0
70
128
71
8
72
9
73
7
0
VERTEX
8
OBJECT__42
10
0
20
0
30
0
70
128
71
8
72
10
73
11
0
VERTEX
8
OBJECT__42
10
0
20
0
30
0
70
128
71
11
72
12
73
8
0
VERTEX
8
OBJECT__42
10
0
20
0
30
0
70
128
71
13
72
12
73
11
0
VERTEX
8
OBJECT__42
10
0
20
0
30
0
70
128
71
13
72
14
73
15
0
VERTEX
8
OBJECT__42
10
0
20
0
30
0
70
128
71
15
72
16
73
13
0
VERTEX
8
OBJECT__42
10
0
20
0
30
0
70
128
71
16
72
15
73
17
0
VERTEX
8
OBJECT__42
10
0
20
0
30
0
70
128
71
18
72
19
73
20
0
VERTEX
8
OBJECT__42
10
0
20
0
30
0
70
128
71
21
72
22
73
18
0
VERTEX
8
OBJECT__42
10
0
20
0
30
0
70
128
71
23
72
17
73
21
0
VERTEX
8
OBJECT__42
10
0
20
0
30
0
70
128
71
18
72
23
73
21
0
VERTEX
8
OBJECT__42
10
0
20
0
30
0
70
128
71
21
72
24
73
22
0
VERTEX
8
OBJECT__42
10
0
20
0
30
0
70
128
71
21
72
25
73
26
0
VERTEX
8
OBJECT__42
10
0
20
0
30
0
70
128
71
26
72
27
73
21
0
VERTEX
8
OBJECT__42
10
0
20
0
30
0
70
128
71
27
72
24
73
21
0
VERTEX
8
OBJECT__42
10
0
20
0
30
0
70
128
71
28
72
29
73
30
0
VERTEX
8
OBJECT__42
10
0
20
0
30
0
70
128
71
30
72
3
73
28
0
VERTEX
8
OBJECT__42
10
0
20
0
30
0
70
128
71
3
72
31
73
28
0
VERTEX
8
OBJECT__42
10
0
20
0
30
0
70
128
71
3
72
32
73
31
0
VERTEX
8
OBJECT__42
10
0
20
0
30
0
70
128
71
2
72
33
73
34
0
VERTEX
8
OBJECT__42
10
0
20
0
30
0
70
128
71
34
72
3
73
2
0
VERTEX
8
OBJECT__42
10
0
20
0
30
0
70
128
71
34
72
32
73
3
0
VERTEX
8
OBJECT__42
10
0
20
0
30
0
70
128
71
29
72
35
73
30
0
VERTEX
8
OBJECT__42
10
0
20
0
30
0
70
128
71
20
72
23
73
18
0
VERTEX
8
OBJECT__42
10
0
20
0
30
0
70
128
71
17
72
23
73
16
0
VERTEX
8
OBJECT__42
10
0
20
0
30
0
70
128
71
11
72
14
73
13
0
VERTEX
8
OBJECT__42
10
0
20
0
30
0
70
128
71
7
72
10
73
8
0
VERTEX
8
OBJECT__42
10
0
20
0
30
0
70
128
71
7
72
9
73
6
0
VERTEX
8
OBJECT__42
10
0
20
0
30
0
70
128
71
3
72
4
73
1
0
SEQEND
8
OBJECT__42
0
POLYLINE
8
OBJECT__43
66
1
70
64
71
35
72
33
62
253
0
VERTEX
8
OBJECT__43
10
117.625999
20
-9.724000
30
52.569000
70
192
0
VERTEX
8
OBJECT__43
10
117.577003
20
-9.312000
30
51.659000
70
192
0
VERTEX
8
OBJECT__43
10
120.515999
20
-6.203000
30
52.446999
70
192
0
VERTEX
8
OBJECT__43
10
121.348000
20
-4.822000
30
53.567001
70
192
0
VERTEX
8
OBJECT__43
10
121.140999
20
-4.618000
30
52.615002
70
192
0
VERTEX
8
OBJECT__43
10
122.103996
20
-2.175000
30
52.872002
70
192
0
VERTEX
8
OBJECT__43
10
120.695999
20
-6.478000
30
53.391998
70
192
0
VERTEX
8
OBJECT__43
10
122.353996
20
1.679000
30
53.835999
70
192
0
VERTEX
8
OBJECT__43
10
122.103996
20
1.608000
30
52.872002
70
192
0
VERTEX
8
OBJECT__43
10
122.103996
20
2.175000
30
52.872002
70
192
0
VERTEX
8
OBJECT__43
10
122.353996
20
-2.271000
30
53.835999
70
192
0
VERTEX
8
OBJECT__43
10
122.353996
20
2.271000
30
53.835999
70
192
0
VERTEX
8
OBJECT__43
10
120.515999
20
6.203000
30
52.446999
70
192
0
VERTEX
8
OBJECT__43
10
119.646004
20
7.588000
30
53.110001
70
192
0
VERTEX
8
OBJECT__43
10
119.511002
20
7.267000
30
52.178001
70
192
0
VERTEX
8
OBJECT__43
10
117.577003
20
9.312000
30
51.659000
70
192
0
VERTEX
8
OBJECT__43
10
120.695999
20
6.478000
30
53.391998
70
192
0
VERTEX
8
OBJECT__43
10
117.271004
20
-9.452000
30
51.577000
70
192
0
VERTEX
8
OBJECT__43
10
115.019997
20
-11.000000
30
51.331001
70
192
0
VERTEX
8
OBJECT__43
10
114.240997
20
-11.000000
30
50.827999
70
192
0
VERTEX
8
OBJECT__43
10
115.297997
20
-11.000000
30
51.762001
70
192
0
VERTEX
8
OBJECT__43
10
115.228996
20
-11.000000
30
51.587002
70
192
0
VERTEX
8
OBJECT__43
10
115.305000
20
-11.000000
30
51.884998
70
192
0
VERTEX
8
OBJECT__43
10
117.315002
20
-9.894000
30
52.486000
70
192
0
VERTEX
8
OBJECT__43
10
115.293999
20
-11.000000
30
51.944000
70
192
0
VERTEX
8
OBJECT__43
10
115.303001
20
11.000000
30
51.794998
70
192
0
VERTEX
8
OBJECT__43
10
115.295998
20
11.000000
30
51.938000
70
192
0
VERTEX
8
OBJECT__43
10
117.625999
20
9.724000
30
52.569000
70
192
0
VERTEX
8
OBJECT__43
10
114.430000
20
10.753000
30
50.816002
70
192
0
VERTEX
8
OBJECT__43
10
114.467003
20
11.000000
30
50.945000
70
192
0
VERTEX
8
OBJECT__43
10
115.053001
20
11.000000
30
51.363998
70
192
0
VERTEX
8
OBJECT__43
10
113.891998
20
11.000000
30
50.672001
70
192
0
VERTEX
8
OBJECT__43
10
115.264999
20
11.000000
30
51.658001
70
192
0
VERTEX
8
OBJECT__43
10
115.293999
20
11.000000
30
51.944000
70
192
0
VERTEX
8
OBJECT__43
10
113.891998
20
-11.000000
30
50.672001
70
192
0
VERTEX
8
OBJECT__43
10
0
20
0
30
0
70
128
71
1
72
2
73
3
0
VERTEX
8
OBJECT__43
10
0
20
0
30
0
70
128
71
4
72
5
73
6
0
VERTEX
8
OBJECT__43
10
0
20
0
30
0
70
128
71
4
72
7
73
3
0
VERTEX
8
OBJECT__43
10
0
20
0
30
0
70
128
71
3
72
5
73
4
0
VERTEX
8
OBJECT__43
10
0
20
0
30
0
70
128
71
8
72
9
73
10
0
VERTEX
8
OBJECT__43
10
0
20
0
30
0
70
128
71
8
72
11
73
6
0
VERTEX
8
OBJECT__43
10
0
20
0
30
0
70
128
71
6
72
9
73
8
0
VERTEX
8
OBJECT__43
10
0
20
0
30
0
70
128
71
12
72
10
73
13
0
VERTEX
8
OBJECT__43
10
0
20
0
30
0
70
128
71
14
72
15
73
16
0
VERTEX
8
OBJECT__43
10
0
20
0
30
0
70
128
71
14
72
17
73
13
0
VERTEX
8
OBJECT__43
10
0
20
0
30
0
70
128
71
13
72
15
73
14
0
VERTEX
8
OBJECT__43
10
0
20
0
30
0
70
128
71
18
72
19
73
20
0
VERTEX
8
OBJECT__43
10
0
20
0
30
0
70
128
71
18
72
21
73
22
0
VERTEX
8
OBJECT__43
10
0
20
0
30
0
70
128
71
22
72
19
73
18
0
VERTEX
8
OBJECT__43
10
0
20
0
30
0
70
128
71
23
72
21
73
18
0
VERTEX
8
OBJECT__43
10
0
20
0
30
0
70
128
71
23
72
2
73
24
0
VERTEX
8
OBJECT__43
10
0
20
0
30
0
70
128
71
2
72
1
73
24
0
VERTEX
8
OBJECT__43
10
0
20
0
30
0
70
128
71
24
72
25
73
23
0
VERTEX
8
OBJECT__43
10
0
20
0
30
0
70
128
71
18
72
2
73
23
0
VERTEX
8
OBJECT__43
10
0
20
0
30
0
70
128
71
16
72
26
73
27
0
VERTEX
8
OBJECT__43
10
0
20
0
30
0
70
128
71
27
72
28
73
16
0
VERTEX
8
OBJECT__43
10
0
20
0
30
0
70
128
71
29
72
30
73
31
0
VERTEX
8
OBJECT__43
10
0
20
0
30
0
70
128
71
29
72
32
73
30
0
VERTEX
8
OBJECT__43
10
0
20
0
30
0
70
128
71
31
72
16
73
29
0
VERTEX
8
OBJECT__43
10
0
20
0
30
0
70
128
71
31
72
33
73
16
0
VERTEX
8
OBJECT__43
10
0
20
0
30
0
70
128
71
33
72
26
73
16
0
VERTEX
8
OBJECT__43
10
0
20
0
30
0
70
128
71
27
72
34
73
28
0
VERTEX
8
OBJECT__43
10
0
20
0
30
0
70
128
71
20
72
35
73
18
0
VERTEX
8
OBJECT__43
10
0
20
0
30
0
70
128
71
16
72
28
73
14
0
VERTEX
8
OBJECT__43
10
0
20
0
30
0
70
128
71
13
72
17
73
12
0
VERTEX
8
OBJECT__43
10
0
20
0
30
0
70
128
71
10
72
12
73
8
0
VERTEX
8
OBJECT__43
10
0
20
0
30
0
70
128
71
6
72
11
73
4
0
VERTEX
8
OBJECT__43
10
0
20
0
30
0
70
128
71
3
72
7
73
1
0
SEQEND
8
OBJECT__43
0
POLYLINE
8
OBJECT__44
66
1
70
64
71
18
72
16
62
253
0
VERTEX
8
OBJECT__44
10
106.573997
20
-11.000000
30
51.487999
70
192
0
VERTEX
8
OBJECT__44
10
115.228996
20
-11.000000
30
51.587002
70
192
0
VERTEX
8
OBJECT__44
10
115.297997
20
-11.000000
30
51.762001
70
192
0
VERTEX
8
OBJECT__44
10
114.240997
20
-11.000000
30
50.827999
70
192
0
VERTEX
8
OBJECT__44
10
115.019997
20
-11.000000
30
51.331001
70
192
0
VERTEX
8
OBJECT__44
10
107.754997
20
-11.000000
30
49.307999
70
192
0
VERTEX
8
OBJECT__44
10
107.060997
20
-11.000000
30
49.685001
70
192
0
VERTEX
8
OBJECT__44
10
107.133003
20
-11.000000
30
49.573002
70
192
0
VERTEX
8
OBJECT__44
10
107.272003
20
-11.000000
30
49.460999
70
192
0
VERTEX
8
OBJECT__44
10
115.305000
20
-11.000000
30
51.884998
70
192
0
VERTEX
8
OBJECT__44
10
108.761002
20
-11.000000
30
49.317001
70
192
0
VERTEX
8
OBJECT__44
10
107.043999
20
-11.000000
30
49.734001
70
192
0
VERTEX
8
OBJECT__44
10
113.891998
20
-11.000000
30
50.672001
70
192
0
VERTEX
8
OBJECT__44
10
111.427002
20
-11.000000
30
49.877998
70
192
0
VERTEX
8
OBJECT__44
10
108.894997
20
-11.000000
30
49.333000
70
192
0
VERTEX
8
OBJECT__44
10
110.796997
20
-11.000000
30
49.674999
70
192
0
VERTEX
8
OBJECT__44
10
115.293999
20
-11.000000
30
51.944000
70
192
0
VERTEX
8
OBJECT__44
10
114.823997
20
-11.000000
30
53.699001
70
192
0
VERTEX
8
OBJECT__44
10
0
20
0
30
0
70
128
71
1
72
2
73
3
0
VERTEX
8
OBJECT__44
10
0
20
0
30
0
70
128
71
1
72
4
73
5
0
VERTEX
8
OBJECT__44
10
0
20
0
30
0
70
128
71
6
72
7
73
8
0
VERTEX
8
OBJECT__44
10
0
20
0
30
0
70
128
71
5
72
2
73
1
0
VERTEX
8
OBJECT__44
10
0
20
0
30
0
70
128
71
8
72
9
73
6
0
VERTEX
8
OBJECT__44
10
0
20
0
30
0
70
128
71
3
72
10
73
1
0
VERTEX
8
OBJECT__44
10
0
20
0
30
0
70
128
71
11
72
12
73
7
0
VERTEX
8
OBJECT__44
10
0
20
0
30
0
70
128
71
1
72
13
73
4
0
VERTEX
8
OBJECT__44
10
0
20
0
30
0
70
128
71
6
72
11
73
7
0
VERTEX
8
OBJECT__44
10
0
20
0
30
0
70
128
71
1
72
14
73
13
0
VERTEX
8
OBJECT__44
10
0
20
0
30
0
70
128
71
1
72
15
73
16
0
VERTEX
8
OBJECT__44
10
0
20
0
30
0
70
128
71
15
72
1
73
12
0
VERTEX
8
OBJECT__44
10
0
20
0
30
0
70
128
71
10
72
17
73
1
0
VERTEX
8
OBJECT__44
10
0
20
0
30
0
70
128
71
11
72
15
73
12
0
VERTEX
8
OBJECT__44
10
0
20
0
30
0
70
128
71
16
72
14
73
1
0
VERTEX
8
OBJECT__44
10
0
20
0
30
0
70
128
71
17
72
18
73
1
0
SEQEND
8
OBJECT__44
0
POLYLINE
8
OBJECT__45
66
1
70
64
71
3
72
1
62
253
0
VERTEX
8
OBJECT__45
10
106.573997
20
-11.000000
30
51.487999
70
192
0
VERTEX
8
OBJECT__45
10
114.823997
20
-11.000000
30
53.699001
70
192
0
VERTEX
8
OBJECT__45
10
110.698997
20
-11.800000
30
52.594002
70
192
0
VERTEX
8
OBJECT__45
10
0
20
0
30
0
70
128
71
1
72
2
73
3
0
SEQEND
8
OBJECT__45
0
POLYLINE
8
OBJECT__46
66
1
70
64
71
42
72
42
62
253
0
VERTEX
8
OBJECT__46
10
115.438004
20
-9.927000
30
59.556999
70
192
0
VERTEX
8
OBJECT__46
10
117.625999
20
-9.724000
30
52.569000
70
192
0
VERTEX
8
OBJECT__46
10
120.695999
20
-6.478000
30
53.391998
70
192
0
VERTEX
8
OBJECT__46
10
117.315002
20
-9.894000
30
52.486000
70
192
0
VERTEX
8
OBJECT__46
10
119.642998
20
-4.902000
30
60.683998
70
192
0
VERTEX
8
OBJECT__46
10
120.556999
20
1.679000
30
60.929001
70
192
0
VERTEX
8
OBJECT__46
10
122.353996
20
-2.271000
30
53.835999
70
192
0
VERTEX
8
OBJECT__46
10
121.348000
20
-4.822000
30
53.567001
70
192
0
VERTEX
8
OBJECT__46
10
122.353996
20
2.271000
30
53.835999
70
192
0
VERTEX
8
OBJECT__46
10
120.695999
20
6.478000
30
53.391998
70
192
0
VERTEX
8
OBJECT__46
10
122.353996
20
1.679000
30
53.835999
70
192
0
VERTEX
8
OBJECT__46
10
117.889000
20
7.727000
30
60.214001
70
192
0
VERTEX
8
OBJECT__46
10
97.992996
20
1.679000
30
54.882999
70
192
0
VERTEX
8
OBJECT__46
10
100.661003
20
7.727000
30
55.598000
70
192
0
VERTEX
8
OBJECT__46
10
101.641998
20
6.478000
30
48.285999
70
192
0
VERTEX
8
OBJECT__46
10
99.984001
20
2.271000
30
47.841999
70
192
0
VERTEX
8
OBJECT__46
10
102.692001
20
7.588000
30
48.568001
70
192
0
VERTEX
8
OBJECT__46
10
99.984001
20
1.679000
30
47.841999
70
192
0
VERTEX
8
OBJECT__46
10
99.984001
20
-2.271000
30
47.841999
70
192
0
VERTEX
8
OBJECT__46
10
98.906998
20
-4.902000
30
55.127998
70
192
0
VERTEX
8
OBJECT__46
10
103.112999
20
-9.927000
30
56.255001
70
192
0
VERTEX
8
OBJECT__46
10
101.641998
20
-6.478000
30
48.285999
70
192
0
VERTEX
8
OBJECT__46
10
100.989998
20
-4.822000
30
48.111000
70
192
0
VERTEX
8
OBJECT__46
10
104.711998
20
-9.724000
30
49.109001
70
192
0
VERTEX
8
OBJECT__46
10
114.823997
20
-11.000000
30
53.699001
70
192
0
VERTEX
8
OBJECT__46
10
109.275002
20
-11.800000
30
57.905998
70
192
0
VERTEX
8
OBJECT__46
10
110.698997
20
-11.800000
30
52.594002
70
192
0
VERTEX
8
OBJECT__46
10
112.487000
20
11.322000
30
58.766998
70
192
0
VERTEX
8
OBJECT__46
10
114.823997
20
11.000000
30
53.699001
70
192
0
VERTEX
8
OBJECT__46
10
117.625999
20
9.724000
30
52.569000
70
192
0
VERTEX
8
OBJECT__46
10
115.293999
20
11.000000
30
51.944000
70
192
0
VERTEX
8
OBJECT__46
10
119.646004
20
7.588000
30
53.110001
70
192
0
VERTEX
8
OBJECT__46
10
113.910004
20
11.322000
30
53.453999
70
192
0
VERTEX
8
OBJECT__46
10
107.487999
20
11.322000
30
51.733002
70
192
0
VERTEX
8
OBJECT__46
10
106.064003
20
11.322000
30
57.046001
70
192
0
VERTEX
8
OBJECT__46
10
104.711998
20
9.724000
30
49.109001
70
192
0
VERTEX
8
OBJECT__46
10
106.573997
20
11.000000
30
51.487999
70
192
0
VERTEX
8
OBJECT__46
10
107.043999
20
11.000000
30
49.734001
70
192
0
VERTEX
8
OBJECT__46
10
106.573997
20
-11.000000
30
51.487999
70
192
0
VERTEX
8
OBJECT__46
10
105.023003
20
-9.894000
30
49.192001
70
192
0
VERTEX
8
OBJECT__46
10
107.043999
20
-11.000000
30
49.734001
70
192
0
VERTEX
8
OBJECT__46
10
115.293999
20
-11.000000
30
51.944000
70
192
0
VERTEX
8
OBJECT__46
10
0
20
0
30
0
70
128
71
1
72
2
73
3
0
VERTEX
8
OBJECT__46
10
0
20
0
30
0
70
128
71
1
72
4
73
2
0
VERTEX
8
OBJECT__46
10
0
20
0
30
0
70
128
71
3
72
5
73
1
0
VERTEX
8
OBJECT__46
10
0
20
0
30
0
70
128
71
6
72
5
73
7
0
VERTEX
8
OBJECT__46
10
0
20
0
30
0
70
128
71
5
72
8
73
7
0
VERTEX
8
OBJECT__46
10
0
20
0
30
0
70
128
71
6
72
9
73
10
0
VERTEX
8
OBJECT__46
10
0
20
0
30
0
70
128
71
6
72
11
73
9
0
VERTEX
8
OBJECT__46
10
0
20
0
30
0
70
128
71
10
72
12
73
6
0
VERTEX
8
OBJECT__46
10
0
20
0
30
0
70
128
71
13
72
14
73
15
0
VERTEX
8
OBJECT__46
10
0
20
0
30
0
70
128
71
15
72
16
73
13
0
VERTEX
8
OBJECT__46
10
0
20
0
30
0
70
128
71
14
72
17
73
15
0
VERTEX
8
OBJECT__46
10
0
20
0
30
0
70
128
71
13
72
18
73
19
0
VERTEX
8
OBJECT__46
10
0
20
0
30
0
70
128
71
19
72
20
73
13
0
VERTEX
8
OBJECT__46
10
0
20
0
30
0
70
128
71
21
72
20
73
22
0
VERTEX
8
OBJECT__46
10
0
20
0
30
0
70
128
71
20
72
23
73
22
0
VERTEX
8
OBJECT__46
10
0
20
0
30
0
70
128
71
22
72
24
73
21
0
VERTEX
8
OBJECT__46
10
0
20
0
30
0
70
128
71
4
72
1
73
25
0
VERTEX
8
OBJECT__46
10
0
20
0
30
0
70
128
71
26
72
27
73
25
0
VERTEX
8
OBJECT__46
10
0
20
0
30
0
70
128
71
25
72
1
73
26
0
VERTEX
8
OBJECT__46
10
0
20
0
30
0
70
128
71
28
72
12
73
29
0
VERTEX
8
OBJECT__46
10
0
20
0
30
0
70
128
71
30
72
31
73
29
0
VERTEX
8
OBJECT__46
10
0
20
0
30
0
70
128
71
12
72
32
73
30
0
VERTEX
8
OBJECT__46
10
0
20
0
30
0
70
128
71
29
72
12
73
30
0
VERTEX
8
OBJECT__46
10
0
20
0
30
0
70
128
71
33
72
34
73
35
0
VERTEX
8
OBJECT__46
10
0
20
0
30
0
70
128
71
36
72
14
73
37
0
VERTEX
8
OBJECT__46
10
0
20
0
30
0
70
128
71
37
72
38
73
36
0
VERTEX
8
OBJECT__46
10
0
20
0
30
0
70
128
71
35
72
34
73
37
0
VERTEX
8
OBJECT__46
10
0
20
0
30
0
70
128
71
37
72
14
73
35
0
VERTEX
8
OBJECT__46
10
0
20
0
30
0
70
128
71
26
72
21
73
39
0
VERTEX
8
OBJECT__46
10
0
20
0
30
0
70
128
71
40
72
41
73
39
0
VERTEX
8
OBJECT__46
10
0
20
0
30
0
70
128
71
39
72
21
73
40
0
VERTEX
8
OBJECT__46
10
0
20
0
30
0
70
128
71
39
72
27
73
26
0
VERTEX
8
OBJECT__46
10
0
20
0
30
0
70
128
71
36
72
17
73
14
0
VERTEX
8
OBJECT__46
10
0
20
0
30
0
70
128
71
35
72
28
73
33
0
VERTEX
8
OBJECT__46
10
0
20
0
30
0
70
128
71
29
72
33
73
28
0
VERTEX
8
OBJECT__46
10
0
20
0
30
0
70
128
71
25
72
42
73
4
0
VERTEX
8
OBJECT__46
10
0
20
0
30
0
70
128
71
24
72
40
73
21
0
VERTEX
8
OBJECT__46
10
0
20
0
30
0
70
128
71
19
72
23
73
20
0
VERTEX
8
OBJECT__46
10
0
20
0
30
0
70
128
71
16
72
18
73
13
0
VERTEX
8
OBJECT__46
10
0
20
0
30
0
70
128
71
10
72
32
73
12
0
VERTEX
8
OBJECT__46
10
0
20
0
30
0
70
128
71
7
72
11
73
6
0
VERTEX
8
OBJECT__46
10
0
20
0
30
0
70
128
71
3
72
8
73
5
0
SEQEND
8
OBJECT__46
0
POLYLINE
8
OBJECT__47
66
1
70
64
71
17
72
15
62
253
0
VERTEX
8
OBJECT__47
10
108.536003
20
11.000000
30
49.294998
70
192
0
VERTEX
8
OBJECT__47
10
107.281998
20
11.000000
30
49.455002
70
192
0
VERTEX
8
OBJECT__47
10
107.134003
20
11.000000
30
49.571999
70
192
0
VERTEX
8
OBJECT__47
10
107.595001
20
11.000000
30
49.338001
70
192
0
VERTEX
8
OBJECT__47
10
115.303001
20
11.000000
30
51.794998
70
192
0
VERTEX
8
OBJECT__47
10
115.264999
20
11.000000
30
51.658001
70
192
0
VERTEX
8
OBJECT__47
10
115.053001
20
11.000000
30
51.363998
70
192
0
VERTEX
8
OBJECT__47
10
107.065002
20
11.000000
30
49.674999
70
192
0
VERTEX
8
OBJECT__47
10
107.043999
20
11.000000
30
49.734001
70
192
0
VERTEX
8
OBJECT__47
10
115.293999
20
11.000000
30
51.944000
70
192
0
VERTEX
8
OBJECT__47
10
112.071999
20
11.000000
30
50.016998
70
192
0
VERTEX
8
OBJECT__47
10
114.467003
20
11.000000
30
50.945000
70
192
0
VERTEX
8
OBJECT__47
10
115.295998
20
11.000000
30
51.938000
70
192
0
VERTEX
8
OBJECT__47
10
108.894997
20
11.000000
30
49.333000
70
192
0
VERTEX
8
OBJECT__47
10
113.891998
20
11.000000
30
50.672001
70
192
0
VERTEX
8
OBJECT__47
10
114.823997
20
11.000000
30
53.699001
70
192
0
VERTEX
8
OBJECT__47
10
106.573997
20
11.000000
30
51.487999
70
192
0
VERTEX
8
OBJECT__47
10
0
20
0
30
0
70
128
71
1
72
2
73
3
0
VERTEX
8
OBJECT__47
10
0
20
0
30
0
70
128
71
1
72
4
73
2
0
VERTEX
8
OBJECT__47
10
0
20
0
30
0
70
128
71
5
72
6
73
7
0
VERTEX
8
OBJECT__47
10
0
20
0
30
0
70
128
71
3
72
8
73
1
0
VERTEX
8
OBJECT__47
10
0
20
0
30
0
70
128
71
9
72
10
73
11
0
VERTEX
8
OBJECT__47
10
0
20
0
30
0
70
128
71
12
72
13
73
5
0
VERTEX
8
OBJECT__47
10
0
20
0
30
0
70
128
71
9
72
14
73
1
0
VERTEX
8
OBJECT__47
10
0
20
0
30
0
70
128
71
10
72
15
73
11
0
VERTEX
8
OBJECT__47
10
0
20
0
30
0
70
128
71
12
72
10
73
13
0
VERTEX
8
OBJECT__47
10
0
20
0
30
0
70
128
71
11
72
14
73
9
0
VERTEX
8
OBJECT__47
10
0
20
0
30
0
70
128
71
7
72
12
73
5
0
VERTEX
8
OBJECT__47
10
0
20
0
30
0
70
128
71
12
72
15
73
10
0
VERTEX
8
OBJECT__47
10
0
20
0
30
0
70
128
71
16
72
10
73
9
0
VERTEX
8
OBJECT__47
10
0
20
0
30
0
70
128
71
9
72
17
73
16
0
VERTEX
8
OBJECT__47
10
0
20
0
30
0
70
128
71
8
72
9
73
1
0
SEQEND
8
OBJECT__47
0
POLYLINE
8
OBJECT__48
66
1
70
64
71
4
72
2
62
253
0
VERTEX
8
OBJECT__48
10
114.823997
20
11.000000
30
53.699001
70
192
0
VERTEX
8
OBJECT__48
10
106.573997
20
11.000000
30
51.487999
70
192
0
VERTEX
8
OBJECT__48
10
107.487999
20
11.322000
30
51.733002
70
192
0
VERTEX
8
OBJECT__48
10
113.910004
20
11.322000
30
53.453999
70
192
0
VERTEX
8
OBJECT__48
10
0
20
0
30
0
70
128
71
1
72
2
73
3
0
VERTEX
8
OBJECT__48
10
0
20
0
30
0
70
128
71
3
72
4
73
1
0
SEQEND
8
OBJECT__48
0
ENDSEC
0
EOF
