999
Converted by 3D Exploration 
999
XDimension Software, LLC
999
http://www.xdsoft.com/explorer/
0
SECTION
2
HEADER
9
$ACADVER
1
AC1008
9
$UCSORG
10
0.0
20
0.0
30
0.0
9
$UCSXDIR
10
1.0
20
0.0
30
0.0
9
$TILEMODE
70
1
9
$UCSYDIR
10
0.0
20
1.0
30
0.0
9
$EXTMIN
10
-2.000000
20
-25.000000
30
-25.000000
9
$EXTMAX
10
64.295998
20
25.000000
30
25.000000
0
ENDSEC
0
SECTION
2
TABLES
0
TABLE
2
LTYPE
70
1
0
LTYPE
2
CONTINUOUS
70
64
3
Solid line
72
65
73
0
40
0.0
0
ENDTAB
0
TABLE
2
LAYER
70
22
0
LAYER
2
OBJECT__0
70
0
62
253
6
CONTINUOUS
0
LAYER
2
OBJECT__1
70
0
62
253
6
CONTINUOUS
0
LAYER
2
OBJECT__3
70
0
62
253
6
CONTINUOUS
0
LAYER
2
OBJECT__4
70
0
62
253
6
CONTINUOUS
0
LAYER
2
OBJECT__5
70
0
62
253
6
CONTINUOUS
0
LAYER
2
OBJECT__6
70
0
62
253
6
CONTINUOUS
0
LAYER
2
OBJECT__7
70
0
62
253
6
CONTINUOUS
0
LAYER
2
OBJECT__8
70
0
62
253
6
CONTINUOUS
0
LAYER
2
OBJECT__10
70
0
62
253
6
CONTINUOUS
0
LAYER
2
OBJECT__11
70
0
62
253
6
CONTINUOUS
0
LAYER
2
OBJECT__12
70
0
62
253
6
CONTINUOUS
0
LAYER
2
OBJECT__13
70
0
62
253
6
CONTINUOUS
0
LAYER
2
OBJECT__14
70
0
62
253
6
CONTINUOUS
0
LAYER
2
OBJECT__15
70
0
62
253
6
CONTINUOUS
0
LAYER
2
OBJECT__16
70
0
62
253
6
CONTINUOUS
0
LAYER
2
OBJECT__17
70
0
62
253
6
CONTINUOUS
0
LAYER
2
OBJECT__18
70
0
62
253
6
CONTINUOUS
0
LAYER
2
OBJECT__19
70
0
62
253
6
CONTINUOUS
0
LAYER
2
OBJECT__20
70
0
62
253
6
CONTINUOUS
0
ENDTAB
0
TABLE
2
STYLE
70
1
0
STYLE
2
STANDARD
70
0
40
0.0
41
1.0
50
0.0
71
0
42
0.2
3
txt
4
1
0
ENDTAB
0
TABLE
2
UCS
70
0
0
ENDTAB
0
ENDSEC
0
SECTION
2
ENTITIES
0
POLYLINE
8
OBJECT__0
66
1
70
64
71
4
72
2
62
253
0
VERTEX
8
OBJECT__0
10
-2.000000
20
-25.000000
30
25.000000
70
192
0
VERTEX
8
OBJECT__0
10
6.000000
20
-25.000000
30
25.000000
70
192
0
VERTEX
8
OBJECT__0
10
6.000000
20
25.000000
30
25.000000
70
192
0
VERTEX
8
OBJECT__0
10
-2.000000
20
25.000000
30
25.000000
70
192
0
VERTEX
8
OBJECT__0
10
0
20
0
30
0
70
128
71
1
72
2
73
3
0
VERTEX
8
OBJECT__0
10
0
20
0
30
0
70
128
71
3
72
4
73
1
0
SEQEND
8
OBJECT__0
0
POLYLINE
8
OBJECT__1
66
1
70
64
71
4
72
2
62
253
0
VERTEX
8
OBJECT__1
10
6.000000
20
25.000000
30
25.000000
70
192
0
VERTEX
8
OBJECT__1
10
6.000000
20
25.000000
30
-25.000000
70
192
0
VERTEX
8
OBJECT__1
10
-2.000000
20
25.000000
30
-25.000000
70
192
0
VERTEX
8
OBJECT__1
10
-2.000000
20
25.000000
30
25.000000
70
192
0
VERTEX
8
OBJECT__1
10
0
20
0
30
0
70
128
71
1
72
2
73
3
0
VERTEX
8
OBJECT__1
10
0
20
0
30
0
70
128
71
3
72
4
73
1
0
SEQEND
8
OBJECT__1
0
POLYLINE
8
OBJECT__3
66
1
70
64
71
4
72
2
62
253
0
VERTEX
8
OBJECT__3
10
6.000000
20
25.000000
30
-25.000000
70
192
0
VERTEX
8
OBJECT__3
10
6.000000
20
-25.000000
30
-25.000000
70
192
0
VERTEX
8
OBJECT__3
10
-2.000000
20
-25.000000
30
-25.000000
70
192
0
VERTEX
8
OBJECT__3
10
-2.000000
20
25.000000
30
-25.000000
70
192
0
VERTEX
8
OBJECT__3
10
0
20
0
30
0
70
128
71
1
72
2
73
3
0
VERTEX
8
OBJECT__3
10
0
20
0
30
0
70
128
71
3
72
4
73
1
0
SEQEND
8
OBJECT__3
0
POLYLINE
8
OBJECT__4
66
1
70
64
71
4
72
2
62
253
0
VERTEX
8
OBJECT__4
10
6.000000
20
-25.000000
30
25.000000
70
192
0
VERTEX
8
OBJECT__4
10
-2.000000
20
-25.000000
30
25.000000
70
192
0
VERTEX
8
OBJECT__4
10
-2.000000
20
-25.000000
30
-25.000000
70
192
0
VERTEX
8
OBJECT__4
10
6.000000
20
-25.000000
30
-25.000000
70
192
0
VERTEX
8
OBJECT__4
10
0
20
0
30
0
70
128
71
1
72
2
73
3
0
VERTEX
8
OBJECT__4
10
0
20
0
30
0
70
128
71
3
72
4
73
1
0
SEQEND
8
OBJECT__4
0
POLYLINE
8
OBJECT__5
66
1
70
64
71
4
72
2
62
253
0
VERTEX
8
OBJECT__5
10
6.000000
20
-25.000000
30
-25.000000
70
192
0
VERTEX
8
OBJECT__5
10
6.000000
20
25.000000
30
-25.000000
70
192
0
VERTEX
8
OBJECT__5
10
6.000000
20
25.000000
30
25.000000
70
192
0
VERTEX
8
OBJECT__5
10
6.000000
20
-25.000000
30
25.000000
70
192
0
VERTEX
8
OBJECT__5
10
0
20
0
30
0
70
128
71
1
72
2
73
3
0
VERTEX
8
OBJECT__5
10
0
20
0
30
0
70
128
71
3
72
4
73
1
0
SEQEND
8
OBJECT__5
0
POLYLINE
8
OBJECT__6
66
1
70
64
71
4
72
2
62
253
0
VERTEX
8
OBJECT__6
10
-2.000000
20
-25.000000
30
25.000000
70
192
0
VERTEX
8
OBJECT__6
10
-2.000000
20
25.000000
30
25.000000
70
192
0
VERTEX
8
OBJECT__6
10
-2.000000
20
25.000000
30
-25.000000
70
192
0
VERTEX
8
OBJECT__6
10
-2.000000
20
-25.000000
30
-25.000000
70
192
0
VERTEX
8
OBJECT__6
10
0
20
0
30
0
70
128
71
1
72
2
73
3
0
VERTEX
8
OBJECT__6
10
0
20
0
30
0
70
128
71
3
72
4
73
1
0
SEQEND
8
OBJECT__6
0
POLYLINE
8
OBJECT__7
66
1
70
64
71
44
72
43
62
253
0
VERTEX
8
OBJECT__7
10
64.295998
20
0.000000
30
0.000000
70
192
0
VERTEX
8
OBJECT__7
10
63.953999
20
18.500000
30
0.000000
70
192
0
VERTEX
8
OBJECT__7
10
63.953999
20
18.096001
30
3.197000
70
192
0
VERTEX
8
OBJECT__7
10
63.953999
20
16.212000
30
8.912000
70
192
0
VERTEX
8
OBJECT__7
10
63.953999
20
15.985000
30
9.224000
70
192
0
VERTEX
8
OBJECT__7
10
63.953999
20
13.486000
30
12.664000
70
192
0
VERTEX
8
OBJECT__7
10
63.953999
20
11.799000
30
14.060000
70
192
0
VERTEX
8
OBJECT__7
10
63.953999
20
9.913000
30
15.620000
70
192
0
VERTEX
8
OBJECT__7
10
63.953999
20
6.298000
30
17.320999
70
192
0
VERTEX
8
OBJECT__7
10
63.953999
20
1.162000
30
18.462999
70
192
0
VERTEX
8
OBJECT__7
10
63.953999
20
0.007000
30
18.391001
70
192
0
VERTEX
8
OBJECT__7
10
63.953999
20
-3.467000
30
18.172001
70
192
0
VERTEX
8
OBJECT__7
10
63.953999
20
-6.286000
30
17.256001
70
192
0
VERTEX
8
OBJECT__7
10
63.953999
20
-11.792000
30
14.254000
70
192
0
VERTEX
8
OBJECT__7
10
63.953999
20
-11.880000
30
14.161000
70
192
0
VERTEX
8
OBJECT__7
10
63.953999
20
-14.967000
30
10.874000
70
192
0
VERTEX
8
OBJECT__7
10
63.953999
20
-15.897000
30
9.182000
70
192
0
VERTEX
8
OBJECT__7
10
63.953999
20
-17.201000
30
6.810000
70
192
0
VERTEX
8
OBJECT__7
10
63.953999
20
-18.129999
30
3.190000
70
192
0
VERTEX
8
OBJECT__7
10
63.953999
20
-18.354000
30
-2.319000
70
192
0
VERTEX
8
OBJECT__7
10
63.953999
20
-18.129999
30
-3.190000
70
192
0
VERTEX
8
OBJECT__7
10
63.953999
20
-17.201000
30
-6.810000
70
192
0
VERTEX
8
OBJECT__7
10
63.953999
20
-15.897000
30
-9.182000
70
192
0
VERTEX
8
OBJECT__7
10
63.953999
20
-14.967000
30
-10.874000
70
192
0
VERTEX
8
OBJECT__7
10
63.953999
20
-11.880000
30
-14.161000
70
192
0
VERTEX
8
OBJECT__7
10
63.953999
20
-7.877000
30
-16.739000
70
192
0
VERTEX
8
OBJECT__7
10
63.953999
20
-6.286000
30
-17.256001
70
192
0
VERTEX
8
OBJECT__7
10
63.953999
20
-3.467000
30
-18.172001
70
192
0
VERTEX
8
OBJECT__7
10
63.953999
20
0.000000
30
-18.500000
70
192
0
VERTEX
8
OBJECT__7
10
63.953999
20
5.717000
30
-17.594999
70
192
0
VERTEX
8
OBJECT__7
10
63.953999
20
6.298000
30
-17.320999
70
192
0
VERTEX
8
OBJECT__7
10
63.953999
20
9.913000
30
-15.620000
70
192
0
VERTEX
8
OBJECT__7
10
63.953999
20
11.799000
30
-14.060000
70
192
0
VERTEX
8
OBJECT__7
10
63.953999
20
13.486000
30
-12.664000
70
192
0
VERTEX
8
OBJECT__7
10
63.953999
20
15.985000
30
-9.224000
70
192
0
VERTEX
8
OBJECT__7
10
63.953999
20
17.919001
30
-4.601000
70
192
0
VERTEX
8
OBJECT__7
10
63.953999
20
18.096001
30
-3.197000
70
192
0
VERTEX
8
OBJECT__7
10
63.953999
20
16.212000
30
-8.912000
70
192
0
VERTEX
8
OBJECT__7
10
63.953999
20
1.162000
30
-18.462999
70
192
0
VERTEX
8
OBJECT__7
10
63.953999
20
-11.792000
30
-14.254000
70
192
0
VERTEX
8
OBJECT__7
10
63.953999
20
-18.354000
30
2.319000
70
192
0
VERTEX
8
OBJECT__7
10
63.953999
20
-7.877000
30
16.739000
70
192
0
VERTEX
8
OBJECT__7
10
63.953999
20
5.717000
30
17.594999
70
192
0
VERTEX
8
OBJECT__7
10
63.953999
20
17.919001
30
4.601000
70
192
0
VERTEX
8
OBJECT__7
10
0
20
0
30
0
70
128
71
1
72
2
73
3
0
VERTEX
8
OBJECT__7
10
0
20
0
30
0
70
128
71
1
72
4
73
5
0
VERTEX
8
OBJECT__7
10
0
20
0
30
0
70
128
71
1
72
6
73
7
0
VERTEX
8
OBJECT__7
10
0
20
0
30
0
70
128
71
1
72
8
73
9
0
VERTEX
8
OBJECT__7
10
0
20
0
30
0
70
128
71
1
72
10
73
11
0
VERTEX
8
OBJECT__7
10
0
20
0
30
0
70
128
71
1
72
12
73
13
0
VERTEX
8
OBJECT__7
10
0
20
0
30
0
70
128
71
1
72
14
73
15
0
VERTEX
8
OBJECT__7
10
0
20
0
30
0
70
128
71
1
72
16
73
17
0
VERTEX
8
OBJECT__7
10
0
20
0
30
0
70
128
71
1
72
18
73
19
0
VERTEX
8
OBJECT__7
10
0
20
0
30
0
70
128
71
1
72
20
73
21
0
VERTEX
8
OBJECT__7
10
0
20
0
30
0
70
128
71
1
72
22
73
23
0
VERTEX
8
OBJECT__7
10
0
20
0
30
0
70
128
71
1
72
24
73
25
0
VERTEX
8
OBJECT__7
10
0
20
0
30
0
70
128
71
1
72
26
73
27
0
VERTEX
8
OBJECT__7
10
0
20
0
30
0
70
128
71
1
72
28
73
29
0
VERTEX
8
OBJECT__7
10
0
20
0
30
0
70
128
71
1
72
30
73
31
0
VERTEX
8
OBJECT__7
10
0
20
0
30
0
70
128
71
1
72
32
73
33
0
VERTEX
8
OBJECT__7
10
0
20
0
30
0
70
128
71
1
72
34
73
35
0
VERTEX
8
OBJECT__7
10
0
20
0
30
0
70
128
71
1
72
36
73
37
0
VERTEX
8
OBJECT__7
10
0
20
0
30
0
70
128
71
37
72
2
73
1
0
VERTEX
8
OBJECT__7
10
0
20
0
30
0
70
128
71
1
72
38
73
36
0
VERTEX
8
OBJECT__7
10
0
20
0
30
0
70
128
71
35
72
38
73
1
0
VERTEX
8
OBJECT__7
10
0
20
0
30
0
70
128
71
33
72
34
73
1
0
VERTEX
8
OBJECT__7
10
0
20
0
30
0
70
128
71
31
72
32
73
1
0
VERTEX
8
OBJECT__7
10
0
20
0
30
0
70
128
71
1
72
39
73
30
0
VERTEX
8
OBJECT__7
10
0
20
0
30
0
70
128
71
29
72
39
73
1
0
VERTEX
8
OBJECT__7
10
0
20
0
30
0
70
128
71
27
72
28
73
1
0
VERTEX
8
OBJECT__7
10
0
20
0
30
0
70
128
71
1
72
40
73
26
0
VERTEX
8
OBJECT__7
10
0
20
0
30
0
70
128
71
25
72
40
73
1
0
VERTEX
8
OBJECT__7
10
0
20
0
30
0
70
128
71
23
72
24
73
1
0
VERTEX
8
OBJECT__7
10
0
20
0
30
0
70
128
71
21
72
22
73
1
0
VERTEX
8
OBJECT__7
10
0
20
0
30
0
70
128
71
1
72
41
73
20
0
VERTEX
8
OBJECT__7
10
0
20
0
30
0
70
128
71
19
72
41
73
1
0
VERTEX
8
OBJECT__7
10
0
20
0
30
0
70
128
71
17
72
18
73
1
0
VERTEX
8
OBJECT__7
10
0
20
0
30
0
70
128
71
15
72
16
73
1
0
VERTEX
8
OBJECT__7
10
0
20
0
30
0
70
128
71
1
72
42
73
14
0
VERTEX
8
OBJECT__7
10
0
20
0
30
0
70
128
71
13
72
42
73
1
0
VERTEX
8
OBJECT__7
10
0
20
0
30
0
70
128
71
11
72
12
73
1
0
VERTEX
8
OBJECT__7
10
0
20
0
30
0
70
128
71
1
72
43
73
10
0
VERTEX
8
OBJECT__7
10
0
20
0
30
0
70
128
71
9
72
43
73
1
0
VERTEX
8
OBJECT__7
10
0
20
0
30
0
70
128
71
7
72
8
73
1
0
VERTEX
8
OBJECT__7
10
0
20
0
30
0
70
128
71
5
72
6
73
1
0
VERTEX
8
OBJECT__7
10
0
20
0
30
0
70
128
71
1
72
44
73
4
0
VERTEX
8
OBJECT__7
10
0
20
0
30
0
70
128
71
3
72
44
73
1
0
SEQEND
8
OBJECT__7
0
POLYLINE
8
OBJECT__8
66
1
70
64
71
121
72
123
62
253
0
VERTEX
8
OBJECT__8
10
2.000000
20
0.000000
30
18.500000
70
192
0
VERTEX
8
OBJECT__8
10
2.000000
20
-6.327000
30
17.384001
70
192
0
VERTEX
8
OBJECT__8
10
63.953999
20
-3.467000
30
18.172001
70
192
0
VERTEX
8
OBJECT__8
10
63.953999
20
-6.286000
30
17.256001
70
192
0
VERTEX
8
OBJECT__8
10
63.953999
20
-11.792000
30
14.254000
70
192
0
VERTEX
8
OBJECT__8
10
63.953999
20
-7.877000
30
16.739000
70
192
0
VERTEX
8
OBJECT__8
10
2.000000
20
-11.892000
30
14.172000
70
192
0
VERTEX
8
OBJECT__8
10
63.953999
20
-11.880000
30
14.161000
70
192
0
VERTEX
8
OBJECT__8
10
2.000000
20
-16.021000
30
9.250000
70
192
0
VERTEX
8
OBJECT__8
10
63.953999
20
-14.967000
30
10.874000
70
192
0
VERTEX
8
OBJECT__8
10
63.953999
20
-15.897000
30
9.182000
70
192
0
VERTEX
8
OBJECT__8
10
2.000000
20
-18.219000
30
3.212000
70
192
0
VERTEX
8
OBJECT__8
10
63.953999
20
-18.129999
30
3.190000
70
192
0
VERTEX
8
OBJECT__8
10
63.953999
20
-17.201000
30
6.810000
70
192
0
VERTEX
8
OBJECT__8
10
2.000000
20
-18.219000
30
-3.212000
70
192
0
VERTEX
8
OBJECT__8
10
63.953999
20
-18.354000
30
-2.319000
70
192
0
VERTEX
8
OBJECT__8
10
63.953999
20
-18.354000
30
2.319000
70
192
0
VERTEX
8
OBJECT__8
10
63.953999
20
-18.129999
30
-3.190000
70
192
0
VERTEX
8
OBJECT__8
10
2.000000
20
-16.021000
30
-9.250000
70
192
0
VERTEX
8
OBJECT__8
10
63.953999
20
-17.201000
30
-6.810000
70
192
0
VERTEX
8
OBJECT__8
10
63.953999
20
-15.897000
30
-9.182000
70
192
0
VERTEX
8
OBJECT__8
10
2.000000
20
-11.892000
30
-14.172000
70
192
0
VERTEX
8
OBJECT__8
10
63.953999
20
-11.880000
30
-14.161000
70
192
0
VERTEX
8
OBJECT__8
10
63.953999
20
-14.967000
30
-10.874000
70
192
0
VERTEX
8
OBJECT__8
10
2.000000
20
16.021000
30
-9.250000
70
192
0
VERTEX
8
OBJECT__8
10
63.953999
20
15.985000
30
-9.224000
70
192
0
VERTEX
8
OBJECT__8
10
63.953999
20
13.486000
30
-12.664000
70
192
0
VERTEX
8
OBJECT__8
10
2.000000
20
11.892000
30
-14.172000
70
192
0
VERTEX
8
OBJECT__8
10
2.000000
20
18.219000
30
-3.212000
70
192
0
VERTEX
8
OBJECT__8
10
63.953999
20
17.919001
30
-4.601000
70
192
0
VERTEX
8
OBJECT__8
10
63.953999
20
16.212000
30
-8.912000
70
192
0
VERTEX
8
OBJECT__8
10
63.953999
20
18.096001
30
-3.197000
70
192
0
VERTEX
8
OBJECT__8
10
2.000000
20
18.219000
30
3.212000
70
192
0
VERTEX
8
OBJECT__8
10
63.953999
20
18.096001
30
3.197000
70
192
0
VERTEX
8
OBJECT__8
10
63.953999
20
18.500000
30
0.000000
70
192
0
VERTEX
8
OBJECT__8
10
2.000000
20
16.021000
30
9.250000
70
192
0
VERTEX
8
OBJECT__8
10
63.953999
20
16.212000
30
8.912000
70
192
0
VERTEX
8
OBJECT__8
10
63.953999
20
17.919001
30
4.601000
70
192
0
VERTEX
8
OBJECT__8
10
63.953999
20
15.985000
30
9.224000
70
192
0
VERTEX
8
OBJECT__8
10
2.000000
20
11.892000
30
14.172000
70
192
0
VERTEX
8
OBJECT__8
10
63.953999
20
13.486000
30
12.664000
70
192
0
VERTEX
8
OBJECT__8
10
63.953999
20
11.799000
30
14.060000
70
192
0
VERTEX
8
OBJECT__8
10
2.000000
20
6.327000
30
17.384001
70
192
0
VERTEX
8
OBJECT__8
10
63.953999
20
6.298000
30
17.320999
70
192
0
VERTEX
8
OBJECT__8
10
63.953999
20
9.913000
30
15.620000
70
192
0
VERTEX
8
OBJECT__8
10
63.953999
20
1.162000
30
18.462999
70
192
0
VERTEX
8
OBJECT__8
10
63.953999
20
5.717000
30
17.594999
70
192
0
VERTEX
8
OBJECT__8
10
63.953999
20
0.007000
30
18.391001
70
192
0
VERTEX
8
OBJECT__8
10
52.243999
20
-6.761000
30
-17.212999
70
192
0
VERTEX
8
OBJECT__8
10
63.953999
20
-7.877000
30
-16.739000
70
192
0
VERTEX
8
OBJECT__8
10
63.953999
20
-11.792000
30
-14.254000
70
192
0
VERTEX
8
OBJECT__8
10
52.549999
20
-6.322000
30
-17.368999
70
192
0
VERTEX
8
OBJECT__8
10
63.953999
20
-6.286000
30
-17.256001
70
192
0
VERTEX
8
OBJECT__8
10
52.125999
20
-6.930000
30
-17.153000
70
192
0
VERTEX
8
OBJECT__8
10
51.041000
20
-8.061000
30
-16.652000
70
192
0
VERTEX
8
OBJECT__8
10
48.516998
20
-9.763000
30
-15.714000
70
192
0
VERTEX
8
OBJECT__8
10
49.550999
20
-9.188000
30
-16.056999
70
192
0
VERTEX
8
OBJECT__8
10
46.848999
20
-10.411000
30
-15.293000
70
192
0
VERTEX
8
OBJECT__8
10
48.477001
20
-9.779000
30
-15.704000
70
192
0
VERTEX
8
OBJECT__8
10
45.554001
20
-10.709000
30
-15.085000
70
192
0
VERTEX
8
OBJECT__8
10
22.768000
20
-10.857000
30
-14.979000
70
192
0
VERTEX
8
OBJECT__8
10
43.768002
20
-10.857000
30
-14.979000
70
192
0
VERTEX
8
OBJECT__8
10
21.514999
20
-10.785000
30
-15.031000
70
192
0
VERTEX
8
OBJECT__8
10
43.858002
20
-10.857000
30
-14.979000
70
192
0
VERTEX
8
OBJECT__8
10
17.895000
20
-9.702000
30
-15.752000
70
192
0
VERTEX
8
OBJECT__8
10
18.914000
20
-10.115000
30
-15.486000
70
192
0
VERTEX
8
OBJECT__8
10
19.521999
20
-10.360000
30
-15.327000
70
192
0
VERTEX
8
OBJECT__8
10
19.858999
20
-10.460000
30
-15.259000
70
192
0
VERTEX
8
OBJECT__8
10
15.171000
20
-7.756000
30
-16.796000
70
192
0
VERTEX
8
OBJECT__8
10
15.559000
20
-8.085000
30
-16.631001
70
192
0
VERTEX
8
OBJECT__8
10
2.000000
20
-6.327000
30
-17.384001
70
192
0
VERTEX
8
OBJECT__8
10
13.946000
20
-6.327000
30
-17.384001
70
192
0
VERTEX
8
OBJECT__8
10
13.955000
20
-6.341000
30
-17.379000
70
192
0
VERTEX
8
OBJECT__8
10
16.382000
20
-8.780000
30
-16.284000
70
192
0
VERTEX
8
OBJECT__8
10
63.953999
20
-3.467000
30
-18.172001
70
192
0
VERTEX
8
OBJECT__8
10
54.463001
20
-1.865000
30
-18.406000
70
192
0
VERTEX
8
OBJECT__8
10
54.624001
20
-0.138000
30
-18.499001
70
192
0
VERTEX
8
OBJECT__8
10
63.953999
20
0.000000
30
-18.500000
70
192
0
VERTEX
8
OBJECT__8
10
54.028000
20
-3.549000
30
-18.156000
70
192
0
VERTEX
8
OBJECT__8
10
54.323002
20
-2.408000
30
-18.325001
70
192
0
VERTEX
8
OBJECT__8
10
53.916000
20
-3.858000
30
-18.093000
70
192
0
VERTEX
8
OBJECT__8
10
53.150002
20
-5.464000
30
-17.674999
70
192
0
VERTEX
8
OBJECT__8
10
63.953999
20
6.298000
30
-17.320999
70
192
0
VERTEX
8
OBJECT__8
10
54.125000
20
3.256000
30
-18.211000
70
192
0
VERTEX
8
OBJECT__8
10
53.445999
20
4.919000
30
-17.834000
70
192
0
VERTEX
8
OBJECT__8
10
52.769001
20
6.070000
30
-17.476000
70
192
0
VERTEX
8
OBJECT__8
10
63.953999
20
5.717000
30
-17.594999
70
192
0
VERTEX
8
OBJECT__8
10
63.953999
20
1.162000
30
-18.462999
70
192
0
VERTEX
8
OBJECT__8
10
54.471001
20
1.821000
30
-18.410000
70
192
0
VERTEX
8
OBJECT__8
10
54.328999
20
2.410000
30
-18.327999
70
192
0
VERTEX
8
OBJECT__8
10
54.625000
20
0.078000
30
-18.500000
70
192
0
VERTEX
8
OBJECT__8
10
54.624001
20
0.000000
30
-18.500000
70
192
0
VERTEX
8
OBJECT__8
10
14.170000
20
6.630000
30
-17.271000
70
192
0
VERTEX
8
OBJECT__8
10
13.975000
20
6.324000
30
-17.372999
70
192
0
VERTEX
8
OBJECT__8
10
15.248000
20
7.832000
30
-16.761000
70
192
0
VERTEX
8
OBJECT__8
10
16.701000
20
9.004000
30
-16.160999
70
192
0
VERTEX
8
OBJECT__8
10
15.560000
20
8.083000
30
-16.632000
70
192
0
VERTEX
8
OBJECT__8
10
17.877001
20
9.693000
30
-15.757000
70
192
0
VERTEX
8
OBJECT__8
10
19.544001
20
10.367000
30
-15.322000
70
192
0
VERTEX
8
OBJECT__8
10
18.915001
20
10.113000
30
-15.486000
70
192
0
VERTEX
8
OBJECT__8
10
21.068001
20
10.723000
30
-15.075000
70
192
0
VERTEX
8
OBJECT__8
10
63.953999
20
11.799000
30
-14.060000
70
192
0
VERTEX
8
OBJECT__8
10
43.768002
20
10.857000
30
-14.979000
70
192
0
VERTEX
8
OBJECT__8
10
22.768000
20
10.857000
30
-14.979000
70
192
0
VERTEX
8
OBJECT__8
10
45.422001
20
10.730000
30
-15.070000
70
192
0
VERTEX
8
OBJECT__8
10
48.958000
20
9.536000
30
-15.853000
70
192
0
VERTEX
8
OBJECT__8
10
48.466000
20
9.754000
30
-15.715000
70
192
0
VERTEX
8
OBJECT__8
10
47.338001
20
10.253000
30
-15.399000
70
192
0
VERTEX
8
OBJECT__8
10
47.064999
20
10.344000
30
-15.338000
70
192
0
VERTEX
8
OBJECT__8
10
63.953999
20
9.913000
30
-15.620000
70
192
0
VERTEX
8
OBJECT__8
10
52.563999
20
6.324000
30
-17.375000
70
192
0
VERTEX
8
OBJECT__8
10
52.224998
20
6.744000
30
-17.209000
70
192
0
VERTEX
8
OBJECT__8
10
51.599998
20
7.518000
30
-16.903000
70
192
0
VERTEX
8
OBJECT__8
10
50.452000
20
8.556000
30
-16.403000
70
192
0
VERTEX
8
OBJECT__8
10
2.000000
20
0.000000
30
-18.500000
70
192
0
VERTEX
8
OBJECT__8
10
2.000000
20
6.327000
30
-17.384001
70
192
0
VERTEX
8
OBJECT__8
10
11.500000
20
5.000000
30
-17.812000
70
192
0
VERTEX
8
OBJECT__8
10
13.131000
20
5.000000
30
-17.812000
70
192
0
VERTEX
8
OBJECT__8
10
11.500000
20
-5.000000
30
-17.812000
70
192
0
VERTEX
8
OBJECT__8
10
11.500000
20
0.000000
30
-18.500000
70
192
0
VERTEX
8
OBJECT__8
10
13.131000
20
-5.000000
30
-17.812000
70
192
0
VERTEX
8
OBJECT__8
10
0
20
0
30
0
70
128
71
1
72
2
73
3
0
VERTEX
8
OBJECT__8
10
0
20
0
30
0
70
128
71
2
72
4
73
3
0
VERTEX
8
OBJECT__8
10
0
20
0
30
0
70
128
71
2
72
5
73
6
0
VERTEX
8
OBJECT__8
10
0
20
0
30
0
70
128
71
7
72
8
73
5
0
VERTEX
8
OBJECT__8
10
0
20
0
30
0
70
128
71
5
72
2
73
7
0
VERTEX
8
OBJECT__8
10
0
20
0
30
0
70
128
71
6
72
4
73
2
0
VERTEX
8
OBJECT__8
10
0
20
0
30
0
70
128
71
7
72
9
73
10
0
VERTEX
8
OBJECT__8
10
0
20
0
30
0
70
128
71
9
72
11
73
10
0
VERTEX
8
OBJECT__8
10
0
20
0
30
0
70
128
71
12
72
13
73
14
0
VERTEX
8
OBJECT__8
10
0
20
0
30
0
70
128
71
14
72
9
73
12
0
VERTEX
8
OBJECT__8
10
0
20
0
30
0
70
128
71
15
72
16
73
17
0
VERTEX
8
OBJECT__8
10
0
20
0
30
0
70
128
71
17
72
12
73
15
0
VERTEX
8
OBJECT__8
10
0
20
0
30
0
70
128
71
15
72
18
73
16
0
VERTEX
8
OBJECT__8
10
0
20
0
30
0
70
128
71
15
72
19
73
20
0
VERTEX
8
OBJECT__8
10
0
20
0
30
0
70
128
71
19
72
21
73
20
0
VERTEX
8
OBJECT__8
10
0
20
0
30
0
70
128
71
22
72
23
73
24
0
VERTEX
8
OBJECT__8
10
0
20
0
30
0
70
128
71
24
72
19
73
22
0
VERTEX
8
OBJECT__8
10
0
20
0
30
0
70
128
71
25
72
26
73
27
0
VERTEX
8
OBJECT__8
10
0
20
0
30
0
70
128
71
27
72
28
73
25
0
VERTEX
8
OBJECT__8
10
0
20
0
30
0
70
128
71
25
72
29
73
30
0
VERTEX
8
OBJECT__8
10
0
20
0
30
0
70
128
71
30
72
31
73
25
0
VERTEX
8
OBJECT__8
10
0
20
0
30
0
70
128
71
29
72
32
73
30
0
VERTEX
8
OBJECT__8
10
0
20
0
30
0
70
128
71
33
72
34
73
35
0
VERTEX
8
OBJECT__8
10
0
20
0
30
0
70
128
71
35
72
29
73
33
0
VERTEX
8
OBJECT__8
10
0
20
0
30
0
70
128
71
36
72
37
73
38
0
VERTEX
8
OBJECT__8
10
0
20
0
30
0
70
128
71
38
72
33
73
36
0
VERTEX
8
OBJECT__8
10
0
20
0
30
0
70
128
71
36
72
39
73
37
0
VERTEX
8
OBJECT__8
10
0
20
0
30
0
70
128
71
36
72
40
73
41
0
VERTEX
8
OBJECT__8
10
0
20
0
30
0
70
128
71
40
72
42
73
41
0
VERTEX
8
OBJECT__8
10
0
20
0
30
0
70
128
71
43
72
44
73
45
0
VERTEX
8
OBJECT__8
10
0
20
0
30
0
70
128
71
45
72
40
73
43
0
VERTEX
8
OBJECT__8
10
0
20
0
30
0
70
128
71
43
72
1
73
46
0
VERTEX
8
OBJECT__8
10
0
20
0
30
0
70
128
71
46
72
47
73
43
0
VERTEX
8
OBJECT__8
10
0
20
0
30
0
70
128
71
1
72
48
73
46
0
VERTEX
8
OBJECT__8
10
0
20
0
30
0
70
128
71
49
72
50
73
51
0
VERTEX
8
OBJECT__8
10
0
20
0
30
0
70
128
71
50
72
49
73
52
0
VERTEX
8
OBJECT__8
10
0
20
0
30
0
70
128
71
52
72
53
73
50
0
VERTEX
8
OBJECT__8
10
0
20
0
30
0
70
128
71
23
72
54
73
49
0
VERTEX
8
OBJECT__8
10
0
20
0
30
0
70
128
71
23
72
55
73
54
0
VERTEX
8
OBJECT__8
10
0
20
0
30
0
70
128
71
23
72
56
73
57
0
VERTEX
8
OBJECT__8
10
0
20
0
30
0
70
128
71
57
72
55
73
23
0
VERTEX
8
OBJECT__8
10
0
20
0
30
0
70
128
71
23
72
58
73
59
0
VERTEX
8
OBJECT__8
10
0
20
0
30
0
70
128
71
59
72
56
73
23
0
VERTEX
8
OBJECT__8
10
0
20
0
30
0
70
128
71
23
72
60
73
58
0
VERTEX
8
OBJECT__8
10
0
20
0
30
0
70
128
71
23
72
22
73
61
0
VERTEX
8
OBJECT__8
10
0
20
0
30
0
70
128
71
61
72
62
73
23
0
VERTEX
8
OBJECT__8
10
0
20
0
30
0
70
128
71
22
72
63
73
61
0
VERTEX
8
OBJECT__8
10
0
20
0
30
0
70
128
71
62
72
64
73
23
0
VERTEX
8
OBJECT__8
10
0
20
0
30
0
70
128
71
22
72
65
73
66
0
VERTEX
8
OBJECT__8
10
0
20
0
30
0
70
128
71
66
72
67
73
22
0
VERTEX
8
OBJECT__8
10
0
20
0
30
0
70
128
71
67
72
68
73
22
0
VERTEX
8
OBJECT__8
10
0
20
0
30
0
70
128
71
68
72
63
73
22
0
VERTEX
8
OBJECT__8
10
0
20
0
30
0
70
128
71
22
72
69
73
70
0
VERTEX
8
OBJECT__8
10
0
20
0
30
0
70
128
71
22
72
71
73
72
0
VERTEX
8
OBJECT__8
10
0
20
0
30
0
70
128
71
72
72
73
73
22
0
VERTEX
8
OBJECT__8
10
0
20
0
30
0
70
128
71
73
72
69
73
22
0
VERTEX
8
OBJECT__8
10
0
20
0
30
0
70
128
71
70
72
74
73
22
0
VERTEX
8
OBJECT__8
10
0
20
0
30
0
70
128
71
74
72
65
73
22
0
VERTEX
8
OBJECT__8
10
0
20
0
30
0
70
128
71
64
72
60
73
23
0
VERTEX
8
OBJECT__8
10
0
20
0
30
0
70
128
71
75
72
76
73
77
0
VERTEX
8
OBJECT__8
10
0
20
0
30
0
70
128
71
77
72
78
73
75
0
VERTEX
8
OBJECT__8
10
0
20
0
30
0
70
128
71
53
72
79
73
80
0
VERTEX
8
OBJECT__8
10
0
20
0
30
0
70
128
71
80
72
75
73
53
0
VERTEX
8
OBJECT__8
10
0
20
0
30
0
70
128
71
53
72
81
73
79
0
VERTEX
8
OBJECT__8
10
0
20
0
30
0
70
128
71
53
72
82
73
81
0
VERTEX
8
OBJECT__8
10
0
20
0
30
0
70
128
71
53
72
52
73
82
0
VERTEX
8
OBJECT__8
10
0
20
0
30
0
70
128
71
80
72
76
73
75
0
VERTEX
8
OBJECT__8
10
0
20
0
30
0
70
128
71
83
72
84
73
85
0
VERTEX
8
OBJECT__8
10
0
20
0
30
0
70
128
71
85
72
86
73
83
0
VERTEX
8
OBJECT__8
10
0
20
0
30
0
70
128
71
87
72
88
73
89
0
VERTEX
8
OBJECT__8
10
0
20
0
30
0
70
128
71
89
72
90
73
87
0
VERTEX
8
OBJECT__8
10
0
20
0
30
0
70
128
71
84
72
83
73
87
0
VERTEX
8
OBJECT__8
10
0
20
0
30
0
70
128
71
90
72
84
73
87
0
VERTEX
8
OBJECT__8
10
0
20
0
30
0
70
128
71
88
72
78
73
91
0
VERTEX
8
OBJECT__8
10
0
20
0
30
0
70
128
71
78
72
92
73
91
0
VERTEX
8
OBJECT__8
10
0
20
0
30
0
70
128
71
91
72
89
73
88
0
VERTEX
8
OBJECT__8
10
0
20
0
30
0
70
128
71
28
72
93
73
94
0
VERTEX
8
OBJECT__8
10
0
20
0
30
0
70
128
71
28
72
95
73
93
0
VERTEX
8
OBJECT__8
10
0
20
0
30
0
70
128
71
28
72
96
73
97
0
VERTEX
8
OBJECT__8
10
0
20
0
30
0
70
128
71
28
72
98
73
96
0
VERTEX
8
OBJECT__8
10
0
20
0
30
0
70
128
71
97
72
95
73
28
0
VERTEX
8
OBJECT__8
10
0
20
0
30
0
70
128
71
28
72
99
73
100
0
VERTEX
8
OBJECT__8
10
0
20
0
30
0
70
128
71
100
72
98
73
28
0
VERTEX
8
OBJECT__8
10
0
20
0
30
0
70
128
71
28
72
101
73
99
0
VERTEX
8
OBJECT__8
10
0
20
0
30
0
70
128
71
102
72
103
73
104
0
VERTEX
8
OBJECT__8
10
0
20
0
30
0
70
128
71
102
72
105
73
103
0
VERTEX
8
OBJECT__8
10
0
20
0
30
0
70
128
71
104
72
28
73
102
0
VERTEX
8
OBJECT__8
10
0
20
0
30
0
70
128
71
104
72
101
73
28
0
VERTEX
8
OBJECT__8
10
0
20
0
30
0
70
128
71
102
72
106
73
107
0
VERTEX
8
OBJECT__8
10
0
20
0
30
0
70
128
71
107
72
108
73
102
0
VERTEX
8
OBJECT__8
10
0
20
0
30
0
70
128
71
108
72
109
73
102
0
VERTEX
8
OBJECT__8
10
0
20
0
30
0
70
128
71
110
72
83
73
111
0
VERTEX
8
OBJECT__8
10
0
20
0
30
0
70
128
71
112
72
102
73
110
0
VERTEX
8
OBJECT__8
10
0
20
0
30
0
70
128
71
111
72
112
73
110
0
VERTEX
8
OBJECT__8
10
0
20
0
30
0
70
128
71
112
72
113
73
102
0
VERTEX
8
OBJECT__8
10
0
20
0
30
0
70
128
71
113
72
114
73
102
0
VERTEX
8
OBJECT__8
10
0
20
0
30
0
70
128
71
114
72
106
73
102
0
VERTEX
8
OBJECT__8
10
0
20
0
30
0
70
128
71
109
72
105
73
102
0
VERTEX
8
OBJECT__8
10
0
20
0
30
0
70
128
71
115
72
116
73
117
0
VERTEX
8
OBJECT__8
10
0
20
0
30
0
70
128
71
94
72
118
73
117
0
VERTEX
8
OBJECT__8
10
0
20
0
30
0
70
128
71
117
72
116
73
94
0
VERTEX
8
OBJECT__8
10
0
20
0
30
0
70
128
71
72
72
71
73
119
0
VERTEX
8
OBJECT__8
10
0
20
0
30
0
70
128
71
115
72
120
73
119
0
VERTEX
8
OBJECT__8
10
0
20
0
30
0
70
128
71
119
72
71
73
115
0
VERTEX
8
OBJECT__8
10
0
20
0
30
0
70
128
71
119
72
121
73
72
0
VERTEX
8
OBJECT__8
10
0
20
0
30
0
70
128
71
117
72
120
73
115
0
VERTEX
8
OBJECT__8
10
0
20
0
30
0
70
128
71
94
72
116
73
28
0
VERTEX
8
OBJECT__8
10
0
20
0
30
0
70
128
71
86
72
111
73
83
0
VERTEX
8
OBJECT__8
10
0
20
0
30
0
70
128
71
77
72
92
73
78
0
VERTEX
8
OBJECT__8
10
0
20
0
30
0
70
128
71
51
72
23
73
49
0
VERTEX
8
OBJECT__8
10
0
20
0
30
0
70
128
71
47
72
44
73
43
0
VERTEX
8
OBJECT__8
10
0
20
0
30
0
70
128
71
45
72
42
73
40
0
VERTEX
8
OBJECT__8
10
0
20
0
30
0
70
128
71
41
72
39
73
36
0
VERTEX
8
OBJECT__8
10
0
20
0
30
0
70
128
71
38
72
34
73
33
0
VERTEX
8
OBJECT__8
10
0
20
0
30
0
70
128
71
35
72
32
73
29
0
VERTEX
8
OBJECT__8
10
0
20
0
30
0
70
128
71
31
72
26
73
25
0
VERTEX
8
OBJECT__8
10
0
20
0
30
0
70
128
71
27
72
102
73
28
0
VERTEX
8
OBJECT__8
10
0
20
0
30
0
70
128
71
24
72
21
73
19
0
VERTEX
8
OBJECT__8
10
0
20
0
30
0
70
128
71
20
72
18
73
15
0
VERTEX
8
OBJECT__8
10
0
20
0
30
0
70
128
71
17
72
13
73
12
0
VERTEX
8
OBJECT__8
10
0
20
0
30
0
70
128
71
14
72
11
73
9
0
VERTEX
8
OBJECT__8
10
0
20
0
30
0
70
128
71
10
72
8
73
7
0
VERTEX
8
OBJECT__8
10
0
20
0
30
0
70
128
71
3
72
48
73
1
0
SEQEND
8
OBJECT__8
0
POLYLINE
8
OBJECT__10
66
1
70
64
71
25
72
23
62
253
0
VERTEX
8
OBJECT__10
10
19.521999
20
-10.360000
30
-15.327000
70
192
0
VERTEX
8
OBJECT__10
10
18.914000
20
-10.115000
30
-15.486000
70
192
0
VERTEX
8
OBJECT__10
10
18.906000
20
-10.135000
30
-13.018000
70
192
0
VERTEX
8
OBJECT__10
10
19.858999
20
-10.460000
30
-15.259000
70
192
0
VERTEX
8
OBJECT__10
10
19.041000
20
-10.197000
30
-12.972000
70
192
0
VERTEX
8
OBJECT__10
10
19.372000
20
-10.312000
30
-12.881000
70
192
0
VERTEX
8
OBJECT__10
10
20.959000
20
-10.705000
30
-12.556000
70
192
0
VERTEX
8
OBJECT__10
10
21.514999
20
-10.785000
30
-15.031000
70
192
0
VERTEX
8
OBJECT__10
10
22.205999
20
-10.842000
30
-12.437000
70
192
0
VERTEX
8
OBJECT__10
10
22.768000
20
-10.857000
30
-14.979000
70
192
0
VERTEX
8
OBJECT__10
10
22.768000
20
-10.857000
30
-12.425000
70
192
0
VERTEX
8
OBJECT__10
10
16.382000
20
-8.780000
30
-16.284000
70
192
0
VERTEX
8
OBJECT__10
10
15.559000
20
-8.085000
30
-16.631001
70
192
0
VERTEX
8
OBJECT__10
10
15.559000
20
-8.086000
30
-14.372000
70
192
0
VERTEX
8
OBJECT__10
10
17.895000
20
-9.702000
30
-15.752000
70
192
0
VERTEX
8
OBJECT__10
10
15.982000
20
-8.475000
30
-14.157000
70
192
0
VERTEX
8
OBJECT__10
10
17.450001
20
-9.466000
30
-13.515000
70
192
0
VERTEX
8
OBJECT__10
10
15.171000
20
-7.756000
30
-16.796000
70
192
0
VERTEX
8
OBJECT__10
10
13.955000
20
-6.341000
30
-17.379000
70
192
0
VERTEX
8
OBJECT__10
10
13.735000
20
-6.023000
30
-15.361000
70
192
0
VERTEX
8
OBJECT__10
10
14.890000
20
-7.471000
30
-14.711000
70
192
0
VERTEX
8
OBJECT__10
10
13.946000
20
-6.327000
30
-17.384001
70
192
0
VERTEX
8
OBJECT__10
10
13.131000
20
-5.000000
30
-17.812000
70
192
0
VERTEX
8
OBJECT__10
10
13.131000
20
-5.000000
30
-15.724000
70
192
0
VERTEX
8
OBJECT__10
10
13.601000
20
-5.796000
30
-15.442000
70
192
0
VERTEX
8
OBJECT__10
10
0
20
0
30
0
70
128
71
1
72
2
73
3
0
VERTEX
8
OBJECT__10
10
0
20
0
30
0
70
128
71
4
72
1
73
5
0
VERTEX
8
OBJECT__10
10
0
20
0
30
0
70
128
71
5
72
6
73
4
0
VERTEX
8
OBJECT__10
10
0
20
0
30
0
70
128
71
7
72
8
73
4
0
VERTEX
8
OBJECT__10
10
0
20
0
30
0
70
128
71
4
72
6
73
7
0
VERTEX
8
OBJECT__10
10
0
20
0
30
0
70
128
71
9
72
10
73
8
0
VERTEX
8
OBJECT__10
10
0
20
0
30
0
70
128
71
8
72
7
73
9
0
VERTEX
8
OBJECT__10
10
0
20
0
30
0
70
128
71
9
72
11
73
10
0
VERTEX
8
OBJECT__10
10
0
20
0
30
0
70
128
71
12
72
13
73
14
0
VERTEX
8
OBJECT__10
10
0
20
0
30
0
70
128
71
15
72
12
73
16
0
VERTEX
8
OBJECT__10
10
0
20
0
30
0
70
128
71
16
72
17
73
15
0
VERTEX
8
OBJECT__10
10
0
20
0
30
0
70
128
71
17
72
3
73
2
0
VERTEX
8
OBJECT__10
10
0
20
0
30
0
70
128
71
2
72
15
73
17
0
VERTEX
8
OBJECT__10
10
0
20
0
30
0
70
128
71
18
72
19
73
20
0
VERTEX
8
OBJECT__10
10
0
20
0
30
0
70
128
71
21
72
13
73
18
0
VERTEX
8
OBJECT__10
10
0
20
0
30
0
70
128
71
20
72
21
73
18
0
VERTEX
8
OBJECT__10
10
0
20
0
30
0
70
128
71
22
72
23
73
24
0
VERTEX
8
OBJECT__10
10
0
20
0
30
0
70
128
71
25
72
20
73
19
0
VERTEX
8
OBJECT__10
10
0
20
0
30
0
70
128
71
19
72
22
73
25
0
VERTEX
8
OBJECT__10
10
0
20
0
30
0
70
128
71
24
72
25
73
22
0
VERTEX
8
OBJECT__10
10
0
20
0
30
0
70
128
71
21
72
14
73
13
0
VERTEX
8
OBJECT__10
10
0
20
0
30
0
70
128
71
14
72
16
73
12
0
VERTEX
8
OBJECT__10
10
0
20
0
30
0
70
128
71
3
72
5
73
1
0
SEQEND
8
OBJECT__10
0
POLYLINE
8
OBJECT__11
66
1
70
64
71
64
72
65
62
253
0
VERTEX
8
OBJECT__11
10
15.550000
20
8.094000
30
-14.374000
70
192
0
VERTEX
8
OBJECT__11
10
52.242001
20
6.759000
30
-15.043000
70
192
0
VERTEX
8
OBJECT__11
10
52.778000
20
6.058000
30
-15.348000
70
192
0
VERTEX
8
OBJECT__11
10
48.464001
20
9.751000
30
-13.302000
70
192
0
VERTEX
8
OBJECT__11
10
49.264000
20
9.363000
30
-13.586000
70
192
0
VERTEX
8
OBJECT__11
10
50.648998
20
8.398000
30
-14.203000
70
192
0
VERTEX
8
OBJECT__11
10
51.983002
20
7.098000
30
-14.895000
70
192
0
VERTEX
8
OBJECT__11
10
46.116001
20
10.316000
30
-12.878000
70
192
0
VERTEX
8
OBJECT__11
10
43.768002
20
10.857000
30
-12.425000
70
192
0
VERTEX
8
OBJECT__11
10
44.624001
20
10.823000
30
-12.454000
70
192
0
VERTEX
8
OBJECT__11
10
46.230999
20
10.574000
30
-12.667000
70
192
0
VERTEX
8
OBJECT__11
10
47.723999
20
10.111000
30
-13.039000
70
192
0
VERTEX
8
OBJECT__11
10
18.915001
20
10.112000
30
-13.032000
70
192
0
VERTEX
8
OBJECT__11
10
22.768000
20
10.857000
30
-12.425000
70
192
0
VERTEX
8
OBJECT__11
10
19.646999
20
10.399000
30
-12.811000
70
192
0
VERTEX
8
OBJECT__11
10
21.122000
20
10.732000
30
-12.533000
70
192
0
VERTEX
8
OBJECT__11
10
16.905001
20
9.138000
30
-13.739000
70
192
0
VERTEX
8
OBJECT__11
10
17.997999
20
9.753000
30
-13.309000
70
192
0
VERTEX
8
OBJECT__11
10
52.924000
20
5.795000
30
-15.437000
70
192
0
VERTEX
8
OBJECT__11
10
14.360000
20
6.870000
30
-15.002000
70
192
0
VERTEX
8
OBJECT__11
10
15.427000
20
7.999000
30
-14.431000
70
192
0
VERTEX
8
OBJECT__11
10
13.621000
20
5.793000
30
-15.433000
70
192
0
VERTEX
8
OBJECT__11
10
11.500000
20
0.000000
30
-16.500000
70
192
0
VERTEX
8
OBJECT__11
10
54.507999
20
1.587000
30
-16.424000
70
192
0
VERTEX
8
OBJECT__11
10
54.625000
20
0.026000
30
-16.500000
70
192
0
VERTEX
8
OBJECT__11
10
54.319000
20
2.408000
30
-16.301001
70
192
0
VERTEX
8
OBJECT__11
10
13.339000
20
5.383000
30
-15.597000
70
192
0
VERTEX
8
OBJECT__11
10
53.658001
20
4.478000
30
-15.881000
70
192
0
VERTEX
8
OBJECT__11
10
54.117001
20
3.282000
30
-16.170000
70
192
0
VERTEX
8
OBJECT__11
10
13.131000
20
5.000000
30
-15.724000
70
192
0
VERTEX
8
OBJECT__11
10
11.500000
20
5.000000
30
-15.724000
70
192
0
VERTEX
8
OBJECT__11
10
13.131000
20
-5.000000
30
-15.724000
70
192
0
VERTEX
8
OBJECT__11
10
53.409000
20
-4.993000
30
-15.727000
70
192
0
VERTEX
8
OBJECT__11
10
52.908001
20
-5.791000
30
-15.429000
70
192
0
VERTEX
8
OBJECT__11
10
13.601000
20
-5.796000
30
-15.442000
70
192
0
VERTEX
8
OBJECT__11
10
53.532001
20
-4.747000
30
-15.802000
70
192
0
VERTEX
8
OBJECT__11
10
54.327000
20
-2.410000
30
-16.306000
70
192
0
VERTEX
8
OBJECT__11
10
54.159000
20
-3.145000
30
-16.197001
70
192
0
VERTEX
8
OBJECT__11
10
54.623001
20
0.000000
30
-16.499001
70
192
0
VERTEX
8
OBJECT__11
10
54.493000
20
-1.688000
30
-16.413000
70
192
0
VERTEX
8
OBJECT__11
10
15.559000
20
-8.086000
30
-14.372000
70
192
0
VERTEX
8
OBJECT__11
10
14.890000
20
-7.471000
30
-14.711000
70
192
0
VERTEX
8
OBJECT__11
10
13.735000
20
-6.023000
30
-15.361000
70
192
0
VERTEX
8
OBJECT__11
10
18.906000
20
-10.135000
30
-13.018000
70
192
0
VERTEX
8
OBJECT__11
10
17.450001
20
-9.466000
30
-13.515000
70
192
0
VERTEX
8
OBJECT__11
10
15.982000
20
-8.475000
30
-14.157000
70
192
0
VERTEX
8
OBJECT__11
10
20.837000
20
-10.501000
30
-12.727000
70
192
0
VERTEX
8
OBJECT__11
10
22.768000
20
-10.857000
30
-12.425000
70
192
0
VERTEX
8
OBJECT__11
10
22.205999
20
-10.842000
30
-12.437000
70
192
0
VERTEX
8
OBJECT__11
10
20.959000
20
-10.705000
30
-12.556000
70
192
0
VERTEX
8
OBJECT__11
10
19.372000
20
-10.312000
30
-12.881000
70
192
0
VERTEX
8
OBJECT__11
10
19.041000
20
-10.197000
30
-12.972000
70
192
0
VERTEX
8
OBJECT__11
10
46.120998
20
-10.325000
30
-12.870000
70
192
0
VERTEX
8
OBJECT__11
10
43.768002
20
-10.857000
30
-12.425000
70
192
0
VERTEX
8
OBJECT__11
10
48.474998
20
-9.775000
30
-13.291000
70
192
0
VERTEX
8
OBJECT__11
10
47.763000
20
-10.095000
30
-13.051000
70
192
0
VERTEX
8
OBJECT__11
10
46.115002
20
-10.600000
30
-12.644000
70
192
0
VERTEX
8
OBJECT__11
10
45.395000
20
-10.734000
30
-12.531000
70
192
0
VERTEX
8
OBJECT__11
10
51.262001
20
-7.856000
30
-14.510000
70
192
0
VERTEX
8
OBJECT__11
10
50.245998
20
-8.712000
30
-14.012000
70
192
0
VERTEX
8
OBJECT__11
10
48.674000
20
-9.685000
30
-13.358000
70
192
0
VERTEX
8
OBJECT__11
10
52.238998
20
-6.754000
30
-15.043000
70
192
0
VERTEX
8
OBJECT__11
10
52.457001
20
-6.509000
30
-15.162000
70
192
0
VERTEX
8
OBJECT__11
10
11.500000
20
-5.000000
30
-15.724000
70
192
0
VERTEX
8
OBJECT__11
10
0
20
0
30
0
70
128
71
1
72
2
73
3
0
VERTEX
8
OBJECT__11
10
0
20
0
30
0
70
128
71
1
72
4
73
5
0
VERTEX
8
OBJECT__11
10
0
20
0
30
0
70
128
71
5
72
6
73
1
0
VERTEX
8
OBJECT__11
10
0
20
0
30
0
70
128
71
6
72
7
73
1
0
VERTEX
8
OBJECT__11
10
0
20
0
30
0
70
128
71
7
72
2
73
1
0
VERTEX
8
OBJECT__11
10
0
20
0
30
0
70
128
71
8
72
9
73
10
0
VERTEX
8
OBJECT__11
10
0
20
0
30
0
70
128
71
8
72
11
73
12
0
VERTEX
8
OBJECT__11
10
0
20
0
30
0
70
128
71
12
72
4
73
8
0
VERTEX
8
OBJECT__11
10
0
20
0
30
0
70
128
71
8
72
13
73
14
0
VERTEX
8
OBJECT__11
10
0
20
0
30
0
70
128
71
14
72
13
73
15
0
VERTEX
8
OBJECT__11
10
0
20
0
30
0
70
128
71
15
72
16
73
14
0
VERTEX
8
OBJECT__11
10
0
20
0
30
0
70
128
71
14
72
9
73
8
0
VERTEX
8
OBJECT__11
10
0
20
0
30
0
70
128
71
8
72
4
73
13
0
VERTEX
8
OBJECT__11
10
0
20
0
30
0
70
128
71
4
72
17
73
18
0
VERTEX
8
OBJECT__11
10
0
20
0
30
0
70
128
71
4
72
1
73
17
0
VERTEX
8
OBJECT__11
10
0
20
0
30
0
70
128
71
18
72
13
73
4
0
VERTEX
8
OBJECT__11
10
0
20
0
30
0
70
128
71
10
72
11
73
8
0
VERTEX
8
OBJECT__11
10
0
20
0
30
0
70
128
71
19
72
20
73
21
0
VERTEX
8
OBJECT__11
10
0
20
0
30
0
70
128
71
19
72
22
73
20
0
VERTEX
8
OBJECT__11
10
0
20
0
30
0
70
128
71
21
72
1
73
19
0
VERTEX
8
OBJECT__11
10
0
20
0
30
0
70
128
71
23
72
24
73
25
0
VERTEX
8
OBJECT__11
10
0
20
0
30
0
70
128
71
23
72
26
73
24
0
VERTEX
8
OBJECT__11
10
0
20
0
30
0
70
128
71
27
72
28
73
29
0
VERTEX
8
OBJECT__11
10
0
20
0
30
0
70
128
71
28
72
27
73
22
0
VERTEX
8
OBJECT__11
10
0
20
0
30
0
70
128
71
22
72
19
73
28
0
VERTEX
8
OBJECT__11
10
0
20
0
30
0
70
128
71
26
72
23
73
30
0
VERTEX
8
OBJECT__11
10
0
20
0
30
0
70
128
71
30
72
27
73
26
0
VERTEX
8
OBJECT__11
10
0
20
0
30
0
70
128
71
29
72
26
73
27
0
VERTEX
8
OBJECT__11
10
0
20
0
30
0
70
128
71
23
72
31
73
30
0
VERTEX
8
OBJECT__11
10
0
20
0
30
0
70
128
71
32
72
33
73
34
0
VERTEX
8
OBJECT__11
10
0
20
0
30
0
70
128
71
34
72
35
73
32
0
VERTEX
8
OBJECT__11
10
0
20
0
30
0
70
128
71
23
72
36
73
33
0
VERTEX
8
OBJECT__11
10
0
20
0
30
0
70
128
71
23
72
37
73
38
0
VERTEX
8
OBJECT__11
10
0
20
0
30
0
70
128
71
38
72
36
73
23
0
VERTEX
8
OBJECT__11
10
0
20
0
30
0
70
128
71
23
72
39
73
40
0
VERTEX
8
OBJECT__11
10
0
20
0
30
0
70
128
71
40
72
37
73
23
0
VERTEX
8
OBJECT__11
10
0
20
0
30
0
70
128
71
32
72
23
73
33
0
VERTEX
8
OBJECT__11
10
0
20
0
30
0
70
128
71
34
72
41
73
42
0
VERTEX
8
OBJECT__11
10
0
20
0
30
0
70
128
71
42
72
43
73
34
0
VERTEX
8
OBJECT__11
10
0
20
0
30
0
70
128
71
34
72
44
73
45
0
VERTEX
8
OBJECT__11
10
0
20
0
30
0
70
128
71
45
72
46
73
34
0
VERTEX
8
OBJECT__11
10
0
20
0
30
0
70
128
71
46
72
41
73
34
0
VERTEX
8
OBJECT__11
10
0
20
0
30
0
70
128
71
47
72
48
73
49
0
VERTEX
8
OBJECT__11
10
0
20
0
30
0
70
128
71
47
72
50
73
51
0
VERTEX
8
OBJECT__11
10
0
20
0
30
0
70
128
71
51
72
52
73
47
0
VERTEX
8
OBJECT__11
10
0
20
0
30
0
70
128
71
52
72
44
73
47
0
VERTEX
8
OBJECT__11
10
0
20
0
30
0
70
128
71
53
72
54
73
48
0
VERTEX
8
OBJECT__11
10
0
20
0
30
0
70
128
71
47
72
55
73
53
0
VERTEX
8
OBJECT__11
10
0
20
0
30
0
70
128
71
53
72
55
73
56
0
VERTEX
8
OBJECT__11
10
0
20
0
30
0
70
128
71
53
72
57
73
58
0
VERTEX
8
OBJECT__11
10
0
20
0
30
0
70
128
71
58
72
54
73
53
0
VERTEX
8
OBJECT__11
10
0
20
0
30
0
70
128
71
56
72
57
73
53
0
VERTEX
8
OBJECT__11
10
0
20
0
30
0
70
128
71
48
72
47
73
53
0
VERTEX
8
OBJECT__11
10
0
20
0
30
0
70
128
71
47
72
44
73
55
0
VERTEX
8
OBJECT__11
10
0
20
0
30
0
70
128
71
44
72
59
73
60
0
VERTEX
8
OBJECT__11
10
0
20
0
30
0
70
128
71
60
72
61
73
44
0
VERTEX
8
OBJECT__11
10
0
20
0
30
0
70
128
71
44
72
62
73
59
0
VERTEX
8
OBJECT__11
10
0
20
0
30
0
70
128
71
61
72
55
73
44
0
VERTEX
8
OBJECT__11
10
0
20
0
30
0
70
128
71
44
72
34
73
63
0
VERTEX
8
OBJECT__11
10
0
20
0
30
0
70
128
71
63
72
62
73
44
0
VERTEX
8
OBJECT__11
10
0
20
0
30
0
70
128
71
49
72
50
73
47
0
VERTEX
8
OBJECT__11
10
0
20
0
30
0
70
128
71
43
72
35
73
34
0
VERTEX
8
OBJECT__11
10
0
20
0
30
0
70
128
71
32
72
64
73
23
0
VERTEX
8
OBJECT__11
10
0
20
0
30
0
70
128
71
25
72
39
73
23
0
VERTEX
8
OBJECT__11
10
0
20
0
30
0
70
128
71
3
72
19
73
1
0
SEQEND
8
OBJECT__11
0
POLYLINE
8
OBJECT__12
66
1
70
64
71
4
72
2
62
253
0
VERTEX
8
OBJECT__12
10
43.768002
20
-10.857000
30
-12.425000
70
192
0
VERTEX
8
OBJECT__12
10
43.768002
20
-10.857000
30
-14.979000
70
192
0
VERTEX
8
OBJECT__12
10
22.768000
20
-10.857000
30
-14.979000
70
192
0
VERTEX
8
OBJECT__12
10
22.768000
20
-10.857000
30
-12.425000
70
192
0
VERTEX
8
OBJECT__12
10
0
20
0
30
0
70
128
71
1
72
2
73
3
0
VERTEX
8
OBJECT__12
10
0
20
0
30
0
70
128
71
3
72
4
73
1
0
SEQEND
8
OBJECT__12
0
POLYLINE
8
OBJECT__13
66
1
70
64
71
67
72
65
62
253
0
VERTEX
8
OBJECT__13
10
47.338001
20
10.253000
30
-15.399000
70
192
0
VERTEX
8
OBJECT__13
10
48.466000
20
9.754000
30
-15.715000
70
192
0
VERTEX
8
OBJECT__13
10
48.464001
20
9.751000
30
-13.302000
70
192
0
VERTEX
8
OBJECT__13
10
47.723999
20
10.111000
30
-13.039000
70
192
0
VERTEX
8
OBJECT__13
10
47.064999
20
10.344000
30
-15.338000
70
192
0
VERTEX
8
OBJECT__13
10
46.230999
20
10.574000
30
-12.667000
70
192
0
VERTEX
8
OBJECT__13
10
45.422001
20
10.730000
30
-15.070000
70
192
0
VERTEX
8
OBJECT__13
10
44.624001
20
10.823000
30
-12.454000
70
192
0
VERTEX
8
OBJECT__13
10
43.768002
20
10.857000
30
-14.979000
70
192
0
VERTEX
8
OBJECT__13
10
43.768002
20
10.857000
30
-12.425000
70
192
0
VERTEX
8
OBJECT__13
10
51.983002
20
7.098000
30
-14.895000
70
192
0
VERTEX
8
OBJECT__13
10
50.648998
20
8.398000
30
-14.203000
70
192
0
VERTEX
8
OBJECT__13
10
50.452000
20
8.556000
30
-16.403000
70
192
0
VERTEX
8
OBJECT__13
10
48.958000
20
9.536000
30
-15.853000
70
192
0
VERTEX
8
OBJECT__13
10
49.264000
20
9.363000
30
-13.586000
70
192
0
VERTEX
8
OBJECT__13
10
51.599998
20
7.518000
30
-16.903000
70
192
0
VERTEX
8
OBJECT__13
10
52.224998
20
6.744000
30
-17.209000
70
192
0
VERTEX
8
OBJECT__13
10
52.242001
20
6.759000
30
-15.043000
70
192
0
VERTEX
8
OBJECT__13
10
53.658001
20
4.478000
30
-15.881000
70
192
0
VERTEX
8
OBJECT__13
10
52.924000
20
5.795000
30
-15.437000
70
192
0
VERTEX
8
OBJECT__13
10
52.769001
20
6.070000
30
-17.476000
70
192
0
VERTEX
8
OBJECT__13
10
52.563999
20
6.324000
30
-17.375000
70
192
0
VERTEX
8
OBJECT__13
10
52.778000
20
6.058000
30
-15.348000
70
192
0
VERTEX
8
OBJECT__13
10
53.445999
20
4.919000
30
-17.834000
70
192
0
VERTEX
8
OBJECT__13
10
54.125000
20
3.256000
30
-18.211000
70
192
0
VERTEX
8
OBJECT__13
10
54.117001
20
3.282000
30
-16.170000
70
192
0
VERTEX
8
OBJECT__13
10
54.319000
20
2.408000
30
-16.301001
70
192
0
VERTEX
8
OBJECT__13
10
54.328999
20
2.410000
30
-18.327999
70
192
0
VERTEX
8
OBJECT__13
10
54.507999
20
1.587000
30
-16.424000
70
192
0
VERTEX
8
OBJECT__13
10
54.625000
20
0.078000
30
-18.500000
70
192
0
VERTEX
8
OBJECT__13
10
54.625000
20
0.026000
30
-16.500000
70
192
0
VERTEX
8
OBJECT__13
10
54.471001
20
1.821000
30
-18.410000
70
192
0
VERTEX
8
OBJECT__13
10
54.624001
20
0.000000
30
-18.500000
70
192
0
VERTEX
8
OBJECT__13
10
54.624001
20
-0.138000
30
-18.499001
70
192
0
VERTEX
8
OBJECT__13
10
54.623001
20
0.000000
30
-16.499001
70
192
0
VERTEX
8
OBJECT__13
10
54.463001
20
-1.865000
30
-18.406000
70
192
0
VERTEX
8
OBJECT__13
10
54.493000
20
-1.688000
30
-16.413000
70
192
0
VERTEX
8
OBJECT__13
10
54.323002
20
-2.408000
30
-18.325001
70
192
0
VERTEX
8
OBJECT__13
10
54.327000
20
-2.410000
30
-16.306000
70
192
0
VERTEX
8
OBJECT__13
10
54.028000
20
-3.549000
30
-18.156000
70
192
0
VERTEX
8
OBJECT__13
10
54.159000
20
-3.145000
30
-16.197001
70
192
0
VERTEX
8
OBJECT__13
10
53.916000
20
-3.858000
30
-18.093000
70
192
0
VERTEX
8
OBJECT__13
10
53.150002
20
-5.464000
30
-17.674999
70
192
0
VERTEX
8
OBJECT__13
10
53.532001
20
-4.747000
30
-15.802000
70
192
0
VERTEX
8
OBJECT__13
10
52.549999
20
-6.322000
30
-17.368999
70
192
0
VERTEX
8
OBJECT__13
10
52.908001
20
-5.791000
30
-15.429000
70
192
0
VERTEX
8
OBJECT__13
10
53.409000
20
-4.993000
30
-15.727000
70
192
0
VERTEX
8
OBJECT__13
10
52.243999
20
-6.761000
30
-17.212999
70
192
0
VERTEX
8
OBJECT__13
10
52.457001
20
-6.509000
30
-15.162000
70
192
0
VERTEX
8
OBJECT__13
10
52.238998
20
-6.754000
30
-15.043000
70
192
0
VERTEX
8
OBJECT__13
10
48.674000
20
-9.685000
30
-13.358000
70
192
0
VERTEX
8
OBJECT__13
10
48.516998
20
-9.763000
30
-15.714000
70
192
0
VERTEX
8
OBJECT__13
10
48.477001
20
-9.779000
30
-15.704000
70
192
0
VERTEX
8
OBJECT__13
10
50.245998
20
-8.712000
30
-14.012000
70
192
0
VERTEX
8
OBJECT__13
10
49.550999
20
-9.188000
30
-16.056999
70
192
0
VERTEX
8
OBJECT__13
10
51.041000
20
-8.061000
30
-16.652000
70
192
0
VERTEX
8
OBJECT__13
10
51.262001
20
-7.856000
30
-14.510000
70
192
0
VERTEX
8
OBJECT__13
10
52.125999
20
-6.930000
30
-17.153000
70
192
0
VERTEX
8
OBJECT__13
10
43.858002
20
-10.857000
30
-14.979000
70
192
0
VERTEX
8
OBJECT__13
10
43.768002
20
-10.857000
30
-12.425000
70
192
0
VERTEX
8
OBJECT__13
10
45.395000
20
-10.734000
30
-12.531000
70
192
0
VERTEX
8
OBJECT__13
10
45.554001
20
-10.709000
30
-15.085000
70
192
0
VERTEX
8
OBJECT__13
10
46.115002
20
-10.600000
30
-12.644000
70
192
0
VERTEX
8
OBJECT__13
10
47.763000
20
-10.095000
30
-13.051000
70
192
0
VERTEX
8
OBJECT__13
10
46.848999
20
-10.411000
30
-15.293000
70
192
0
VERTEX
8
OBJECT__13
10
48.474998
20
-9.775000
30
-13.291000
70
192
0
VERTEX
8
OBJECT__13
10
43.768002
20
-10.857000
30
-14.979000
70
192
0
VERTEX
8
OBJECT__13
10
0
20
0
30
0
70
128
71
1
72
2
73
3
0
VERTEX
8
OBJECT__13
10
0
20
0
30
0
70
128
71
4
72
5
73
1
0
VERTEX
8
OBJECT__13
10
0
20
0
30
0
70
128
71
6
72
7
73
5
0
VERTEX
8
OBJECT__13
10
0
20
0
30
0
70
128
71
5
72
4
73
6
0
VERTEX
8
OBJECT__13
10
0
20
0
30
0
70
128
71
8
72
9
73
7
0
VERTEX
8
OBJECT__13
10
0
20
0
30
0
70
128
71
7
72
6
73
8
0
VERTEX
8
OBJECT__13
10
0
20
0
30
0
70
128
71
8
72
10
73
9
0
VERTEX
8
OBJECT__13
10
0
20
0
30
0
70
128
71
11
72
12
73
13
0
VERTEX
8
OBJECT__13
10
0
20
0
30
0
70
128
71
14
72
13
73
12
0
VERTEX
8
OBJECT__13
10
0
20
0
30
0
70
128
71
12
72
15
73
14
0
VERTEX
8
OBJECT__13
10
0
20
0
30
0
70
128
71
16
72
17
73
18
0
VERTEX
8
OBJECT__13
10
0
20
0
30
0
70
128
71
18
72
11
73
16
0
VERTEX
8
OBJECT__13
10
0
20
0
30
0
70
128
71
15
72
3
73
2
0
VERTEX
8
OBJECT__13
10
0
20
0
30
0
70
128
71
2
72
14
73
15
0
VERTEX
8
OBJECT__13
10
0
20
0
30
0
70
128
71
19
72
20
73
21
0
VERTEX
8
OBJECT__13
10
0
20
0
30
0
70
128
71
20
72
22
73
21
0
VERTEX
8
OBJECT__13
10
0
20
0
30
0
70
128
71
22
72
20
73
23
0
VERTEX
8
OBJECT__13
10
0
20
0
30
0
70
128
71
23
72
17
73
22
0
VERTEX
8
OBJECT__13
10
0
20
0
30
0
70
128
71
21
72
24
73
19
0
VERTEX
8
OBJECT__13
10
0
20
0
30
0
70
128
71
24
72
25
73
26
0
VERTEX
8
OBJECT__13
10
0
20
0
30
0
70
128
71
26
72
19
73
24
0
VERTEX
8
OBJECT__13
10
0
20
0
30
0
70
128
71
27
72
26
73
25
0
VERTEX
8
OBJECT__13
10
0
20
0
30
0
70
128
71
25
72
28
73
27
0
VERTEX
8
OBJECT__13
10
0
20
0
30
0
70
128
71
29
72
27
73
28
0
VERTEX
8
OBJECT__13
10
0
20
0
30
0
70
128
71
30
72
31
73
29
0
VERTEX
8
OBJECT__13
10
0
20
0
30
0
70
128
71
29
72
32
73
30
0
VERTEX
8
OBJECT__13
10
0
20
0
30
0
70
128
71
30
72
33
73
31
0
VERTEX
8
OBJECT__13
10
0
20
0
30
0
70
128
71
34
72
35
73
31
0
VERTEX
8
OBJECT__13
10
0
20
0
30
0
70
128
71
34
72
36
73
37
0
VERTEX
8
OBJECT__13
10
0
20
0
30
0
70
128
71
37
72
35
73
34
0
VERTEX
8
OBJECT__13
10
0
20
0
30
0
70
128
71
37
72
36
73
38
0
VERTEX
8
OBJECT__13
10
0
20
0
30
0
70
128
71
38
72
39
73
37
0
VERTEX
8
OBJECT__13
10
0
20
0
30
0
70
128
71
31
72
33
73
34
0
VERTEX
8
OBJECT__13
10
0
20
0
30
0
70
128
71
40
72
41
73
39
0
VERTEX
8
OBJECT__13
10
0
20
0
30
0
70
128
71
42
72
43
73
44
0
VERTEX
8
OBJECT__13
10
0
20
0
30
0
70
128
71
41
72
40
73
42
0
VERTEX
8
OBJECT__13
10
0
20
0
30
0
70
128
71
45
72
46
73
47
0
VERTEX
8
OBJECT__13
10
0
20
0
30
0
70
128
71
46
72
45
73
48
0
VERTEX
8
OBJECT__13
10
0
20
0
30
0
70
128
71
48
72
49
73
46
0
VERTEX
8
OBJECT__13
10
0
20
0
30
0
70
128
71
47
72
43
73
45
0
VERTEX
8
OBJECT__13
10
0
20
0
30
0
70
128
71
47
72
44
73
43
0
VERTEX
8
OBJECT__13
10
0
20
0
30
0
70
128
71
48
72
50
73
49
0
VERTEX
8
OBJECT__13
10
0
20
0
30
0
70
128
71
44
72
41
73
42
0
VERTEX
8
OBJECT__13
10
0
20
0
30
0
70
128
71
51
72
52
73
53
0
VERTEX
8
OBJECT__13
10
0
20
0
30
0
70
128
71
54
72
55
73
52
0
VERTEX
8
OBJECT__13
10
0
20
0
30
0
70
128
71
56
72
57
73
50
0
VERTEX
8
OBJECT__13
10
0
20
0
30
0
70
128
71
50
72
48
73
58
0
VERTEX
8
OBJECT__13
10
0
20
0
30
0
70
128
71
55
72
54
73
57
0
VERTEX
8
OBJECT__13
10
0
20
0
30
0
70
128
71
57
72
56
73
55
0
VERTEX
8
OBJECT__13
10
0
20
0
30
0
70
128
71
50
72
58
73
56
0
VERTEX
8
OBJECT__13
10
0
20
0
30
0
70
128
71
52
72
51
73
54
0
VERTEX
8
OBJECT__13
10
0
20
0
30
0
70
128
71
59
72
60
73
61
0
VERTEX
8
OBJECT__13
10
0
20
0
30
0
70
128
71
61
72
62
73
59
0
VERTEX
8
OBJECT__13
10
0
20
0
30
0
70
128
71
61
72
63
73
62
0
VERTEX
8
OBJECT__13
10
0
20
0
30
0
70
128
71
63
72
64
73
65
0
VERTEX
8
OBJECT__13
10
0
20
0
30
0
70
128
71
65
72
64
73
66
0
VERTEX
8
OBJECT__13
10
0
20
0
30
0
70
128
71
66
72
53
73
65
0
VERTEX
8
OBJECT__13
10
0
20
0
30
0
70
128
71
65
72
62
73
63
0
VERTEX
8
OBJECT__13
10
0
20
0
30
0
70
128
71
59
72
67
73
60
0
VERTEX
8
OBJECT__13
10
0
20
0
30
0
70
128
71
53
72
66
73
51
0
VERTEX
8
OBJECT__13
10
0
20
0
30
0
70
128
71
39
72
38
73
40
0
VERTEX
8
OBJECT__13
10
0
20
0
30
0
70
128
71
28
72
32
73
29
0
VERTEX
8
OBJECT__13
10
0
20
0
30
0
70
128
71
23
72
18
73
17
0
VERTEX
8
OBJECT__13
10
0
20
0
30
0
70
128
71
13
72
16
73
11
0
VERTEX
8
OBJECT__13
10
0
20
0
30
0
70
128
71
3
72
4
73
1
0
SEQEND
8
OBJECT__13
0
POLYLINE
8
OBJECT__14
66
1
70
64
71
4
72
2
62
253
0
VERTEX
8
OBJECT__14
10
22.768000
20
10.857000
30
-14.979000
70
192
0
VERTEX
8
OBJECT__14
10
43.768002
20
10.857000
30
-14.979000
70
192
0
VERTEX
8
OBJECT__14
10
43.768002
20
10.857000
30
-12.425000
70
192
0
VERTEX
8
OBJECT__14
10
22.768000
20
10.857000
30
-12.425000
70
192
0
VERTEX
8
OBJECT__14
10
0
20
0
30
0
70
128
71
1
72
2
73
3
0
VERTEX
8
OBJECT__14
10
0
20
0
30
0
70
128
71
3
72
4
73
1
0
SEQEND
8
OBJECT__14
0
POLYLINE
8
OBJECT__15
66
1
70
64
71
23
72
21
62
253
0
VERTEX
8
OBJECT__15
10
13.975000
20
6.324000
30
-17.372999
70
192
0
VERTEX
8
OBJECT__15
10
13.339000
20
5.383000
30
-15.597000
70
192
0
VERTEX
8
OBJECT__15
10
13.131000
20
5.000000
30
-15.724000
70
192
0
VERTEX
8
OBJECT__15
10
14.170000
20
6.630000
30
-17.271000
70
192
0
VERTEX
8
OBJECT__15
10
15.248000
20
7.832000
30
-16.761000
70
192
0
VERTEX
8
OBJECT__15
10
14.360000
20
6.870000
30
-15.002000
70
192
0
VERTEX
8
OBJECT__15
10
13.621000
20
5.793000
30
-15.433000
70
192
0
VERTEX
8
OBJECT__15
10
15.427000
20
7.999000
30
-14.431000
70
192
0
VERTEX
8
OBJECT__15
10
15.560000
20
8.083000
30
-16.632000
70
192
0
VERTEX
8
OBJECT__15
10
15.550000
20
8.094000
30
-14.374000
70
192
0
VERTEX
8
OBJECT__15
10
17.997999
20
9.753000
30
-13.309000
70
192
0
VERTEX
8
OBJECT__15
10
16.905001
20
9.138000
30
-13.739000
70
192
0
VERTEX
8
OBJECT__15
10
17.877001
20
9.693000
30
-15.757000
70
192
0
VERTEX
8
OBJECT__15
10
18.915001
20
10.113000
30
-15.486000
70
192
0
VERTEX
8
OBJECT__15
10
18.915001
20
10.112000
30
-13.032000
70
192
0
VERTEX
8
OBJECT__15
10
16.701000
20
9.004000
30
-16.160999
70
192
0
VERTEX
8
OBJECT__15
10
22.768000
20
10.857000
30
-14.979000
70
192
0
VERTEX
8
OBJECT__15
10
22.768000
20
10.857000
30
-12.425000
70
192
0
VERTEX
8
OBJECT__15
10
21.122000
20
10.732000
30
-12.533000
70
192
0
VERTEX
8
OBJECT__15
10
21.068001
20
10.723000
30
-15.075000
70
192
0
VERTEX
8
OBJECT__15
10
19.646999
20
10.399000
30
-12.811000
70
192
0
VERTEX
8
OBJECT__15
10
19.544001
20
10.367000
30
-15.322000
70
192
0
VERTEX
8
OBJECT__15
10
13.131000
20
5.000000
30
-17.812000
70
192
0
VERTEX
8
OBJECT__15
10
0
20
0
30
0
70
128
71
1
72
2
73
3
0
VERTEX
8
OBJECT__15
10
0
20
0
30
0
70
128
71
4
72
5
73
6
0
VERTEX
8
OBJECT__15
10
0
20
0
30
0
70
128
71
7
72
1
73
4
0
VERTEX
8
OBJECT__15
10
0
20
0
30
0
70
128
71
6
72
7
73
4
0
VERTEX
8
OBJECT__15
10
0
20
0
30
0
70
128
71
7
72
2
73
1
0
VERTEX
8
OBJECT__15
10
0
20
0
30
0
70
128
71
8
72
6
73
5
0
VERTEX
8
OBJECT__15
10
0
20
0
30
0
70
128
71
9
72
10
73
8
0
VERTEX
8
OBJECT__15
10
0
20
0
30
0
70
128
71
5
72
9
73
8
0
VERTEX
8
OBJECT__15
10
0
20
0
30
0
70
128
71
11
72
12
73
13
0
VERTEX
8
OBJECT__15
10
0
20
0
30
0
70
128
71
14
72
15
73
11
0
VERTEX
8
OBJECT__15
10
0
20
0
30
0
70
128
71
12
72
10
73
16
0
VERTEX
8
OBJECT__15
10
0
20
0
30
0
70
128
71
10
72
9
73
16
0
VERTEX
8
OBJECT__15
10
0
20
0
30
0
70
128
71
16
72
13
73
12
0
VERTEX
8
OBJECT__15
10
0
20
0
30
0
70
128
71
17
72
18
73
19
0
VERTEX
8
OBJECT__15
10
0
20
0
30
0
70
128
71
20
72
19
73
21
0
VERTEX
8
OBJECT__15
10
0
20
0
30
0
70
128
71
21
72
22
73
20
0
VERTEX
8
OBJECT__15
10
0
20
0
30
0
70
128
71
15
72
14
73
22
0
VERTEX
8
OBJECT__15
10
0
20
0
30
0
70
128
71
21
72
15
73
22
0
VERTEX
8
OBJECT__15
10
0
20
0
30
0
70
128
71
19
72
20
73
17
0
VERTEX
8
OBJECT__15
10
0
20
0
30
0
70
128
71
13
72
14
73
11
0
VERTEX
8
OBJECT__15
10
0
20
0
30
0
70
128
71
3
72
23
73
1
0
SEQEND
8
OBJECT__15
0
POLYLINE
8
OBJECT__16
66
1
70
64
71
4
72
2
62
253
0
VERTEX
8
OBJECT__16
10
13.131000
20
5.000000
30
-15.724000
70
192
0
VERTEX
8
OBJECT__16
10
11.500000
20
5.000000
30
-15.724000
70
192
0
VERTEX
8
OBJECT__16
10
11.500000
20
5.000000
30
-17.812000
70
192
0
VERTEX
8
OBJECT__16
10
13.131000
20
5.000000
30
-17.812000
70
192
0
VERTEX
8
OBJECT__16
10
0
20
0
30
0
70
128
71
1
72
2
73
3
0
VERTEX
8
OBJECT__16
10
0
20
0
30
0
70
128
71
3
72
4
73
1
0
SEQEND
8
OBJECT__16
0
POLYLINE
8
OBJECT__17
66
1
70
64
71
6
72
4
62
253
0
VERTEX
8
OBJECT__17
10
11.500000
20
-5.000000
30
-17.812000
70
192
0
VERTEX
8
OBJECT__17
10
11.500000
20
0.000000
30
-18.500000
70
192
0
VERTEX
8
OBJECT__17
10
11.500000
20
0.000000
30
-16.500000
70
192
0
VERTEX
8
OBJECT__17
10
11.500000
20
5.000000
30
-17.812000
70
192
0
VERTEX
8
OBJECT__17
10
11.500000
20
5.000000
30
-15.724000
70
192
0
VERTEX
8
OBJECT__17
10
11.500000
20
-5.000000
30
-15.724000
70
192
0
VERTEX
8
OBJECT__17
10
0
20
0
30
0
70
128
71
1
72
2
73
3
0
VERTEX
8
OBJECT__17
10
0
20
0
30
0
70
128
71
4
72
5
73
3
0
VERTEX
8
OBJECT__17
10
0
20
0
30
0
70
128
71
3
72
2
73
4
0
VERTEX
8
OBJECT__17
10
0
20
0
30
0
70
128
71
3
72
6
73
1
0
SEQEND
8
OBJECT__17
0
POLYLINE
8
OBJECT__18
66
1
70
64
71
4
72
2
62
253
0
VERTEX
8
OBJECT__18
10
11.500000
20
-5.000000
30
-15.724000
70
192
0
VERTEX
8
OBJECT__18
10
13.131000
20
-5.000000
30
-15.724000
70
192
0
VERTEX
8
OBJECT__18
10
13.131000
20
-5.000000
30
-17.812000
70
192
0
VERTEX
8
OBJECT__18
10
11.500000
20
-5.000000
30
-17.812000
70
192
0
VERTEX
8
OBJECT__18
10
0
20
0
30
0
70
128
71
1
72
2
73
3
0
VERTEX
8
OBJECT__18
10
0
20
0
30
0
70
128
71
3
72
4
73
1
0
SEQEND
8
OBJECT__18
0
POLYLINE
8
OBJECT__19
66
1
70
64
71
50
72
50
62
253
0
VERTEX
8
OBJECT__19
10
27.007999
20
-6.533000
30
-29.000000
70
192
0
VERTEX
8
OBJECT__19
10
26.235001
20
-5.423000
30
-8.052000
70
192
0
VERTEX
8
OBJECT__19
10
25.365000
20
-3.612000
30
-8.072000
70
192
0
VERTEX
8
OBJECT__19
10
27.028999
20
-6.518000
30
-8.031000
70
192
0
VERTEX
8
OBJECT__19
10
24.985001
20
-2.331000
30
-29.000000
70
192
0
VERTEX
8
OBJECT__19
10
24.985001
20
-2.331000
30
-8.072000
70
192
0
VERTEX
8
OBJECT__19
10
24.723000
20
0.000000
30
-8.072000
70
192
0
VERTEX
8
OBJECT__19
10
24.985001
20
2.331000
30
-8.072000
70
192
0
VERTEX
8
OBJECT__19
10
24.985001
20
2.331000
30
-29.000000
70
192
0
VERTEX
8
OBJECT__19
10
24.723000
20
0.000000
30
-29.000000
70
192
0
VERTEX
8
OBJECT__19
10
27.007999
20
6.533000
30
-29.000000
70
192
0
VERTEX
8
OBJECT__19
10
25.365000
20
3.612000
30
-8.072000
70
192
0
VERTEX
8
OBJECT__19
10
26.235001
20
5.423000
30
-8.052000
70
192
0
VERTEX
8
OBJECT__19
10
30.653999
20
9.440000
30
-29.000000
70
192
0
VERTEX
8
OBJECT__19
10
28.563000
20
8.108000
30
-8.016000
70
192
0
VERTEX
8
OBJECT__19
10
27.028999
20
6.518000
30
-8.031000
70
192
0
VERTEX
8
OBJECT__19
10
27.254000
20
6.830000
30
-8.025000
70
192
0
VERTEX
8
OBJECT__19
10
29.957001
20
9.071000
30
-8.026000
70
192
0
VERTEX
8
OBJECT__19
10
32.344002
20
10.081000
30
-8.066000
70
192
0
VERTEX
8
OBJECT__19
10
33.033001
20
10.251000
30
-8.072000
70
192
0
VERTEX
8
OBJECT__19
10
35.200001
20
10.478000
30
-29.000000
70
192
0
VERTEX
8
OBJECT__19
10
31.858000
20
9.930000
30
-8.054000
70
192
0
VERTEX
8
OBJECT__19
10
32.070000
20
9.999000
30
-8.058000
70
192
0
VERTEX
8
OBJECT__19
10
31.365000
20
9.750000
30
-8.046000
70
192
0
VERTEX
8
OBJECT__19
10
30.667000
20
9.414000
30
-8.036000
70
192
0
VERTEX
8
OBJECT__19
10
35.200001
20
10.478000
30
-8.072000
70
192
0
VERTEX
8
OBJECT__19
10
39.745998
20
9.440000
30
-8.072000
70
192
0
VERTEX
8
OBJECT__19
10
39.745998
20
9.440000
30
-29.000000
70
192
0
VERTEX
8
OBJECT__19
10
43.391998
20
6.533000
30
-8.072000
70
192
0
VERTEX
8
OBJECT__19
10
43.391998
20
6.533000
30
-29.000000
70
192
0
VERTEX
8
OBJECT__19
10
45.415001
20
2.331000
30
-8.072000
70
192
0
VERTEX
8
OBJECT__19
10
45.415001
20
2.331000
30
-29.000000
70
192
0
VERTEX
8
OBJECT__19
10
45.415001
20
-2.331000
30
-29.000000
70
192
0
VERTEX
8
OBJECT__19
10
45.678001
20
0.000000
30
-8.072000
70
192
0
VERTEX
8
OBJECT__19
10
45.415001
20
-2.331000
30
-8.072000
70
192
0
VERTEX
8
OBJECT__19
10
43.391998
20
-6.533000
30
-8.072000
70
192
0
VERTEX
8
OBJECT__19
10
43.391998
20
-6.533000
30
-29.000000
70
192
0
VERTEX
8
OBJECT__19
10
39.745998
20
-9.440000
30
-8.072000
70
192
0
VERTEX
8
OBJECT__19
10
39.745998
20
-9.440000
30
-29.000000
70
192
0
VERTEX
8
OBJECT__19
10
35.200001
20
-10.477000
30
-8.072000
70
192
0
VERTEX
8
OBJECT__19
10
35.200001
20
-10.477000
30
-29.000000
70
192
0
VERTEX
8
OBJECT__19
10
30.653999
20
-9.440000
30
-29.000000
70
192
0
VERTEX
8
OBJECT__19
10
32.344002
20
-10.081000
30
-8.065000
70
192
0
VERTEX
8
OBJECT__19
10
31.858000
20
-9.930000
30
-8.054000
70
192
0
VERTEX
8
OBJECT__19
10
31.365000
20
-9.750000
30
-8.046000
70
192
0
VERTEX
8
OBJECT__19
10
33.029999
20
-10.250000
30
-8.072000
70
192
0
VERTEX
8
OBJECT__19
10
28.563000
20
-8.108000
30
-8.016000
70
192
0
VERTEX
8
OBJECT__19
10
27.254000
20
-6.830000
30
-8.025000
70
192
0
VERTEX
8
OBJECT__19
10
29.957001
20
-9.071000
30
-8.026000
70
192
0
VERTEX
8
OBJECT__19
10
30.667000
20
-9.414000
30
-8.036000
70
192
0
VERTEX
8
OBJECT__19
10
0
20
0
30
0
70
128
71
1
72
2
73
3
0
VERTEX
8
OBJECT__19
10
0
20
0
30
0
70
128
71
1
72
4
73
2
0
VERTEX
8
OBJECT__19
10
0
20
0
30
0
70
128
71
3
72
5
73
1
0
VERTEX
8
OBJECT__19
10
0
20
0
30
0
70
128
71
5
72
6
73
7
0
VERTEX
8
OBJECT__19
10
0
20
0
30
0
70
128
71
8
72
9
73
10
0
VERTEX
8
OBJECT__19
10
0
20
0
30
0
70
128
71
10
72
7
73
8
0
VERTEX
8
OBJECT__19
10
0
20
0
30
0
70
128
71
11
72
9
73
12
0
VERTEX
8
OBJECT__19
10
0
20
0
30
0
70
128
71
12
72
13
73
11
0
VERTEX
8
OBJECT__19
10
0
20
0
30
0
70
128
71
9
72
8
73
12
0
VERTEX
8
OBJECT__19
10
0
20
0
30
0
70
128
71
14
72
11
73
15
0
VERTEX
8
OBJECT__19
10
0
20
0
30
0
70
128
71
11
72
16
73
17
0
VERTEX
8
OBJECT__19
10
0
20
0
30
0
70
128
71
17
72
15
73
11
0
VERTEX
8
OBJECT__19
10
0
20
0
30
0
70
128
71
15
72
18
73
14
0
VERTEX
8
OBJECT__19
10
0
20
0
30
0
70
128
71
14
72
19
73
20
0
VERTEX
8
OBJECT__19
10
0
20
0
30
0
70
128
71
20
72
21
73
14
0
VERTEX
8
OBJECT__19
10
0
20
0
30
0
70
128
71
14
72
22
73
23
0
VERTEX
8
OBJECT__19
10
0
20
0
30
0
70
128
71
14
72
24
73
22
0
VERTEX
8
OBJECT__19
10
0
20
0
30
0
70
128
71
14
72
25
73
24
0
VERTEX
8
OBJECT__19
10
0
20
0
30
0
70
128
71
23
72
19
73
14
0
VERTEX
8
OBJECT__19
10
0
20
0
30
0
70
128
71
26
72
27
73
28
0
VERTEX
8
OBJECT__19
10
0
20
0
30
0
70
128
71
29
72
30
73
28
0
VERTEX
8
OBJECT__19
10
0
20
0
30
0
70
128
71
29
72
31
73
32
0
VERTEX
8
OBJECT__19
10
0
20
0
30
0
70
128
71
33
72
32
73
34
0
VERTEX
8
OBJECT__19
10
0
20
0
30
0
70
128
71
32
72
31
73
34
0
VERTEX
8
OBJECT__19
10
0
20
0
30
0
70
128
71
35
72
36
73
37
0
VERTEX
8
OBJECT__19
10
0
20
0
30
0
70
128
71
36
72
38
73
39
0
VERTEX
8
OBJECT__19
10
0
20
0
30
0
70
128
71
38
72
40
73
41
0
VERTEX
8
OBJECT__19
10
0
20
0
30
0
70
128
71
42
72
43
73
44
0
VERTEX
8
OBJECT__19
10
0
20
0
30
0
70
128
71
44
72
45
73
42
0
VERTEX
8
OBJECT__19
10
0
20
0
30
0
70
128
71
42
72
41
73
46
0
VERTEX
8
OBJECT__19
10
0
20
0
30
0
70
128
71
41
72
40
73
46
0
VERTEX
8
OBJECT__19
10
0
20
0
30
0
70
128
71
46
72
43
73
42
0
VERTEX
8
OBJECT__19
10
0
20
0
30
0
70
128
71
1
72
47
73
48
0
VERTEX
8
OBJECT__19
10
0
20
0
30
0
70
128
71
42
72
49
73
47
0
VERTEX
8
OBJECT__19
10
0
20
0
30
0
70
128
71
47
72
1
73
42
0
VERTEX
8
OBJECT__19
10
0
20
0
30
0
70
128
71
42
72
50
73
49
0
VERTEX
8
OBJECT__19
10
0
20
0
30
0
70
128
71
48
72
4
73
1
0
VERTEX
8
OBJECT__19
10
0
20
0
30
0
70
128
71
45
72
50
73
42
0
VERTEX
8
OBJECT__19
10
0
20
0
30
0
70
128
71
41
72
39
73
38
0
VERTEX
8
OBJECT__19
10
0
20
0
30
0
70
128
71
39
72
37
73
36
0
VERTEX
8
OBJECT__19
10
0
20
0
30
0
70
128
71
37
72
33
73
35
0
VERTEX
8
OBJECT__19
10
0
20
0
30
0
70
128
71
34
72
35
73
33
0
VERTEX
8
OBJECT__19
10
0
20
0
30
0
70
128
71
32
72
30
73
29
0
VERTEX
8
OBJECT__19
10
0
20
0
30
0
70
128
71
28
72
27
73
29
0
VERTEX
8
OBJECT__19
10
0
20
0
30
0
70
128
71
28
72
21
73
26
0
VERTEX
8
OBJECT__19
10
0
20
0
30
0
70
128
71
20
72
26
73
21
0
VERTEX
8
OBJECT__19
10
0
20
0
30
0
70
128
71
18
72
25
73
14
0
VERTEX
8
OBJECT__19
10
0
20
0
30
0
70
128
71
13
72
16
73
11
0
VERTEX
8
OBJECT__19
10
0
20
0
30
0
70
128
71
7
72
10
73
5
0
VERTEX
8
OBJECT__19
10
0
20
0
30
0
70
128
71
3
72
6
73
5
0
SEQEND
8
OBJECT__19
0
POLYLINE
8
OBJECT__20
66
1
70
64
71
15
72
13
62
253
0
VERTEX
8
OBJECT__20
10
24.985001
20
2.331000
30
-29.000000
70
192
0
VERTEX
8
OBJECT__20
10
39.745998
20
9.440000
30
-29.000000
70
192
0
VERTEX
8
OBJECT__20
10
43.391998
20
6.533000
30
-29.000000
70
192
0
VERTEX
8
OBJECT__20
10
30.653999
20
-9.440000
30
-29.000000
70
192
0
VERTEX
8
OBJECT__20
10
43.391998
20
-6.533000
30
-29.000000
70
192
0
VERTEX
8
OBJECT__20
10
39.745998
20
-9.440000
30
-29.000000
70
192
0
VERTEX
8
OBJECT__20
10
45.415001
20
2.331000
30
-29.000000
70
192
0
VERTEX
8
OBJECT__20
10
45.415001
20
-2.331000
30
-29.000000
70
192
0
VERTEX
8
OBJECT__20
10
35.200001
20
10.478000
30
-29.000000
70
192
0
VERTEX
8
OBJECT__20
10
27.007999
20
6.533000
30
-29.000000
70
192
0
VERTEX
8
OBJECT__20
10
27.007999
20
-6.533000
30
-29.000000
70
192
0
VERTEX
8
OBJECT__20
10
30.653999
20
9.440000
30
-29.000000
70
192
0
VERTEX
8
OBJECT__20
10
35.200001
20
-10.477000
30
-29.000000
70
192
0
VERTEX
8
OBJECT__20
10
24.723000
20
0.000000
30
-29.000000
70
192
0
VERTEX
8
OBJECT__20
10
24.985001
20
-2.331000
30
-29.000000
70
192
0
VERTEX
8
OBJECT__20
10
0
20
0
30
0
70
128
71
1
72
2
73
3
0
VERTEX
8
OBJECT__20
10
0
20
0
30
0
70
128
71
4
72
5
73
6
0
VERTEX
8
OBJECT__20
10
0
20
0
30
0
70
128
71
4
72
7
73
8
0
VERTEX
8
OBJECT__20
10
0
20
0
30
0
70
128
71
1
72
9
73
2
0
VERTEX
8
OBJECT__20
10
0
20
0
30
0
70
128
71
9
72
1
73
10
0
VERTEX
8
OBJECT__20
10
0
20
0
30
0
70
128
71
7
72
4
73
11
0
VERTEX
8
OBJECT__20
10
0
20
0
30
0
70
128
71
8
72
5
73
4
0
VERTEX
8
OBJECT__20
10
0
20
0
30
0
70
128
71
10
72
12
73
9
0
VERTEX
8
OBJECT__20
10
0
20
0
30
0
70
128
71
6
72
13
73
4
0
VERTEX
8
OBJECT__20
10
0
20
0
30
0
70
128
71
7
72
14
73
1
0
VERTEX
8
OBJECT__20
10
0
20
0
30
0
70
128
71
11
72
15
73
7
0
VERTEX
8
OBJECT__20
10
0
20
0
30
0
70
128
71
15
72
14
73
7
0
VERTEX
8
OBJECT__20
10
0
20
0
30
0
70
128
71
3
72
7
73
1
0
SEQEND
8
OBJECT__20
0
ENDSEC
0
EOF
