999
Converted by 3D Exploration 
999
XDimension Software, LLC
999
http://www.xdsoft.com/explorer/
0
SECTION
2
HEADER
9
$ACADVER
1
AC1008
9
$UCSORG
10
0.0
20
0.0
30
0.0
9
$UCSXDIR
10
1.0
20
0.0
30
0.0
9
$TILEMODE
70
1
9
$UCSYDIR
10
0.0
20
1.0
30
0.0
9
$EXTMIN
10
0.000000
20
-38.709000
30
-38.709000
9
$EXTMAX
10
189.542999
20
38.720001
30
61.008999
0
ENDSEC
0
SECTION
2
TABLES
0
TABLE
2
LTYPE
70
1
0
LTYPE
2
CONTINUOUS
70
64
3
Solid line
72
65
73
0
40
0.0
0
ENDTAB
0
TABLE
2
LAYER
70
57
0
LAYER
2
OBJECT__0
70
0
62
253
6
CONTINUOUS
0
LAYER
2
OBJECT__1
70
0
62
253
6
CONTINUOUS
0
LAYER
2
OBJECT__3
70
0
62
253
6
CONTINUOUS
0
LAYER
2
OBJECT__4
70
0
62
253
6
CONTINUOUS
0
LAYER
2
OBJECT__5
70
0
62
253
6
CONTINUOUS
0
LAYER
2
OBJECT__6
70
0
62
253
6
CONTINUOUS
0
LAYER
2
OBJECT__8
70
0
62
253
6
CONTINUOUS
0
LAYER
2
OBJECT__9
70
0
62
253
6
CONTINUOUS
0
LAYER
2
OBJECT__11
70
0
62
253
6
CONTINUOUS
0
LAYER
2
OBJECT__12
70
0
62
253
6
CONTINUOUS
0
LAYER
2
OBJECT__13
70
0
62
253
6
CONTINUOUS
0
LAYER
2
OBJECT__14
70
0
62
253
6
CONTINUOUS
0
LAYER
2
OBJECT__15
70
0
62
253
6
CONTINUOUS
0
LAYER
2
OBJECT__16
70
0
62
253
6
CONTINUOUS
0
LAYER
2
OBJECT__17
70
0
62
253
6
CONTINUOUS
0
LAYER
2
OBJECT__18
70
0
62
253
6
CONTINUOUS
0
LAYER
2
OBJECT__19
70
0
62
253
6
CONTINUOUS
0
LAYER
2
OBJECT__20
70
0
62
253
6
CONTINUOUS
0
LAYER
2
OBJECT__21
70
0
62
253
6
CONTINUOUS
0
LAYER
2
OBJECT__22
70
0
62
253
6
CONTINUOUS
0
LAYER
2
OBJECT__23
70
0
62
253
6
CONTINUOUS
0
LAYER
2
OBJECT__24
70
0
62
253
6
CONTINUOUS
0
LAYER
2
OBJECT__25
70
0
62
253
6
CONTINUOUS
0
LAYER
2
OBJECT__26
70
0
62
253
6
CONTINUOUS
0
LAYER
2
OBJECT__27
70
0
62
253
6
CONTINUOUS
0
LAYER
2
OBJECT__28
70
0
62
253
6
CONTINUOUS
0
LAYER
2
OBJECT__29
70
0
62
253
6
CONTINUOUS
0
LAYER
2
OBJECT__30
70
0
62
253
6
CONTINUOUS
0
LAYER
2
OBJECT__31
70
0
62
253
6
CONTINUOUS
0
LAYER
2
OBJECT__32
70
0
62
253
6
CONTINUOUS
0
LAYER
2
OBJECT__33
70
0
62
253
6
CONTINUOUS
0
LAYER
2
OBJECT__34
70
0
62
253
6
CONTINUOUS
0
LAYER
2
OBJECT__35
70
0
62
253
6
CONTINUOUS
0
LAYER
2
OBJECT__36
70
0
62
253
6
CONTINUOUS
0
LAYER
2
OBJECT__37
70
0
62
253
6
CONTINUOUS
0
LAYER
2
OBJECT__38
70
0
62
253
6
CONTINUOUS
0
LAYER
2
OBJECT__39
70
0
62
253
6
CONTINUOUS
0
LAYER
2
OBJECT__40
70
0
62
253
6
CONTINUOUS
0
LAYER
2
OBJECT__41
70
0
62
253
6
CONTINUOUS
0
LAYER
2
OBJECT__42
70
0
62
253
6
CONTINUOUS
0
LAYER
2
OBJECT__43
70
0
62
253
6
CONTINUOUS
0
LAYER
2
OBJECT__44
70
0
62
253
6
CONTINUOUS
0
LAYER
2
OBJECT__45
70
0
62
253
6
CONTINUOUS
0
LAYER
2
OBJECT__46
70
0
62
253
6
CONTINUOUS
0
LAYER
2
OBJECT__47
70
0
62
253
6
CONTINUOUS
0
LAYER
2
OBJECT__48
70
0
62
253
6
CONTINUOUS
0
LAYER
2
OBJECT__49
70
0
62
253
6
CONTINUOUS
0
LAYER
2
OBJECT__50
70
0
62
253
6
CONTINUOUS
0
LAYER
2
OBJECT__52
70
0
62
253
6
CONTINUOUS
0
LAYER
2
OBJECT__53
70
0
62
253
6
CONTINUOUS
0
LAYER
2
OBJECT__55
70
0
62
253
6
CONTINUOUS
0
LAYER
2
OBJECT__56
70
0
62
253
6
CONTINUOUS
0
ENDTAB
0
TABLE
2
STYLE
70
1
0
STYLE
2
STANDARD
70
0
40
0.0
41
1.0
50
0.0
71
0
42
0.2
3
txt
4
1
0
ENDTAB
0
TABLE
2
UCS
70
0
0
ENDTAB
0
ENDSEC
0
SECTION
2
ENTITIES
0
POLYLINE
8
OBJECT__0
66
1
70
64
71
15
72
15
62
253
0
VERTEX
8
OBJECT__0
10
179.287994
20
1.285000
30
36.389000
70
192
0
VERTEX
8
OBJECT__0
10
179.287994
20
1.285000
30
49.389000
70
192
0
VERTEX
8
OBJECT__0
10
175.072006
20
7.469000
30
49.389000
70
192
0
VERTEX
8
OBJECT__0
10
177.082001
20
-5.866000
30
36.389000
70
192
0
VERTEX
8
OBJECT__0
10
177.082001
20
-5.866000
30
49.389000
70
192
0
VERTEX
8
OBJECT__0
10
170.115997
20
-8.601000
30
36.389000
70
192
0
VERTEX
8
OBJECT__0
10
170.115997
20
-8.600000
30
49.389000
70
192
0
VERTEX
8
OBJECT__0
10
163.634003
20
-4.859000
30
36.389000
70
192
0
VERTEX
8
OBJECT__0
10
163.634995
20
-4.858000
30
49.389000
70
192
0
VERTEX
8
OBJECT__0
10
162.518005
20
2.542000
30
36.389000
70
192
0
VERTEX
8
OBJECT__0
10
162.518997
20
2.542000
30
49.389000
70
192
0
VERTEX
8
OBJECT__0
10
167.608994
20
8.029000
30
36.389000
70
192
0
VERTEX
8
OBJECT__0
10
167.608994
20
8.028000
30
49.389000
70
192
0
VERTEX
8
OBJECT__0
10
163.291000
20
4.312000
30
49.389000
70
192
0
VERTEX
8
OBJECT__0
10
175.072006
20
7.469000
30
36.389000
70
192
0
VERTEX
8
OBJECT__0
10
0
20
0
30
0
70
128
71
1
72
2
73
3
0
VERTEX
8
OBJECT__0
10
0
20
0
30
0
70
128
71
4
72
5
73
2
0
VERTEX
8
OBJECT__0
10
0
20
0
30
0
70
128
71
4
72
6
73
7
0
VERTEX
8
OBJECT__0
10
0
20
0
30
0
70
128
71
6
72
8
73
9
0
VERTEX
8
OBJECT__0
10
0
20
0
30
0
70
128
71
10
72
11
73
9
0
VERTEX
8
OBJECT__0
10
0
20
0
30
0
70
128
71
12
72
13
73
14
0
VERTEX
8
OBJECT__0
10
0
20
0
30
0
70
128
71
14
72
10
73
12
0
VERTEX
8
OBJECT__0
10
0
20
0
30
0
70
128
71
15
72
3
73
13
0
VERTEX
8
OBJECT__0
10
0
20
0
30
0
70
128
71
13
72
12
73
15
0
VERTEX
8
OBJECT__0
10
0
20
0
30
0
70
128
71
14
72
11
73
10
0
VERTEX
8
OBJECT__0
10
0
20
0
30
0
70
128
71
9
72
8
73
10
0
VERTEX
8
OBJECT__0
10
0
20
0
30
0
70
128
71
9
72
7
73
6
0
VERTEX
8
OBJECT__0
10
0
20
0
30
0
70
128
71
7
72
5
73
4
0
VERTEX
8
OBJECT__0
10
0
20
0
30
0
70
128
71
2
72
1
73
4
0
VERTEX
8
OBJECT__0
10
0
20
0
30
0
70
128
71
3
72
15
73
1
0
SEQEND
8
OBJECT__0
0
POLYLINE
8
OBJECT__1
66
1
70
64
71
18
72
18
62
253
0
VERTEX
8
OBJECT__1
10
175.072006
20
7.469000
30
36.389000
70
192
0
VERTEX
8
OBJECT__1
10
167.608994
20
8.029000
30
36.389000
70
192
0
VERTEX
8
OBJECT__1
10
172.641998
20
8.852000
30
36.389000
70
192
0
VERTEX
8
OBJECT__1
10
175.285004
20
7.837000
30
36.389000
70
192
0
VERTEX
8
OBJECT__1
10
177.485001
20
6.055000
30
36.389000
70
192
0
VERTEX
8
OBJECT__1
10
174.440994
20
-8.267000
30
36.389000
70
192
0
VERTEX
8
OBJECT__1
10
168.878998
20
-8.852000
30
36.389000
70
192
0
VERTEX
8
OBJECT__1
10
170.115997
20
-8.601000
30
36.389000
70
192
0
VERTEX
8
OBJECT__1
10
179.759995
20
0.946000
30
36.389000
70
192
0
VERTEX
8
OBJECT__1
10
179.287994
20
1.285000
30
36.389000
70
192
0
VERTEX
8
OBJECT__1
10
178.597000
20
-4.525000
30
36.389000
70
192
0
VERTEX
8
OBJECT__1
10
177.082001
20
-5.866000
30
36.389000
70
192
0
VERTEX
8
OBJECT__1
10
161.759995
20
-0.946000
30
36.389000
70
192
0
VERTEX
8
OBJECT__1
10
162.923004
20
4.525000
30
36.389000
70
192
0
VERTEX
8
OBJECT__1
10
162.518005
20
2.542000
30
36.389000
70
192
0
VERTEX
8
OBJECT__1
10
164.035004
20
-6.055000
30
36.389000
70
192
0
VERTEX
8
OBJECT__1
10
163.634003
20
-4.859000
30
36.389000
70
192
0
VERTEX
8
OBJECT__1
10
167.078995
20
8.267000
30
36.389000
70
192
0
VERTEX
8
OBJECT__1
10
0
20
0
30
0
70
128
71
1
72
2
73
3
0
VERTEX
8
OBJECT__1
10
0
20
0
30
0
70
128
71
1
72
4
73
5
0
VERTEX
8
OBJECT__1
10
0
20
0
30
0
70
128
71
6
72
7
73
8
0
VERTEX
8
OBJECT__1
10
0
20
0
30
0
70
128
71
3
72
4
73
1
0
VERTEX
8
OBJECT__1
10
0
20
0
30
0
70
128
71
5
72
9
73
10
0
VERTEX
8
OBJECT__1
10
0
20
0
30
0
70
128
71
10
72
9
73
11
0
VERTEX
8
OBJECT__1
10
0
20
0
30
0
70
128
71
8
72
12
73
6
0
VERTEX
8
OBJECT__1
10
0
20
0
30
0
70
128
71
13
72
14
73
15
0
VERTEX
8
OBJECT__1
10
0
20
0
30
0
70
128
71
5
72
10
73
1
0
VERTEX
8
OBJECT__1
10
0
20
0
30
0
70
128
71
12
72
11
73
6
0
VERTEX
8
OBJECT__1
10
0
20
0
30
0
70
128
71
8
72
7
73
16
0
VERTEX
8
OBJECT__1
10
0
20
0
30
0
70
128
71
15
72
17
73
13
0
VERTEX
8
OBJECT__1
10
0
20
0
30
0
70
128
71
17
72
16
73
13
0
VERTEX
8
OBJECT__1
10
0
20
0
30
0
70
128
71
11
72
12
73
10
0
VERTEX
8
OBJECT__1
10
0
20
0
30
0
70
128
71
2
72
15
73
14
0
VERTEX
8
OBJECT__1
10
0
20
0
30
0
70
128
71
16
72
17
73
8
0
VERTEX
8
OBJECT__1
10
0
20
0
30
0
70
128
71
2
72
18
73
3
0
VERTEX
8
OBJECT__1
10
0
20
0
30
0
70
128
71
14
72
18
73
2
0
SEQEND
8
OBJECT__1
0
POLYLINE
8
OBJECT__3
66
1
70
64
71
31
72
31
62
253
0
VERTEX
8
OBJECT__3
10
178.597000
20
-4.525000
30
36.389000
70
192
0
VERTEX
8
OBJECT__3
10
179.759995
20
0.946000
30
36.389000
70
192
0
VERTEX
8
OBJECT__3
10
180.776001
20
0.000000
30
37.132000
70
192
0
VERTEX
8
OBJECT__3
10
180.509995
20
0.991000
30
37.132000
70
192
0
VERTEX
8
OBJECT__3
10
177.485001
20
6.055000
30
36.389000
70
192
0
VERTEX
8
OBJECT__3
10
179.434006
20
5.008000
30
37.132000
70
192
0
VERTEX
8
OBJECT__3
10
177.972000
20
6.470000
30
37.132000
70
192
0
VERTEX
8
OBJECT__3
10
172.757996
20
9.480000
30
37.132000
70
192
0
VERTEX
8
OBJECT__3
10
175.768005
20
8.674000
30
37.132000
70
192
0
VERTEX
8
OBJECT__3
10
175.285004
20
7.837000
30
36.389000
70
192
0
VERTEX
8
OBJECT__3
10
167.078995
20
8.267000
30
36.389000
70
192
0
VERTEX
8
OBJECT__3
10
166.742996
20
8.939000
30
37.132000
70
192
0
VERTEX
8
OBJECT__3
10
170.759995
20
10.016000
30
37.132000
70
192
0
VERTEX
8
OBJECT__3
10
172.641998
20
8.852000
30
36.389000
70
192
0
VERTEX
8
OBJECT__3
10
162.923004
20
4.525000
30
36.389000
70
192
0
VERTEX
8
OBJECT__3
10
162.085999
20
5.008000
30
37.132000
70
192
0
VERTEX
8
OBJECT__3
10
165.751999
20
8.674000
30
37.132000
70
192
0
VERTEX
8
OBJECT__3
10
161.759995
20
-0.946000
30
36.389000
70
192
0
VERTEX
8
OBJECT__3
10
160.744003
20
0.000000
30
37.132000
70
192
0
VERTEX
8
OBJECT__3
10
161.009995
20
-0.991000
30
37.132000
70
192
0
VERTEX
8
OBJECT__3
10
164.035004
20
-6.055000
30
36.389000
70
192
0
VERTEX
8
OBJECT__3
10
162.085999
20
-5.008000
30
37.132000
70
192
0
VERTEX
8
OBJECT__3
10
163.548996
20
-6.470000
30
37.132000
70
192
0
VERTEX
8
OBJECT__3
10
168.878998
20
-8.852000
30
36.389000
70
192
0
VERTEX
8
OBJECT__3
10
165.751999
20
-8.674000
30
37.132000
70
192
0
VERTEX
8
OBJECT__3
10
168.761993
20
-9.480000
30
37.132000
70
192
0
VERTEX
8
OBJECT__3
10
174.440994
20
-8.267000
30
36.389000
70
192
0
VERTEX
8
OBJECT__3
10
174.776993
20
-8.939000
30
37.132000
70
192
0
VERTEX
8
OBJECT__3
10
170.759995
20
-10.016000
30
37.132000
70
192
0
VERTEX
8
OBJECT__3
10
179.434006
20
-5.008000
30
37.132000
70
192
0
VERTEX
8
OBJECT__3
10
175.768005
20
-8.674000
30
37.132000
70
192
0
VERTEX
8
OBJECT__3
10
0
20
0
30
0
70
128
71
1
72
2
73
3
0
VERTEX
8
OBJECT__3
10
0
20
0
30
0
70
128
71
2
72
4
73
3
0
VERTEX
8
OBJECT__3
10
0
20
0
30
0
70
128
71
2
72
5
73
6
0
VERTEX
8
OBJECT__3
10
0
20
0
30
0
70
128
71
5
72
7
73
6
0
VERTEX
8
OBJECT__3
10
0
20
0
30
0
70
128
71
8
72
9
73
10
0
VERTEX
8
OBJECT__3
10
0
20
0
30
0
70
128
71
7
72
5
73
10
0
VERTEX
8
OBJECT__3
10
0
20
0
30
0
70
128
71
10
72
9
73
7
0
VERTEX
8
OBJECT__3
10
0
20
0
30
0
70
128
71
11
72
12
73
13
0
VERTEX
8
OBJECT__3
10
0
20
0
30
0
70
128
71
13
72
14
73
11
0
VERTEX
8
OBJECT__3
10
0
20
0
30
0
70
128
71
15
72
16
73
17
0
VERTEX
8
OBJECT__3
10
0
20
0
30
0
70
128
71
17
72
11
73
15
0
VERTEX
8
OBJECT__3
10
0
20
0
30
0
70
128
71
15
72
18
73
19
0
VERTEX
8
OBJECT__3
10
0
20
0
30
0
70
128
71
18
72
20
73
19
0
VERTEX
8
OBJECT__3
10
0
20
0
30
0
70
128
71
18
72
21
73
22
0
VERTEX
8
OBJECT__3
10
0
20
0
30
0
70
128
71
21
72
23
73
22
0
VERTEX
8
OBJECT__3
10
0
20
0
30
0
70
128
71
21
72
24
73
25
0
VERTEX
8
OBJECT__3
10
0
20
0
30
0
70
128
71
24
72
26
73
25
0
VERTEX
8
OBJECT__3
10
0
20
0
30
0
70
128
71
27
72
28
73
29
0
VERTEX
8
OBJECT__3
10
0
20
0
30
0
70
128
71
29
72
24
73
27
0
VERTEX
8
OBJECT__3
10
0
20
0
30
0
70
128
71
1
72
30
73
31
0
VERTEX
8
OBJECT__3
10
0
20
0
30
0
70
128
71
31
72
27
73
1
0
VERTEX
8
OBJECT__3
10
0
20
0
30
0
70
128
71
31
72
28
73
27
0
VERTEX
8
OBJECT__3
10
0
20
0
30
0
70
128
71
29
72
26
73
24
0
VERTEX
8
OBJECT__3
10
0
20
0
30
0
70
128
71
25
72
23
73
21
0
VERTEX
8
OBJECT__3
10
0
20
0
30
0
70
128
71
22
72
20
73
18
0
VERTEX
8
OBJECT__3
10
0
20
0
30
0
70
128
71
19
72
16
73
15
0
VERTEX
8
OBJECT__3
10
0
20
0
30
0
70
128
71
17
72
12
73
11
0
VERTEX
8
OBJECT__3
10
0
20
0
30
0
70
128
71
13
72
8
73
14
0
VERTEX
8
OBJECT__3
10
0
20
0
30
0
70
128
71
10
72
14
73
8
0
VERTEX
8
OBJECT__3
10
0
20
0
30
0
70
128
71
6
72
4
73
2
0
VERTEX
8
OBJECT__3
10
0
20
0
30
0
70
128
71
3
72
30
73
1
0
SEQEND
8
OBJECT__3
0
POLYLINE
8
OBJECT__4
66
1
70
64
71
32
72
32
62
253
0
VERTEX
8
OBJECT__4
10
184.526993
20
0.000000
30
55.499001
70
192
0
VERTEX
8
OBJECT__4
10
182.682999
20
-6.884000
30
55.499001
70
192
0
VERTEX
8
OBJECT__4
10
179.434006
20
-5.008000
30
37.132000
70
192
0
VERTEX
8
OBJECT__4
10
182.682999
20
6.884000
30
55.499001
70
192
0
VERTEX
8
OBJECT__4
10
180.509995
20
0.991000
30
37.132000
70
192
0
VERTEX
8
OBJECT__4
10
180.776001
20
0.000000
30
37.132000
70
192
0
VERTEX
8
OBJECT__4
10
177.643997
20
11.923000
30
55.499001
70
192
0
VERTEX
8
OBJECT__4
10
177.972000
20
6.470000
30
37.132000
70
192
0
VERTEX
8
OBJECT__4
10
179.434006
20
5.008000
30
37.132000
70
192
0
VERTEX
8
OBJECT__4
10
175.768005
20
8.674000
30
37.132000
70
192
0
VERTEX
8
OBJECT__4
10
172.757996
20
9.480000
30
37.132000
70
192
0
VERTEX
8
OBJECT__4
10
170.759995
20
13.767000
30
55.499001
70
192
0
VERTEX
8
OBJECT__4
10
170.759995
20
10.016000
30
37.132000
70
192
0
VERTEX
8
OBJECT__4
10
166.742996
20
8.939000
30
37.132000
70
192
0
VERTEX
8
OBJECT__4
10
163.876007
20
11.923000
30
55.499001
70
192
0
VERTEX
8
OBJECT__4
10
165.751999
20
8.674000
30
37.132000
70
192
0
VERTEX
8
OBJECT__4
10
162.085999
20
5.008000
30
37.132000
70
192
0
VERTEX
8
OBJECT__4
10
156.992996
20
0.000000
30
55.499001
70
192
0
VERTEX
8
OBJECT__4
10
158.837006
20
6.884000
30
55.499001
70
192
0
VERTEX
8
OBJECT__4
10
158.837006
20
-6.884000
30
55.499001
70
192
0
VERTEX
8
OBJECT__4
10
161.009995
20
-0.991000
30
37.132000
70
192
0
VERTEX
8
OBJECT__4
10
160.744003
20
0.000000
30
37.132000
70
192
0
VERTEX
8
OBJECT__4
10
163.876007
20
-11.923000
30
55.499001
70
192
0
VERTEX
8
OBJECT__4
10
163.548996
20
-6.470000
30
37.132000
70
192
0
VERTEX
8
OBJECT__4
10
162.085999
20
-5.008000
30
37.132000
70
192
0
VERTEX
8
OBJECT__4
10
165.751999
20
-8.674000
30
37.132000
70
192
0
VERTEX
8
OBJECT__4
10
168.761993
20
-9.480000
30
37.132000
70
192
0
VERTEX
8
OBJECT__4
10
170.759995
20
-13.767000
30
55.499001
70
192
0
VERTEX
8
OBJECT__4
10
170.759995
20
-10.016000
30
37.132000
70
192
0
VERTEX
8
OBJECT__4
10
174.776993
20
-8.939000
30
37.132000
70
192
0
VERTEX
8
OBJECT__4
10
177.643997
20
-11.923000
30
55.499001
70
192
0
VERTEX
8
OBJECT__4
10
175.768005
20
-8.674000
30
37.132000
70
192
0
VERTEX
8
OBJECT__4
10
0
20
0
30
0
70
128
71
1
72
2
73
3
0
VERTEX
8
OBJECT__4
10
0
20
0
30
0
70
128
71
4
72
1
73
5
0
VERTEX
8
OBJECT__4
10
0
20
0
30
0
70
128
71
1
72
6
73
5
0
VERTEX
8
OBJECT__4
10
0
20
0
30
0
70
128
71
7
72
4
73
8
0
VERTEX
8
OBJECT__4
10
0
20
0
30
0
70
128
71
4
72
9
73
8
0
VERTEX
8
OBJECT__4
10
0
20
0
30
0
70
128
71
7
72
10
73
11
0
VERTEX
8
OBJECT__4
10
0
20
0
30
0
70
128
71
11
72
12
73
7
0
VERTEX
8
OBJECT__4
10
0
20
0
30
0
70
128
71
12
72
13
73
14
0
VERTEX
8
OBJECT__4
10
0
20
0
30
0
70
128
71
14
72
15
73
12
0
VERTEX
8
OBJECT__4
10
0
20
0
30
0
70
128
71
15
72
16
73
17
0
VERTEX
8
OBJECT__4
10
0
20
0
30
0
70
128
71
18
72
19
73
17
0
VERTEX
8
OBJECT__4
10
0
20
0
30
0
70
128
71
20
72
18
73
21
0
VERTEX
8
OBJECT__4
10
0
20
0
30
0
70
128
71
18
72
22
73
21
0
VERTEX
8
OBJECT__4
10
0
20
0
30
0
70
128
71
23
72
20
73
24
0
VERTEX
8
OBJECT__4
10
0
20
0
30
0
70
128
71
20
72
25
73
24
0
VERTEX
8
OBJECT__4
10
0
20
0
30
0
70
128
71
23
72
26
73
27
0
VERTEX
8
OBJECT__4
10
0
20
0
30
0
70
128
71
27
72
28
73
23
0
VERTEX
8
OBJECT__4
10
0
20
0
30
0
70
128
71
28
72
29
73
30
0
VERTEX
8
OBJECT__4
10
0
20
0
30
0
70
128
71
30
72
31
73
28
0
VERTEX
8
OBJECT__4
10
0
20
0
30
0
70
128
71
31
72
32
73
3
0
VERTEX
8
OBJECT__4
10
0
20
0
30
0
70
128
71
3
72
2
73
31
0
VERTEX
8
OBJECT__4
10
0
20
0
30
0
70
128
71
30
72
32
73
31
0
VERTEX
8
OBJECT__4
10
0
20
0
30
0
70
128
71
27
72
29
73
28
0
VERTEX
8
OBJECT__4
10
0
20
0
30
0
70
128
71
24
72
26
73
23
0
VERTEX
8
OBJECT__4
10
0
20
0
30
0
70
128
71
21
72
25
73
20
0
VERTEX
8
OBJECT__4
10
0
20
0
30
0
70
128
71
17
72
22
73
18
0
VERTEX
8
OBJECT__4
10
0
20
0
30
0
70
128
71
17
72
19
73
15
0
VERTEX
8
OBJECT__4
10
0
20
0
30
0
70
128
71
14
72
16
73
15
0
VERTEX
8
OBJECT__4
10
0
20
0
30
0
70
128
71
11
72
13
73
12
0
VERTEX
8
OBJECT__4
10
0
20
0
30
0
70
128
71
8
72
10
73
7
0
VERTEX
8
OBJECT__4
10
0
20
0
30
0
70
128
71
5
72
9
73
4
0
VERTEX
8
OBJECT__4
10
0
20
0
30
0
70
128
71
3
72
6
73
1
0
SEQEND
8
OBJECT__4
0
POLYLINE
8
OBJECT__5
66
1
70
64
71
36
72
48
62
253
0
VERTEX
8
OBJECT__5
10
182.682999
20
-6.884000
30
55.499001
70
192
0
VERTEX
8
OBJECT__5
10
184.526993
20
0.000000
30
55.499001
70
192
0
VERTEX
8
OBJECT__5
10
184.481003
20
0.000000
30
55.659000
70
192
0
VERTEX
8
OBJECT__5
10
182.682999
20
6.884000
30
55.499001
70
192
0
VERTEX
8
OBJECT__5
10
182.641998
20
6.860000
30
55.659000
70
192
0
VERTEX
8
OBJECT__5
10
177.643997
20
11.923000
30
55.499001
70
192
0
VERTEX
8
OBJECT__5
10
177.619995
20
11.882000
30
55.659000
70
192
0
VERTEX
8
OBJECT__5
10
170.759995
20
13.767000
30
55.499001
70
192
0
VERTEX
8
OBJECT__5
10
170.759995
20
13.721000
30
55.659000
70
192
0
VERTEX
8
OBJECT__5
10
163.876007
20
11.923000
30
55.499001
70
192
0
VERTEX
8
OBJECT__5
10
163.899994
20
11.882000
30
55.659000
70
192
0
VERTEX
8
OBJECT__5
10
158.837006
20
6.884000
30
55.499001
70
192
0
VERTEX
8
OBJECT__5
10
158.878006
20
6.860000
30
55.659000
70
192
0
VERTEX
8
OBJECT__5
10
156.992996
20
0.000000
30
55.499001
70
192
0
VERTEX
8
OBJECT__5
10
157.039993
20
0.000000
30
55.659000
70
192
0
VERTEX
8
OBJECT__5
10
158.837006
20
-6.884000
30
55.499001
70
192
0
VERTEX
8
OBJECT__5
10
158.878006
20
-6.860000
30
55.659000
70
192
0
VERTEX
8
OBJECT__5
10
163.876007
20
-11.923000
30
55.499001
70
192
0
VERTEX
8
OBJECT__5
10
163.899994
20
-11.882000
30
55.659000
70
192
0
VERTEX
8
OBJECT__5
10
170.759995
20
-13.767000
30
55.499001
70
192
0
VERTEX
8
OBJECT__5
10
170.759995
20
-13.721000
30
55.659000
70
192
0
VERTEX
8
OBJECT__5
10
177.643997
20
-11.923000
30
55.499001
70
192
0
VERTEX
8
OBJECT__5
10
177.619995
20
-11.882000
30
55.659000
70
192
0
VERTEX
8
OBJECT__5
10
182.641998
20
-6.860000
30
55.659000
70
192
0
VERTEX
8
OBJECT__5
10
184.328995
20
0.000000
30
55.728001
70
192
0
VERTEX
8
OBJECT__5
10
182.511002
20
-6.785000
30
55.728001
70
192
0
VERTEX
8
OBJECT__5
10
182.511002
20
6.785000
30
55.728001
70
192
0
VERTEX
8
OBJECT__5
10
177.544998
20
11.751000
30
55.728001
70
192
0
VERTEX
8
OBJECT__5
10
170.759995
20
13.569000
30
55.728001
70
192
0
VERTEX
8
OBJECT__5
10
163.975006
20
11.751000
30
55.728001
70
192
0
VERTEX
8
OBJECT__5
10
159.009003
20
6.785000
30
55.728001
70
192
0
VERTEX
8
OBJECT__5
10
157.190994
20
0.000000
30
55.728001
70
192
0
VERTEX
8
OBJECT__5
10
159.009003
20
-6.785000
30
55.728001
70
192
0
VERTEX
8
OBJECT__5
10
163.975006
20
-11.751000
30
55.728001
70
192
0
VERTEX
8
OBJECT__5
10
170.759995
20
-13.569000
30
55.728001
70
192
0
VERTEX
8
OBJECT__5
10
177.544998
20
-11.751000
30
55.728001
70
192
0
VERTEX
8
OBJECT__5
10
0
20
0
30
0
70
128
71
1
72
2
73
3
0
VERTEX
8
OBJECT__5
10
0
20
0
30
0
70
128
71
2
72
4
73
5
0
VERTEX
8
OBJECT__5
10
0
20
0
30
0
70
128
71
4
72
6
73
7
0
VERTEX
8
OBJECT__5
10
0
20
0
30
0
70
128
71
6
72
8
73
9
0
VERTEX
8
OBJECT__5
10
0
20
0
30
0
70
128
71
10
72
11
73
9
0
VERTEX
8
OBJECT__5
10
0
20
0
30
0
70
128
71
12
72
13
73
11
0
VERTEX
8
OBJECT__5
10
0
20
0
30
0
70
128
71
12
72
14
73
15
0
VERTEX
8
OBJECT__5
10
0
20
0
30
0
70
128
71
14
72
16
73
17
0
VERTEX
8
OBJECT__5
10
0
20
0
30
0
70
128
71
16
72
18
73
19
0
VERTEX
8
OBJECT__5
10
0
20
0
30
0
70
128
71
18
72
20
73
21
0
VERTEX
8
OBJECT__5
10
0
20
0
30
0
70
128
71
20
72
22
73
23
0
VERTEX
8
OBJECT__5
10
0
20
0
30
0
70
128
71
22
72
1
73
24
0
VERTEX
8
OBJECT__5
10
0
20
0
30
0
70
128
71
3
72
25
73
26
0
VERTEX
8
OBJECT__5
10
0
20
0
30
0
70
128
71
5
72
27
73
25
0
VERTEX
8
OBJECT__5
10
0
20
0
30
0
70
128
71
7
72
28
73
27
0
VERTEX
8
OBJECT__5
10
0
20
0
30
0
70
128
71
9
72
29
73
28
0
VERTEX
8
OBJECT__5
10
0
20
0
30
0
70
128
71
9
72
11
73
30
0
VERTEX
8
OBJECT__5
10
0
20
0
30
0
70
128
71
13
72
31
73
30
0
VERTEX
8
OBJECT__5
10
0
20
0
30
0
70
128
71
15
72
32
73
31
0
VERTEX
8
OBJECT__5
10
0
20
0
30
0
70
128
71
17
72
33
73
32
0
VERTEX
8
OBJECT__5
10
0
20
0
30
0
70
128
71
19
72
34
73
33
0
VERTEX
8
OBJECT__5
10
0
20
0
30
0
70
128
71
21
72
35
73
34
0
VERTEX
8
OBJECT__5
10
0
20
0
30
0
70
128
71
23
72
36
73
35
0
VERTEX
8
OBJECT__5
10
0
20
0
30
0
70
128
71
24
72
26
73
36
0
VERTEX
8
OBJECT__5
10
0
20
0
30
0
70
128
71
36
72
23
73
24
0
VERTEX
8
OBJECT__5
10
0
20
0
30
0
70
128
71
35
72
21
73
23
0
VERTEX
8
OBJECT__5
10
0
20
0
30
0
70
128
71
34
72
19
73
21
0
VERTEX
8
OBJECT__5
10
0
20
0
30
0
70
128
71
33
72
17
73
19
0
VERTEX
8
OBJECT__5
10
0
20
0
30
0
70
128
71
32
72
15
73
17
0
VERTEX
8
OBJECT__5
10
0
20
0
30
0
70
128
71
31
72
13
73
15
0
VERTEX
8
OBJECT__5
10
0
20
0
30
0
70
128
71
30
72
11
73
13
0
VERTEX
8
OBJECT__5
10
0
20
0
30
0
70
128
71
30
72
29
73
9
0
VERTEX
8
OBJECT__5
10
0
20
0
30
0
70
128
71
28
72
7
73
9
0
VERTEX
8
OBJECT__5
10
0
20
0
30
0
70
128
71
27
72
5
73
7
0
VERTEX
8
OBJECT__5
10
0
20
0
30
0
70
128
71
25
72
3
73
5
0
VERTEX
8
OBJECT__5
10
0
20
0
30
0
70
128
71
26
72
24
73
3
0
VERTEX
8
OBJECT__5
10
0
20
0
30
0
70
128
71
24
72
23
73
22
0
VERTEX
8
OBJECT__5
10
0
20
0
30
0
70
128
71
23
72
21
73
20
0
VERTEX
8
OBJECT__5
10
0
20
0
30
0
70
128
71
21
72
19
73
18
0
VERTEX
8
OBJECT__5
10
0
20
0
30
0
70
128
71
19
72
17
73
16
0
VERTEX
8
OBJECT__5
10
0
20
0
30
0
70
128
71
17
72
15
73
14
0
VERTEX
8
OBJECT__5
10
0
20
0
30
0
70
128
71
15
72
13
73
12
0
VERTEX
8
OBJECT__5
10
0
20
0
30
0
70
128
71
11
72
10
73
12
0
VERTEX
8
OBJECT__5
10
0
20
0
30
0
70
128
71
9
72
8
73
10
0
VERTEX
8
OBJECT__5
10
0
20
0
30
0
70
128
71
9
72
7
73
6
0
VERTEX
8
OBJECT__5
10
0
20
0
30
0
70
128
71
7
72
5
73
4
0
VERTEX
8
OBJECT__5
10
0
20
0
30
0
70
128
71
5
72
3
73
2
0
VERTEX
8
OBJECT__5
10
0
20
0
30
0
70
128
71
3
72
24
73
1
0
SEQEND
8
OBJECT__5
0
POLYLINE
8
OBJECT__6
66
1
70
64
71
26
72
26
62
253
0
VERTEX
8
OBJECT__6
10
172.149002
20
-7.878000
30
39.118999
70
192
0
VERTEX
8
OBJECT__6
10
172.149002
20
-7.878000
30
13.369000
70
192
0
VERTEX
8
OBJECT__6
10
176.888000
20
-5.142000
30
13.369000
70
192
0
VERTEX
8
OBJECT__6
10
166.759995
20
-6.928000
30
39.118999
70
192
0
VERTEX
8
OBJECT__6
10
166.759995
20
-6.928000
30
13.369000
70
192
0
VERTEX
8
OBJECT__6
10
163.242996
20
-2.736000
30
39.118999
70
192
0
VERTEX
8
OBJECT__6
10
163.242996
20
-2.736000
30
13.369000
70
192
0
VERTEX
8
OBJECT__6
10
166.759995
20
6.928000
30
39.118999
70
192
0
VERTEX
8
OBJECT__6
10
166.759995
20
6.928000
30
13.369000
70
192
0
VERTEX
8
OBJECT__6
10
163.242996
20
2.736000
30
13.369000
70
192
0
VERTEX
8
OBJECT__6
10
172.149002
20
7.878000
30
39.118999
70
192
0
VERTEX
8
OBJECT__6
10
172.149002
20
7.878000
30
13.369000
70
192
0
VERTEX
8
OBJECT__6
10
176.888000
20
5.142000
30
39.118999
70
192
0
VERTEX
8
OBJECT__6
10
176.888000
20
5.142000
30
13.369000
70
192
0
VERTEX
8
OBJECT__6
10
178.759995
20
0.000000
30
13.369000
70
192
0
VERTEX
8
OBJECT__6
10
178.697006
20
1.000000
30
37.618999
70
192
0
VERTEX
8
OBJECT__6
10
178.697006
20
1.000000
30
39.118999
70
192
0
VERTEX
8
OBJECT__6
10
176.888000
20
-5.142000
30
39.118999
70
192
0
VERTEX
8
OBJECT__6
10
178.697006
20
-1.000000
30
37.618999
70
192
0
VERTEX
8
OBJECT__6
10
178.759995
20
0.000000
30
37.618999
70
192
0
VERTEX
8
OBJECT__6
10
163.242996
20
2.736000
30
39.118999
70
192
0
VERTEX
8
OBJECT__6
10
162.822998
20
1.000000
30
37.618999
70
192
0
VERTEX
8
OBJECT__6
10
162.822998
20
-1.000000
30
37.618999
70
192
0
VERTEX
8
OBJECT__6
10
162.822998
20
-1.000000
30
39.118999
70
192
0
VERTEX
8
OBJECT__6
10
162.822998
20
1.000000
30
39.118999
70
192
0
VERTEX
8
OBJECT__6
10
178.697006
20
-1.000000
30
39.118999
70
192
0
VERTEX
8
OBJECT__6
10
0
20
0
30
0
70
128
71
1
72
2
73
3
0
VERTEX
8
OBJECT__6
10
0
20
0
30
0
70
128
71
4
72
5
73
2
0
VERTEX
8
OBJECT__6
10
0
20
0
30
0
70
128
71
6
72
7
73
5
0
VERTEX
8
OBJECT__6
10
0
20
0
30
0
70
128
71
8
72
9
73
10
0
VERTEX
8
OBJECT__6
10
0
20
0
30
0
70
128
71
11
72
12
73
9
0
VERTEX
8
OBJECT__6
10
0
20
0
30
0
70
128
71
13
72
14
73
12
0
VERTEX
8
OBJECT__6
10
0
20
0
30
0
70
128
71
15
72
14
73
16
0
VERTEX
8
OBJECT__6
10
0
20
0
30
0
70
128
71
13
72
17
73
16
0
VERTEX
8
OBJECT__6
10
0
20
0
30
0
70
128
71
16
72
14
73
13
0
VERTEX
8
OBJECT__6
10
0
20
0
30
0
70
128
71
18
72
3
73
19
0
VERTEX
8
OBJECT__6
10
0
20
0
30
0
70
128
71
15
72
20
73
19
0
VERTEX
8
OBJECT__6
10
0
20
0
30
0
70
128
71
19
72
3
73
15
0
VERTEX
8
OBJECT__6
10
0
20
0
30
0
70
128
71
21
72
10
73
22
0
VERTEX
8
OBJECT__6
10
0
20
0
30
0
70
128
71
10
72
7
73
23
0
VERTEX
8
OBJECT__6
10
0
20
0
30
0
70
128
71
23
72
22
73
10
0
VERTEX
8
OBJECT__6
10
0
20
0
30
0
70
128
71
6
72
24
73
23
0
VERTEX
8
OBJECT__6
10
0
20
0
30
0
70
128
71
23
72
7
73
6
0
VERTEX
8
OBJECT__6
10
0
20
0
30
0
70
128
71
22
72
25
73
21
0
VERTEX
8
OBJECT__6
10
0
20
0
30
0
70
128
71
19
72
26
73
18
0
VERTEX
8
OBJECT__6
10
0
20
0
30
0
70
128
71
16
72
20
73
15
0
VERTEX
8
OBJECT__6
10
0
20
0
30
0
70
128
71
12
72
11
73
13
0
VERTEX
8
OBJECT__6
10
0
20
0
30
0
70
128
71
9
72
8
73
11
0
VERTEX
8
OBJECT__6
10
0
20
0
30
0
70
128
71
10
72
21
73
8
0
VERTEX
8
OBJECT__6
10
0
20
0
30
0
70
128
71
5
72
4
73
6
0
VERTEX
8
OBJECT__6
10
0
20
0
30
0
70
128
71
2
72
1
73
4
0
VERTEX
8
OBJECT__6
10
0
20
0
30
0
70
128
71
3
72
18
73
1
0
SEQEND
8
OBJECT__6
0
POLYLINE
8
OBJECT__8
66
1
70
64
71
80
72
78
62
253
0
VERTEX
8
OBJECT__8
10
0.000000
20
-34.567001
30
28.854000
70
192
0
VERTEX
8
OBJECT__8
10
0.000000
20
-15.305000
30
46.979000
70
192
0
VERTEX
8
OBJECT__8
10
0.000000
20
-12.454000
30
48.148998
70
192
0
VERTEX
8
OBJECT__8
10
0.000000
20
-19.952000
30
44.669998
70
192
0
VERTEX
8
OBJECT__8
10
0.000000
20
-16.907000
30
46.320000
70
192
0
VERTEX
8
OBJECT__8
10
0.000000
20
-27.483000
30
38.759998
70
192
0
VERTEX
8
OBJECT__8
10
0.000000
20
-23.886999
30
41.959999
70
192
0
VERTEX
8
OBJECT__8
10
0.000000
20
-29.742001
30
36.277000
70
192
0
VERTEX
8
OBJECT__8
10
0.000000
20
-34.314999
30
29.419001
70
192
0
VERTEX
8
OBJECT__8
10
0.000000
20
-37.611000
30
2.575000
70
192
0
VERTEX
8
OBJECT__8
10
0.000000
20
-29.605000
30
-13.356000
70
192
0
VERTEX
8
OBJECT__8
10
0.000000
20
-30.725000
30
-12.069000
70
192
0
VERTEX
8
OBJECT__8
10
0.000000
20
-37.672001
30
20.419001
70
192
0
VERTEX
8
OBJECT__8
10
0.000000
20
-17.011000
30
-23.291000
70
192
0
VERTEX
8
OBJECT__8
10
0.000000
20
-21.195000
30
-20.912001
70
192
0
VERTEX
8
OBJECT__8
10
0.000000
20
-6.705000
30
-26.568001
70
192
0
VERTEX
8
OBJECT__8
10
0.000000
20
-9.275000
30
-26.101000
70
192
0
VERTEX
8
OBJECT__8
10
0.000000
20
36.314999
30
24.705999
70
192
0
VERTEX
8
OBJECT__8
10
0.000000
20
37.407001
30
21.485001
70
192
0
VERTEX
8
OBJECT__8
10
0.000000
20
-7.845000
30
49.403999
70
192
0
VERTEX
8
OBJECT__8
10
0.000000
20
-23.090000
30
42.508999
70
192
0
VERTEX
8
OBJECT__8
10
0.000000
20
-29.653000
30
36.375000
70
192
0
VERTEX
8
OBJECT__8
10
0.000000
20
-32.576000
30
32.414001
70
192
0
VERTEX
8
OBJECT__8
10
0.000000
20
-37.995998
30
4.052000
70
192
0
VERTEX
8
OBJECT__8
10
0.000000
20
-38.508999
30
7.478000
70
192
0
VERTEX
8
OBJECT__8
10
0.000000
20
-34.570999
30
-5.875000
70
192
0
VERTEX
8
OBJECT__8
10
0.000000
20
-35.009998
30
-5.043000
70
192
0
VERTEX
8
OBJECT__8
10
0.000000
20
-33.391998
30
-8.106000
70
192
0
VERTEX
8
OBJECT__8
10
0.000000
20
-15.315000
30
-24.028999
70
192
0
VERTEX
8
OBJECT__8
10
0.000000
20
-13.834000
30
-24.673000
70
192
0
VERTEX
8
OBJECT__8
10
0.000000
20
2.251000
30
-27.080000
70
192
0
VERTEX
8
OBJECT__8
10
0.000000
20
0.000000
30
-27.229000
70
192
0
VERTEX
8
OBJECT__8
10
0.000000
20
38.428001
30
15.982000
70
192
0
VERTEX
8
OBJECT__8
10
0.000000
20
38.720001
30
11.436000
70
192
0
VERTEX
8
OBJECT__8
10
0.000000
20
38.396000
30
16.485001
70
192
0
VERTEX
8
OBJECT__8
10
0.000000
20
27.320999
30
38.925999
70
192
0
VERTEX
8
OBJECT__8
10
0.000000
20
30.742001
30
35.028000
70
192
0
VERTEX
8
OBJECT__8
10
0.000000
20
19.347000
30
44.986000
70
192
0
VERTEX
8
OBJECT__8
10
0.000000
20
19.957001
30
44.667999
70
192
0
VERTEX
8
OBJECT__8
10
0.000000
20
-6.713000
30
49.585999
70
192
0
VERTEX
8
OBJECT__8
10
0.000000
20
-37.665001
30
20.451000
70
192
0
VERTEX
8
OBJECT__8
10
0.000000
20
-36.262001
30
25.056000
70
192
0
VERTEX
8
OBJECT__8
10
0.000000
20
-38.675999
30
11.491000
70
192
0
VERTEX
8
OBJECT__8
10
0.000000
20
-38.709000
30
12.287000
70
192
0
VERTEX
8
OBJECT__8
10
0.000000
20
-25.024000
30
-18.055000
70
192
0
VERTEX
8
OBJECT__8
10
0.000000
20
-27.563999
30
-15.700000
70
192
0
VERTEX
8
OBJECT__8
10
0.000000
20
-4.539000
30
-26.962000
70
192
0
VERTEX
8
OBJECT__8
10
0.000000
20
23.580000
30
-19.221001
70
192
0
VERTEX
8
OBJECT__8
10
0.000000
20
19.398001
30
-22.020000
70
192
0
VERTEX
8
OBJECT__8
10
0.000000
20
32.283001
30
-9.739000
70
192
0
VERTEX
8
OBJECT__8
10
0.000000
20
30.698999
30
-12.107000
70
192
0
VERTEX
8
OBJECT__8
10
0.000000
20
35.759998
30
-3.357000
70
192
0
VERTEX
8
OBJECT__8
10
0.000000
20
33.526001
30
-7.881000
70
192
0
VERTEX
8
OBJECT__8
10
0.000000
20
32.278999
30
32.715000
70
192
0
VERTEX
8
OBJECT__8
10
0.000000
20
33.622002
30
30.691999
70
192
0
VERTEX
8
OBJECT__8
10
0.000000
20
26.542000
30
39.613998
70
192
0
VERTEX
8
OBJECT__8
10
0.000000
20
23.884001
30
41.964001
70
192
0
VERTEX
8
OBJECT__8
10
0.000000
20
0.000000
30
50.207001
70
192
0
VERTEX
8
OBJECT__8
10
0.000000
20
1.747000
30
50.167999
70
192
0
VERTEX
8
OBJECT__8
10
0.000000
20
-4.424000
30
49.953999
70
192
0
VERTEX
8
OBJECT__8
10
0.000000
20
-38.316002
30
17.049000
70
192
0
VERTEX
8
OBJECT__8
10
0.000000
20
-36.791000
30
-0.571000
70
192
0
VERTEX
8
OBJECT__8
10
0.000000
20
-23.073000
30
-19.511000
70
192
0
VERTEX
8
OBJECT__8
10
0.000000
20
19.362000
30
-22.038000
70
192
0
VERTEX
8
OBJECT__8
10
0.000000
20
14.839000
30
-24.273001
70
192
0
VERTEX
8
OBJECT__8
10
0.000000
20
26.537001
30
-16.629000
70
192
0
VERTEX
8
OBJECT__8
10
0.000000
20
27.362000
30
-15.907000
70
192
0
VERTEX
8
OBJECT__8
10
0.000000
20
36.314999
30
-1.728000
70
192
0
VERTEX
8
OBJECT__8
10
0.000000
20
38.423000
30
6.997000
70
192
0
VERTEX
8
OBJECT__8
10
0.000000
20
35.771000
30
26.308001
70
192
0
VERTEX
8
OBJECT__8
10
0.000000
20
11.105000
30
48.568001
70
192
0
VERTEX
8
OBJECT__8
10
0.000000
20
15.725000
30
46.870998
70
192
0
VERTEX
8
OBJECT__8
10
0.000000
20
6.395000
30
49.675999
70
192
0
VERTEX
8
OBJECT__8
10
0.000000
20
10.917000
30
48.637001
70
192
0
VERTEX
8
OBJECT__8
10
0.000000
20
10.087000
30
-25.892000
70
192
0
VERTEX
8
OBJECT__8
10
0.000000
20
5.122000
30
-26.889000
70
192
0
VERTEX
8
OBJECT__8
10
0.000000
20
2.254000
30
50.113998
70
192
0
VERTEX
8
OBJECT__8
10
0.000000
20
11.092000
30
-25.549999
70
192
0
VERTEX
8
OBJECT__8
10
0.000000
20
38.382999
30
6.394000
70
192
0
VERTEX
8
OBJECT__8
10
0.000000
20
37.384998
30
1.413000
70
192
0
VERTEX
8
OBJECT__8
10
0
20
0
30
0
70
128
71
1
72
2
73
3
0
VERTEX
8
OBJECT__8
10
0
20
0
30
0
70
128
71
1
72
4
73
5
0
VERTEX
8
OBJECT__8
10
0
20
0
30
0
70
128
71
1
72
6
73
7
0
VERTEX
8
OBJECT__8
10
0
20
0
30
0
70
128
71
8
72
1
73
9
0
VERTEX
8
OBJECT__8
10
0
20
0
30
0
70
128
71
10
72
11
73
12
0
VERTEX
8
OBJECT__8
10
0
20
0
30
0
70
128
71
13
72
14
73
15
0
VERTEX
8
OBJECT__8
10
0
20
0
30
0
70
128
71
13
72
16
73
17
0
VERTEX
8
OBJECT__8
10
0
20
0
30
0
70
128
71
13
72
18
73
19
0
VERTEX
8
OBJECT__8
10
0
20
0
30
0
70
128
71
3
72
20
73
1
0
VERTEX
8
OBJECT__8
10
0
20
0
30
0
70
128
71
1
72
21
73
4
0
VERTEX
8
OBJECT__8
10
0
20
0
30
0
70
128
71
1
72
22
73
6
0
VERTEX
8
OBJECT__8
10
0
20
0
30
0
70
128
71
9
72
23
73
8
0
VERTEX
8
OBJECT__8
10
0
20
0
30
0
70
128
71
11
72
24
73
25
0
VERTEX
8
OBJECT__8
10
0
20
0
30
0
70
128
71
10
72
26
73
27
0
VERTEX
8
OBJECT__8
10
0
20
0
30
0
70
128
71
12
72
28
73
10
0
VERTEX
8
OBJECT__8
10
0
20
0
30
0
70
128
71
13
72
29
73
14
0
VERTEX
8
OBJECT__8
10
0
20
0
30
0
70
128
71
17
72
30
73
13
0
VERTEX
8
OBJECT__8
10
0
20
0
30
0
70
128
71
13
72
31
73
32
0
VERTEX
8
OBJECT__8
10
0
20
0
30
0
70
128
71
13
72
33
73
34
0
VERTEX
8
OBJECT__8
10
0
20
0
30
0
70
128
71
19
72
35
73
13
0
VERTEX
8
OBJECT__8
10
0
20
0
30
0
70
128
71
13
72
36
73
37
0
VERTEX
8
OBJECT__8
10
0
20
0
30
0
70
128
71
13
72
38
73
39
0
VERTEX
8
OBJECT__8
10
0
20
0
30
0
70
128
71
5
72
2
73
1
0
VERTEX
8
OBJECT__8
10
0
20
0
30
0
70
128
71
8
72
22
73
1
0
VERTEX
8
OBJECT__8
10
0
20
0
30
0
70
128
71
40
72
41
73
42
0
VERTEX
8
OBJECT__8
10
0
20
0
30
0
70
128
71
11
72
43
73
44
0
VERTEX
8
OBJECT__8
10
0
20
0
30
0
70
128
71
11
72
10
73
24
0
VERTEX
8
OBJECT__8
10
0
20
0
30
0
70
128
71
28
72
26
73
10
0
VERTEX
8
OBJECT__8
10
0
20
0
30
0
70
128
71
13
72
45
73
46
0
VERTEX
8
OBJECT__8
10
0
20
0
30
0
70
128
71
30
72
29
73
13
0
VERTEX
8
OBJECT__8
10
0
20
0
30
0
70
128
71
32
72
47
73
13
0
VERTEX
8
OBJECT__8
10
0
20
0
30
0
70
128
71
13
72
48
73
49
0
VERTEX
8
OBJECT__8
10
0
20
0
30
0
70
128
71
13
72
50
73
51
0
VERTEX
8
OBJECT__8
10
0
20
0
30
0
70
128
71
13
72
52
73
53
0
VERTEX
8
OBJECT__8
10
0
20
0
30
0
70
128
71
35
72
33
73
13
0
VERTEX
8
OBJECT__8
10
0
20
0
30
0
70
128
71
13
72
54
73
55
0
VERTEX
8
OBJECT__8
10
0
20
0
30
0
70
128
71
13
72
56
73
36
0
VERTEX
8
OBJECT__8
10
0
20
0
30
0
70
128
71
39
72
57
73
13
0
VERTEX
8
OBJECT__8
10
0
20
0
30
0
70
128
71
13
72
58
73
59
0
VERTEX
8
OBJECT__8
10
0
20
0
30
0
70
128
71
13
72
40
73
60
0
VERTEX
8
OBJECT__8
10
0
20
0
30
0
70
128
71
7
72
21
73
1
0
VERTEX
8
OBJECT__8
10
0
20
0
30
0
70
128
71
40
72
13
73
41
0
VERTEX
8
OBJECT__8
10
0
20
0
30
0
70
128
71
44
72
61
73
11
0
VERTEX
8
OBJECT__8
10
0
20
0
30
0
70
128
71
27
72
62
73
10
0
VERTEX
8
OBJECT__8
10
0
20
0
30
0
70
128
71
13
72
63
73
45
0
VERTEX
8
OBJECT__8
10
0
20
0
30
0
70
128
71
47
72
16
73
13
0
VERTEX
8
OBJECT__8
10
0
20
0
30
0
70
128
71
13
72
64
73
65
0
VERTEX
8
OBJECT__8
10
0
20
0
30
0
70
128
71
13
72
66
73
48
0
VERTEX
8
OBJECT__8
10
0
20
0
30
0
70
128
71
51
72
67
73
13
0
VERTEX
8
OBJECT__8
10
0
20
0
30
0
70
128
71
13
72
68
73
52
0
VERTEX
8
OBJECT__8
10
0
20
0
30
0
70
128
71
34
72
69
73
13
0
VERTEX
8
OBJECT__8
10
0
20
0
30
0
70
128
71
55
72
70
73
13
0
VERTEX
8
OBJECT__8
10
0
20
0
30
0
70
128
71
57
72
56
73
13
0
VERTEX
8
OBJECT__8
10
0
20
0
30
0
70
128
71
13
72
71
73
72
0
VERTEX
8
OBJECT__8
10
0
20
0
30
0
70
128
71
13
72
73
73
74
0
VERTEX
8
OBJECT__8
10
0
20
0
30
0
70
128
71
60
72
58
73
13
0
VERTEX
8
OBJECT__8
10
0
20
0
30
0
70
128
71
42
72
1
73
40
0
VERTEX
8
OBJECT__8
10
0
20
0
30
0
70
128
71
25
72
43
73
11
0
VERTEX
8
OBJECT__8
10
0
20
0
30
0
70
128
71
15
72
63
73
13
0
VERTEX
8
OBJECT__8
10
0
20
0
30
0
70
128
71
13
72
75
73
76
0
VERTEX
8
OBJECT__8
10
0
20
0
30
0
70
128
71
49
72
64
73
13
0
VERTEX
8
OBJECT__8
10
0
20
0
30
0
70
128
71
53
72
50
73
13
0
VERTEX
8
OBJECT__8
10
0
20
0
30
0
70
128
71
70
72
18
73
13
0
VERTEX
8
OBJECT__8
10
0
20
0
30
0
70
128
71
72
72
38
73
13
0
VERTEX
8
OBJECT__8
10
0
20
0
30
0
70
128
71
13
72
77
73
73
0
VERTEX
8
OBJECT__8
10
0
20
0
30
0
70
128
71
20
72
40
73
1
0
VERTEX
8
OBJECT__8
10
0
20
0
30
0
70
128
71
46
72
11
73
13
0
VERTEX
8
OBJECT__8
10
0
20
0
30
0
70
128
71
13
72
78
73
75
0
VERTEX
8
OBJECT__8
10
0
20
0
30
0
70
128
71
67
72
66
73
13
0
VERTEX
8
OBJECT__8
10
0
20
0
30
0
70
128
71
13
72
79
73
80
0
VERTEX
8
OBJECT__8
10
0
20
0
30
0
70
128
71
37
72
54
73
13
0
VERTEX
8
OBJECT__8
10
0
20
0
30
0
70
128
71
59
72
77
73
13
0
VERTEX
8
OBJECT__8
10
0
20
0
30
0
70
128
71
76
72
31
73
13
0
VERTEX
8
OBJECT__8
10
0
20
0
30
0
70
128
71
80
72
68
73
13
0
VERTEX
8
OBJECT__8
10
0
20
0
30
0
70
128
71
74
72
71
73
13
0
VERTEX
8
OBJECT__8
10
0
20
0
30
0
70
128
71
65
72
78
73
13
0
VERTEX
8
OBJECT__8
10
0
20
0
30
0
70
128
71
61
72
13
73
11
0
VERTEX
8
OBJECT__8
10
0
20
0
30
0
70
128
71
69
72
79
73
13
0
SEQEND
8
OBJECT__8
0
POLYLINE
8
OBJECT__9
66
1
70
64
71
220
72
229
62
253
0
VERTEX
8
OBJECT__9
10
7.666000
20
19.212999
30
-21.815001
70
192
0
VERTEX
8
OBJECT__9
10
12.004000
20
17.684000
30
-21.892000
70
192
0
VERTEX
8
OBJECT__9
10
9.871000
20
16.313999
30
-23.002001
70
192
0
VERTEX
8
OBJECT__9
10
14.333000
20
18.591999
30
-20.775999
70
192
0
VERTEX
8
OBJECT__9
10
7.554000
20
-22.979000
30
-19.357000
70
192
0
VERTEX
8
OBJECT__9
10
10.582000
20
-16.936001
30
-22.577000
70
192
0
VERTEX
8
OBJECT__9
10
9.864000
20
-21.136000
30
-20.284000
70
192
0
VERTEX
8
OBJECT__9
10
13.625000
20
-18.497999
30
-21.052999
70
192
0
VERTEX
8
OBJECT__9
10
12.103000
20
-19.455000
30
-20.875999
70
192
0
VERTEX
8
OBJECT__9
10
7.574000
20
-15.246000
30
-23.822001
70
192
0
VERTEX
8
OBJECT__9
10
8.519000
20
-15.196000
30
-23.701000
70
192
0
VERTEX
8
OBJECT__9
10
8.794000
20
-15.512000
30
-23.544001
70
192
0
VERTEX
8
OBJECT__9
10
9.981000
20
-38.077999
30
9.237000
70
192
0
VERTEX
8
OBJECT__9
10
13.041000
20
-37.568001
30
11.466000
70
192
0
VERTEX
8
OBJECT__9
10
13.006000
20
-37.575001
30
11.489000
70
192
0
VERTEX
8
OBJECT__9
10
7.512000
20
-38.471001
30
11.489000
70
192
0
VERTEX
8
OBJECT__9
10
7.513000
20
-38.116001
30
6.564000
70
192
0
VERTEX
8
OBJECT__9
10
8.140000
20
-38.181000
30
7.399000
70
192
0
VERTEX
8
OBJECT__9
10
11.666000
20
-37.841000
30
12.366000
70
192
0
VERTEX
8
OBJECT__9
10
9.477000
20
-38.125999
30
14.183000
70
192
0
VERTEX
8
OBJECT__9
10
7.574000
20
-15.246000
30
46.799999
70
192
0
VERTEX
8
OBJECT__9
10
10.386000
20
-20.688000
30
43.456001
70
192
0
VERTEX
8
OBJECT__9
10
9.047000
20
-15.787000
30
46.362000
70
192
0
VERTEX
8
OBJECT__9
10
13.495000
20
-18.534000
30
44.046001
70
192
0
VERTEX
8
OBJECT__9
10
11.074000
20
-17.316000
30
45.266998
70
192
0
VERTEX
8
OBJECT__9
10
7.553000
20
-22.979000
30
42.335999
70
192
0
VERTEX
8
OBJECT__9
10
7.926000
20
-22.934999
30
42.271999
70
192
0
VERTEX
8
OBJECT__9
10
8.513000
20
-22.309000
30
42.683998
70
192
0
VERTEX
8
OBJECT__9
10
7.665000
20
19.212999
30
44.792999
70
192
0
VERTEX
8
OBJECT__9
10
7.651000
20
14.154000
30
47.202999
70
192
0
VERTEX
8
OBJECT__9
10
9.608000
20
16.153999
30
46.099998
70
192
0
VERTEX
8
OBJECT__9
10
11.450000
20
17.441000
30
45.118999
70
192
0
VERTEX
8
OBJECT__9
10
10.894000
20
21.312000
30
42.931000
70
192
0
VERTEX
8
OBJECT__9
10
8.991000
20
22.986000
30
42.103001
70
192
0
VERTEX
8
OBJECT__9
10
14.145000
20
18.613001
30
43.791000
70
192
0
VERTEX
8
OBJECT__9
10
13.889000
20
19.223000
30
43.527000
70
192
0
VERTEX
8
OBJECT__9
10
14.599000
20
18.811001
30
43.567001
70
192
0
VERTEX
8
OBJECT__9
10
7.716000
20
38.181000
30
15.954000
70
192
0
VERTEX
8
OBJECT__9
10
7.715000
20
37.932999
30
17.709000
70
192
0
VERTEX
8
OBJECT__9
10
7.753000
20
37.938999
30
17.653999
70
192
0
VERTEX
8
OBJECT__9
10
7.716000
20
38.181000
30
7.025000
70
192
0
VERTEX
8
OBJECT__9
10
9.397000
20
37.987000
30
7.243000
70
192
0
VERTEX
8
OBJECT__9
10
11.359000
20
37.819000
30
9.049000
70
192
0
VERTEX
8
OBJECT__9
10
12.153000
20
37.700001
30
13.286000
70
192
0
VERTEX
8
OBJECT__9
10
15.302000
20
36.998001
30
11.455000
70
192
0
VERTEX
8
OBJECT__9
10
14.396000
20
37.230999
30
11.025000
70
192
0
VERTEX
8
OBJECT__9
10
9.310000
20
37.933998
30
15.930000
70
192
0
VERTEX
8
OBJECT__9
10
10.375000
20
37.931000
30
14.749000
70
192
0
VERTEX
8
OBJECT__9
10
11.685000
20
20.732000
30
-20.164000
70
192
0
VERTEX
8
OBJECT__9
10
14.773000
20
18.764000
30
-20.565001
70
192
0
VERTEX
8
OBJECT__9
10
7.679000
20
24.389999
30
-18.207001
70
192
0
VERTEX
8
OBJECT__9
10
9.930000
20
22.146000
30
-19.569000
70
192
0
VERTEX
8
OBJECT__9
10
2.692000
20
2.249000
30
-27.177000
70
192
0
VERTEX
8
OBJECT__9
10
0.000000
20
2.251000
30
-27.080000
70
192
0
VERTEX
8
OBJECT__9
10
0.000000
20
5.122000
30
-26.889000
70
192
0
VERTEX
8
OBJECT__9
10
0.000000
20
10.087000
30
-25.892000
70
192
0
VERTEX
8
OBJECT__9
10
4.058000
20
8.234000
30
-26.346001
70
192
0
VERTEX
8
OBJECT__9
10
3.280000
20
5.806000
30
-26.819000
70
192
0
VERTEX
8
OBJECT__9
10
5.467000
20
11.066000
30
-25.503000
70
192
0
VERTEX
8
OBJECT__9
10
0.000000
20
11.092000
30
-25.549999
70
192
0
VERTEX
8
OBJECT__9
10
0.000000
20
14.839000
30
-24.273001
70
192
0
VERTEX
8
OBJECT__9
10
5.822000
20
11.779000
30
-25.291000
70
192
0
VERTEX
8
OBJECT__9
10
7.290000
20
13.812000
30
-24.437000
70
192
0
VERTEX
8
OBJECT__9
10
0.000000
20
19.362000
30
-22.038000
70
192
0
VERTEX
8
OBJECT__9
10
7.652000
20
14.162000
30
-24.236000
70
192
0
VERTEX
8
OBJECT__9
10
0.000000
20
19.398001
30
-22.020000
70
192
0
VERTEX
8
OBJECT__9
10
7.381000
20
24.687000
30
-18.025999
70
192
0
VERTEX
8
OBJECT__9
10
0.000000
20
23.580000
30
-19.221001
70
192
0
VERTEX
8
OBJECT__9
10
0.000000
20
26.537001
30
-16.629000
70
192
0
VERTEX
8
OBJECT__9
10
5.989000
20
26.469999
30
-16.577999
70
192
0
VERTEX
8
OBJECT__9
10
6.247000
20
26.073000
30
-16.954000
70
192
0
VERTEX
8
OBJECT__9
10
0.000000
20
27.362000
30
-15.907000
70
192
0
VERTEX
8
OBJECT__9
10
0.000000
20
30.698999
30
-12.107000
70
192
0
VERTEX
8
OBJECT__9
10
3.859000
20
30.089001
30
-12.892000
70
192
0
VERTEX
8
OBJECT__9
10
3.181000
20
32.362999
30
-9.798000
70
192
0
VERTEX
8
OBJECT__9
10
0.000000
20
32.283001
30
-9.739000
70
192
0
VERTEX
8
OBJECT__9
10
4.506000
20
28.749001
30
-14.418000
70
192
0
VERTEX
8
OBJECT__9
10
3.145000
20
32.486000
30
-9.631000
70
192
0
VERTEX
8
OBJECT__9
10
0.000000
20
33.526001
30
-7.881000
70
192
0
VERTEX
8
OBJECT__9
10
0.000000
20
35.759998
30
-3.357000
70
192
0
VERTEX
8
OBJECT__9
10
3.505000
20
35.574001
30
-3.847000
70
192
0
VERTEX
8
OBJECT__9
10
3.062000
20
33.770000
30
-7.514000
70
192
0
VERTEX
8
OBJECT__9
10
4.077000
20
36.377998
30
-1.753000
70
192
0
VERTEX
8
OBJECT__9
10
0.000000
20
36.314999
30
-1.728000
70
192
0
VERTEX
8
OBJECT__9
10
0.000000
20
37.384998
30
1.413000
70
192
0
VERTEX
8
OBJECT__9
10
4.127000
20
36.448002
30
-1.568000
70
192
0
VERTEX
8
OBJECT__9
10
5.678000
20
37.459999
30
2.057000
70
192
0
VERTEX
8
OBJECT__9
10
0.000000
20
38.382999
30
6.394000
70
192
0
VERTEX
8
OBJECT__9
10
6.976000
20
37.827999
30
4.225000
70
192
0
VERTEX
8
OBJECT__9
10
0.000000
20
38.423000
30
6.997000
70
192
0
VERTEX
8
OBJECT__9
10
7.715000
20
37.875999
30
5.146000
70
192
0
VERTEX
8
OBJECT__9
10
0.000000
20
38.720001
30
11.436000
70
192
0
VERTEX
8
OBJECT__9
10
0.000000
20
38.428001
30
15.982000
70
192
0
VERTEX
8
OBJECT__9
10
6.565000
20
37.742001
30
19.377001
70
192
0
VERTEX
8
OBJECT__9
10
0.000000
20
38.396000
30
16.485001
70
192
0
VERTEX
8
OBJECT__9
10
0.000000
20
37.407001
30
21.485001
70
192
0
VERTEX
8
OBJECT__9
10
0.000000
20
36.314999
30
24.705999
70
192
0
VERTEX
8
OBJECT__9
10
4.071000
20
36.380001
30
24.733000
70
192
0
VERTEX
8
OBJECT__9
10
4.729000
20
36.958000
30
22.931000
70
192
0
VERTEX
8
OBJECT__9
10
4.031000
20
36.345001
30
24.841999
70
192
0
VERTEX
8
OBJECT__9
10
0.000000
20
35.771000
30
26.308001
70
192
0
VERTEX
8
OBJECT__9
10
3.208000
20
34.785000
30
28.556000
70
192
0
VERTEX
8
OBJECT__9
10
0.000000
20
33.622002
30
30.691999
70
192
0
VERTEX
8
OBJECT__9
10
3.058000
20
33.627998
30
30.742001
70
192
0
VERTEX
8
OBJECT__9
10
0.000000
20
32.278999
30
32.715000
70
192
0
VERTEX
8
OBJECT__9
10
3.252000
20
32.326000
30
32.752998
70
192
0
VERTEX
8
OBJECT__9
10
0.000000
20
30.742001
30
35.028000
70
192
0
VERTEX
8
OBJECT__9
10
3.389000
20
31.399000
30
34.182999
70
192
0
VERTEX
8
OBJECT__9
10
0.000000
20
27.320999
30
38.925999
70
192
0
VERTEX
8
OBJECT__9
10
3.947000
20
29.879999
30
36.120998
70
192
0
VERTEX
8
OBJECT__9
10
5.401000
20
27.254000
30
38.893002
70
192
0
VERTEX
8
OBJECT__9
10
0.000000
20
26.542000
30
39.613998
70
192
0
VERTEX
8
OBJECT__9
10
5.969000
20
26.476000
30
39.562000
70
192
0
VERTEX
8
OBJECT__9
10
0.000000
20
23.884001
30
41.964001
70
192
0
VERTEX
8
OBJECT__9
10
6.633000
20
25.566999
30
40.344002
70
192
0
VERTEX
8
OBJECT__9
10
7.679000
20
24.422001
30
41.124001
70
192
0
VERTEX
8
OBJECT__9
10
0.000000
20
19.957001
30
44.667999
70
192
0
VERTEX
8
OBJECT__9
10
0.000000
20
19.347000
30
44.986000
70
192
0
VERTEX
8
OBJECT__9
10
7.008000
20
13.496000
30
47.564999
70
192
0
VERTEX
8
OBJECT__9
10
0.000000
20
15.725000
30
46.870998
70
192
0
VERTEX
8
OBJECT__9
10
0.000000
20
11.105000
30
48.568001
70
192
0
VERTEX
8
OBJECT__9
10
5.453000
20
11.066000
30
48.481998
70
192
0
VERTEX
8
OBJECT__9
10
5.804000
20
11.778000
30
48.271000
70
192
0
VERTEX
8
OBJECT__9
10
0.000000
20
10.917000
30
48.637001
70
192
0
VERTEX
8
OBJECT__9
10
0.000000
20
6.395000
30
49.675999
70
192
0
VERTEX
8
OBJECT__9
10
3.337000
20
6.044000
30
49.758999
70
192
0
VERTEX
8
OBJECT__9
10
4.034000
20
8.193000
30
49.334000
70
192
0
VERTEX
8
OBJECT__9
10
0.000000
20
2.254000
30
50.113998
70
192
0
VERTEX
8
OBJECT__9
10
2.670000
20
2.250000
30
50.166000
70
192
0
VERTEX
8
OBJECT__9
10
2.621000
20
1.976000
30
50.195999
70
192
0
VERTEX
8
OBJECT__9
10
0.000000
20
1.747000
30
50.167999
70
192
0
VERTEX
8
OBJECT__9
10
0.000000
20
0.000000
30
50.207001
70
192
0
VERTEX
8
OBJECT__9
10
0.000000
20
-4.424000
30
49.953999
70
192
0
VERTEX
8
OBJECT__9
10
3.001000
20
-4.747000
30
49.949001
70
192
0
VERTEX
8
OBJECT__9
10
2.540000
20
-0.628000
30
50.242001
70
192
0
VERTEX
8
OBJECT__9
10
0.000000
20
-6.713000
30
49.585999
70
192
0
VERTEX
8
OBJECT__9
10
3.520000
20
-6.728000
30
49.625000
70
192
0
VERTEX
8
OBJECT__9
10
0.000000
20
-7.845000
30
49.403999
70
192
0
VERTEX
8
OBJECT__9
10
3.654000
20
-7.239000
30
49.542000
70
192
0
VERTEX
8
OBJECT__9
10
0.000000
20
-12.454000
30
48.148998
70
192
0
VERTEX
8
OBJECT__9
10
5.238000
20
-10.929000
30
48.573002
70
192
0
VERTEX
8
OBJECT__9
10
6.577000
20
-13.045000
30
47.776001
70
192
0
VERTEX
8
OBJECT__9
10
0.000000
20
-15.305000
30
46.979000
70
192
0
VERTEX
8
OBJECT__9
10
7.576000
20
-14.154000
30
47.203999
70
192
0
VERTEX
8
OBJECT__9
10
0.000000
20
-16.907000
30
46.320000
70
192
0
VERTEX
8
OBJECT__9
10
0.000000
20
-19.952000
30
44.669998
70
192
0
VERTEX
8
OBJECT__9
10
0.000000
20
-23.090000
30
42.508999
70
192
0
VERTEX
8
OBJECT__9
10
5.998000
20
-24.992001
30
40.917999
70
192
0
VERTEX
8
OBJECT__9
10
7.552000
20
-23.334999
30
42.008999
70
192
0
VERTEX
8
OBJECT__9
10
0.000000
20
-23.886999
30
41.959999
70
192
0
VERTEX
8
OBJECT__9
10
4.819000
20
-26.540001
30
39.636002
70
192
0
VERTEX
8
OBJECT__9
10
0.000000
20
-27.483000
30
38.759998
70
192
0
VERTEX
8
OBJECT__9
10
3.197000
20
-29.260000
30
36.890999
70
192
0
VERTEX
8
OBJECT__9
10
0.000000
20
-29.653000
30
36.375000
70
192
0
VERTEX
8
OBJECT__9
10
3.022000
20
-29.674000
30
36.387001
70
192
0
VERTEX
8
OBJECT__9
10
0.000000
20
-29.742001
30
36.277000
70
192
0
VERTEX
8
OBJECT__9
10
2.558000
20
-30.780001
30
35.042999
70
192
0
VERTEX
8
OBJECT__9
10
0.000000
20
-32.576000
30
32.414001
70
192
0
VERTEX
8
OBJECT__9
10
2.041000
20
-33.127998
30
31.611000
70
192
0
VERTEX
8
OBJECT__9
10
0.000000
20
-34.314999
30
29.419001
70
192
0
VERTEX
8
OBJECT__9
10
2.093000
20
-34.453999
30
29.245001
70
192
0
VERTEX
8
OBJECT__9
10
0.000000
20
-34.567001
30
28.854000
70
192
0
VERTEX
8
OBJECT__9
10
2.159000
20
-34.618999
30
28.875999
70
192
0
VERTEX
8
OBJECT__9
10
0.000000
20
-36.262001
30
25.056000
70
192
0
VERTEX
8
OBJECT__9
10
2.770000
20
-36.146999
30
25.468000
70
192
0
VERTEX
8
OBJECT__9
10
0.000000
20
-37.665001
30
20.451000
70
192
0
VERTEX
8
OBJECT__9
10
3.569000
20
-36.972000
30
23.052999
70
192
0
VERTEX
8
OBJECT__9
10
4.863000
20
-37.601002
30
20.399000
70
192
0
VERTEX
8
OBJECT__9
10
0.000000
20
-37.672001
30
20.419001
70
192
0
VERTEX
8
OBJECT__9
10
0.000000
20
-38.316002
30
17.049000
70
192
0
VERTEX
8
OBJECT__9
10
5.353000
20
-37.838001
30
19.396000
70
192
0
VERTEX
8
OBJECT__9
10
6.853000
20
-38.119999
30
17.146000
70
192
0
VERTEX
8
OBJECT__9
10
0.000000
20
-38.709000
30
12.287000
70
192
0
VERTEX
8
OBJECT__9
10
0.000000
20
-38.675999
30
11.491000
70
192
0
VERTEX
8
OBJECT__9
10
7.513000
20
-38.120998
30
16.400000
70
192
0
VERTEX
8
OBJECT__9
10
0.000000
20
-38.508999
30
7.478000
70
192
0
VERTEX
8
OBJECT__9
10
5.695000
20
-37.926998
30
4.140000
70
192
0
VERTEX
8
OBJECT__9
10
0.000000
20
-37.995998
30
4.052000
70
192
0
VERTEX
8
OBJECT__9
10
0.000000
20
-37.611000
30
2.575000
70
192
0
VERTEX
8
OBJECT__9
10
4.806000
20
-37.633999
30
2.571000
70
192
0
VERTEX
8
OBJECT__9
10
4.562000
20
-37.554001
30
2.141000
70
192
0
VERTEX
8
OBJECT__9
10
0.000000
20
-36.791000
30
-0.571000
70
192
0
VERTEX
8
OBJECT__9
10
0.000000
20
-35.009998
30
-5.043000
70
192
0
VERTEX
8
OBJECT__9
10
2.445000
20
-35.594002
30
-3.850000
70
192
0
VERTEX
8
OBJECT__9
10
2.217000
20
-34.587002
30
-5.881000
70
192
0
VERTEX
8
OBJECT__9
10
0.000000
20
-34.570999
30
-5.875000
70
192
0
VERTEX
8
OBJECT__9
10
3.029000
20
-36.472000
30
-1.604000
70
192
0
VERTEX
8
OBJECT__9
10
0.000000
20
-33.391998
30
-8.106000
70
192
0
VERTEX
8
OBJECT__9
10
2.026000
20
-33.742001
30
-7.585000
70
192
0
VERTEX
8
OBJECT__9
10
0.000000
20
-30.725000
30
-12.069000
70
192
0
VERTEX
8
OBJECT__9
10
2.142000
20
-32.331001
30
-9.889000
70
192
0
VERTEX
8
OBJECT__9
10
2.915000
20
-29.872999
30
-13.197000
70
192
0
VERTEX
8
OBJECT__9
10
0.000000
20
-29.605000
30
-13.356000
70
192
0
VERTEX
8
OBJECT__9
10
3.013000
20
-29.680000
30
-13.413000
70
192
0
VERTEX
8
OBJECT__9
10
0.000000
20
-27.563999
30
-15.700000
70
192
0
VERTEX
8
OBJECT__9
10
3.772000
20
-28.184000
30
-15.079000
70
192
0
VERTEX
8
OBJECT__9
10
0.000000
20
-25.024000
30
-18.055000
70
192
0
VERTEX
8
OBJECT__9
10
5.634000
20
-25.454000
30
-17.577000
70
192
0
VERTEX
8
OBJECT__9
10
0.000000
20
-23.073000
30
-19.511000
70
192
0
VERTEX
8
OBJECT__9
10
7.196000
20
-23.642000
30
-18.899000
70
192
0
VERTEX
8
OBJECT__9
10
7.552000
20
-23.308001
30
-19.084000
70
192
0
VERTEX
8
OBJECT__9
10
0.000000
20
-21.195000
30
-20.912001
70
192
0
VERTEX
8
OBJECT__9
10
0.000000
20
-17.011000
30
-23.291000
70
192
0
VERTEX
8
OBJECT__9
10
0.000000
20
-15.315000
30
-24.028999
70
192
0
VERTEX
8
OBJECT__9
10
6.336000
20
-12.677000
30
-24.950001
70
192
0
VERTEX
8
OBJECT__9
10
7.577000
20
-14.109000
30
-24.240000
70
192
0
VERTEX
8
OBJECT__9
10
0.000000
20
-13.834000
30
-24.673000
70
192
0
VERTEX
8
OBJECT__9
10
5.228000
20
-10.887000
30
-25.608000
70
192
0
VERTEX
8
OBJECT__9
10
0.000000
20
-9.275000
30
-26.101000
70
192
0
VERTEX
8
OBJECT__9
10
0.000000
20
-6.705000
30
-26.568001
70
192
0
VERTEX
8
OBJECT__9
10
3.522000
20
-6.729000
30
-26.650000
70
192
0
VERTEX
8
OBJECT__9
10
3.645000
20
-7.189000
30
-26.573000
70
192
0
VERTEX
8
OBJECT__9
10
0.000000
20
-4.539000
30
-26.962000
70
192
0
VERTEX
8
OBJECT__9
10
0.000000
20
0.000000
30
-27.229000
70
192
0
VERTEX
8
OBJECT__9
10
2.551000
20
-0.867000
30
-27.259001
70
192
0
VERTEX
8
OBJECT__9
10
3.054000
20
-4.974000
30
-26.941000
70
192
0
VERTEX
8
OBJECT__9
10
2.606000
20
1.730000
30
-27.229000
70
192
0
VERTEX
8
OBJECT__9
10
9.239000
20
37.977001
30
7.047000
70
192
0
VERTEX
8
OBJECT__9
10
8.510000
20
-15.190000
30
46.669998
70
192
0
VERTEX
8
OBJECT__9
10
7.949000
20
-22.934999
30
-19.290001
70
192
0
VERTEX
8
OBJECT__9
10
0
20
0
30
0
70
128
71
1
72
2
73
3
0
VERTEX
8
OBJECT__9
10
0
20
0
30
0
70
128
71
1
72
4
73
2
0
VERTEX
8
OBJECT__9
10
0
20
0
30
0
70
128
71
5
72
6
73
7
0
VERTEX
8
OBJECT__9
10
0
20
0
30
0
70
128
71
6
72
8
73
9
0
VERTEX
8
OBJECT__9
10
0
20
0
30
0
70
128
71
9
72
7
73
6
0
VERTEX
8
OBJECT__9
10
0
20
0
30
0
70
128
71
10
72
11
73
12
0
VERTEX
8
OBJECT__9
10
0
20
0
30
0
70
128
71
12
72
5
73
10
0
VERTEX
8
OBJECT__9
10
0
20
0
30
0
70
128
71
12
72
6
73
5
0
VERTEX
8
OBJECT__9
10
0
20
0
30
0
70
128
71
13
72
14
73
15
0
VERTEX
8
OBJECT__9
10
0
20
0
30
0
70
128
71
16
72
17
73
18
0
VERTEX
8
OBJECT__9
10
0
20
0
30
0
70
128
71
18
72
13
73
16
0
VERTEX
8
OBJECT__9
10
0
20
0
30
0
70
128
71
16
72
15
73
19
0
VERTEX
8
OBJECT__9
10
0
20
0
30
0
70
128
71
19
72
20
73
16
0
VERTEX
8
OBJECT__9
10
0
20
0
30
0
70
128
71
21
72
22
73
23
0
VERTEX
8
OBJECT__9
10
0
20
0
30
0
70
128
71
22
72
24
73
25
0
VERTEX
8
OBJECT__9
10
0
20
0
30
0
70
128
71
25
72
23
73
22
0
VERTEX
8
OBJECT__9
10
0
20
0
30
0
70
128
71
26
72
27
73
28
0
VERTEX
8
OBJECT__9
10
0
20
0
30
0
70
128
71
28
72
21
73
26
0
VERTEX
8
OBJECT__9
10
0
20
0
30
0
70
128
71
28
72
22
73
21
0
VERTEX
8
OBJECT__9
10
0
20
0
30
0
70
128
71
29
72
30
73
31
0
VERTEX
8
OBJECT__9
10
0
20
0
30
0
70
128
71
31
72
32
73
29
0
VERTEX
8
OBJECT__9
10
0
20
0
30
0
70
128
71
29
72
33
73
34
0
VERTEX
8
OBJECT__9
10
0
20
0
30
0
70
128
71
29
72
35
73
36
0
VERTEX
8
OBJECT__9
10
0
20
0
30
0
70
128
71
35
72
37
73
36
0
VERTEX
8
OBJECT__9
10
0
20
0
30
0
70
128
71
36
72
33
73
29
0
VERTEX
8
OBJECT__9
10
0
20
0
30
0
70
128
71
38
72
39
73
40
0
VERTEX
8
OBJECT__9
10
0
20
0
30
0
70
128
71
41
72
38
73
42
0
VERTEX
8
OBJECT__9
10
0
20
0
30
0
70
128
71
38
72
43
73
42
0
VERTEX
8
OBJECT__9
10
0
20
0
30
0
70
128
71
44
72
45
73
46
0
VERTEX
8
OBJECT__9
10
0
20
0
30
0
70
128
71
38
72
47
73
48
0
VERTEX
8
OBJECT__9
10
0
20
0
30
0
70
128
71
48
72
43
73
38
0
VERTEX
8
OBJECT__9
10
0
20
0
30
0
70
128
71
48
72
44
73
43
0
VERTEX
8
OBJECT__9
10
0
20
0
30
0
70
128
71
46
72
43
73
44
0
VERTEX
8
OBJECT__9
10
0
20
0
30
0
70
128
71
49
72
50
73
4
0
VERTEX
8
OBJECT__9
10
0
20
0
30
0
70
128
71
1
72
51
73
52
0
VERTEX
8
OBJECT__9
10
0
20
0
30
0
70
128
71
52
72
49
73
1
0
VERTEX
8
OBJECT__9
10
0
20
0
30
0
70
128
71
53
72
54
73
55
0
VERTEX
8
OBJECT__9
10
0
20
0
30
0
70
128
71
56
72
57
73
58
0
VERTEX
8
OBJECT__9
10
0
20
0
30
0
70
128
71
58
72
55
73
56
0
VERTEX
8
OBJECT__9
10
0
20
0
30
0
70
128
71
59
72
57
73
56
0
VERTEX
8
OBJECT__9
10
0
20
0
30
0
70
128
71
56
72
60
73
59
0
VERTEX
8
OBJECT__9
10
0
20
0
30
0
70
128
71
61
72
62
73
59
0
VERTEX
8
OBJECT__9
10
0
20
0
30
0
70
128
71
63
72
62
73
61
0
VERTEX
8
OBJECT__9
10
0
20
0
30
0
70
128
71
61
72
64
73
63
0
VERTEX
8
OBJECT__9
10
0
20
0
30
0
70
128
71
64
72
1
73
65
0
VERTEX
8
OBJECT__9
10
0
20
0
30
0
70
128
71
65
72
63
73
64
0
VERTEX
8
OBJECT__9
10
0
20
0
30
0
70
128
71
1
72
64
73
66
0
VERTEX
8
OBJECT__9
10
0
20
0
30
0
70
128
71
66
72
67
73
51
0
VERTEX
8
OBJECT__9
10
0
20
0
30
0
70
128
71
67
72
66
73
68
0
VERTEX
8
OBJECT__9
10
0
20
0
30
0
70
128
71
68
72
69
73
70
0
VERTEX
8
OBJECT__9
10
0
20
0
30
0
70
128
71
70
72
71
73
68
0
VERTEX
8
OBJECT__9
10
0
20
0
30
0
70
128
71
68
72
71
73
67
0
VERTEX
8
OBJECT__9
10
0
20
0
30
0
70
128
71
70
72
69
73
72
0
VERTEX
8
OBJECT__9
10
0
20
0
30
0
70
128
71
72
72
73
73
74
0
VERTEX
8
OBJECT__9
10
0
20
0
30
0
70
128
71
75
72
74
73
73
0
VERTEX
8
OBJECT__9
10
0
20
0
30
0
70
128
71
73
72
76
73
75
0
VERTEX
8
OBJECT__9
10
0
20
0
30
0
70
128
71
74
72
77
73
72
0
VERTEX
8
OBJECT__9
10
0
20
0
30
0
70
128
71
78
72
76
73
79
0
VERTEX
8
OBJECT__9
10
0
20
0
30
0
70
128
71
80
72
81
73
82
0
VERTEX
8
OBJECT__9
10
0
20
0
30
0
70
128
71
82
72
79
73
80
0
VERTEX
8
OBJECT__9
10
0
20
0
30
0
70
128
71
83
72
81
73
80
0
VERTEX
8
OBJECT__9
10
0
20
0
30
0
70
128
71
80
72
84
73
83
0
VERTEX
8
OBJECT__9
10
0
20
0
30
0
70
128
71
79
72
82
73
78
0
VERTEX
8
OBJECT__9
10
0
20
0
30
0
70
128
71
84
72
85
73
86
0
VERTEX
8
OBJECT__9
10
0
20
0
30
0
70
128
71
87
72
86
73
85
0
VERTEX
8
OBJECT__9
10
0
20
0
30
0
70
128
71
85
72
88
73
87
0
VERTEX
8
OBJECT__9
10
0
20
0
30
0
70
128
71
89
72
87
73
88
0
VERTEX
8
OBJECT__9
10
0
20
0
30
0
70
128
71
88
72
90
73
89
0
VERTEX
8
OBJECT__9
10
0
20
0
30
0
70
128
71
90
72
41
73
91
0
VERTEX
8
OBJECT__9
10
0
20
0
30
0
70
128
71
91
72
89
73
90
0
VERTEX
8
OBJECT__9
10
0
20
0
30
0
70
128
71
38
72
41
73
92
0
VERTEX
8
OBJECT__9
10
0
20
0
30
0
70
128
71
41
72
90
73
92
0
VERTEX
8
OBJECT__9
10
0
20
0
30
0
70
128
71
93
72
94
73
39
0
VERTEX
8
OBJECT__9
10
0
20
0
30
0
70
128
71
94
72
95
73
96
0
VERTEX
8
OBJECT__9
10
0
20
0
30
0
70
128
71
94
72
93
73
95
0
VERTEX
8
OBJECT__9
10
0
20
0
30
0
70
128
71
96
72
97
73
98
0
VERTEX
8
OBJECT__9
10
0
20
0
30
0
70
128
71
98
72
99
73
96
0
VERTEX
8
OBJECT__9
10
0
20
0
30
0
70
128
71
96
72
99
73
94
0
VERTEX
8
OBJECT__9
10
0
20
0
30
0
70
128
71
100
72
97
73
101
0
VERTEX
8
OBJECT__9
10
0
20
0
30
0
70
128
71
101
72
102
73
100
0
VERTEX
8
OBJECT__9
10
0
20
0
30
0
70
128
71
103
72
104
73
102
0
VERTEX
8
OBJECT__9
10
0
20
0
30
0
70
128
71
102
72
101
73
103
0
VERTEX
8
OBJECT__9
10
0
20
0
30
0
70
128
71
105
72
106
73
104
0
VERTEX
8
OBJECT__9
10
0
20
0
30
0
70
128
71
104
72
103
73
105
0
VERTEX
8
OBJECT__9
10
0
20
0
30
0
70
128
71
105
72
107
73
108
0
VERTEX
8
OBJECT__9
10
0
20
0
30
0
70
128
71
107
72
109
73
110
0
VERTEX
8
OBJECT__9
10
0
20
0
30
0
70
128
71
111
72
110
73
109
0
VERTEX
8
OBJECT__9
10
0
20
0
30
0
70
128
71
109
72
112
73
111
0
VERTEX
8
OBJECT__9
10
0
20
0
30
0
70
128
71
110
72
108
73
107
0
VERTEX
8
OBJECT__9
10
0
20
0
30
0
70
128
71
112
72
113
73
111
0
VERTEX
8
OBJECT__9
10
0
20
0
30
0
70
128
71
114
72
115
73
113
0
VERTEX
8
OBJECT__9
10
0
20
0
30
0
70
128
71
29
72
116
73
114
0
VERTEX
8
OBJECT__9
10
0
20
0
30
0
70
128
71
114
72
117
73
29
0
VERTEX
8
OBJECT__9
10
0
20
0
30
0
70
128
71
116
72
115
73
114
0
VERTEX
8
OBJECT__9
10
0
20
0
30
0
70
128
71
117
72
118
73
29
0
VERTEX
8
OBJECT__9
10
0
20
0
30
0
70
128
71
118
72
119
73
30
0
VERTEX
8
OBJECT__9
10
0
20
0
30
0
70
128
71
119
72
118
73
120
0
VERTEX
8
OBJECT__9
10
0
20
0
30
0
70
128
71
120
72
121
73
122
0
VERTEX
8
OBJECT__9
10
0
20
0
30
0
70
128
71
122
72
123
73
120
0
VERTEX
8
OBJECT__9
10
0
20
0
30
0
70
128
71
120
72
123
73
119
0
VERTEX
8
OBJECT__9
10
0
20
0
30
0
70
128
71
122
72
121
73
124
0
VERTEX
8
OBJECT__9
10
0
20
0
30
0
70
128
71
125
72
126
73
127
0
VERTEX
8
OBJECT__9
10
0
20
0
30
0
70
128
71
125
72
128
73
129
0
VERTEX
8
OBJECT__9
10
0
20
0
30
0
70
128
71
129
72
126
73
125
0
VERTEX
8
OBJECT__9
10
0
20
0
30
0
70
128
71
127
72
124
73
125
0
VERTEX
8
OBJECT__9
10
0
20
0
30
0
70
128
71
130
72
131
73
132
0
VERTEX
8
OBJECT__9
10
0
20
0
30
0
70
128
71
130
72
128
73
131
0
VERTEX
8
OBJECT__9
10
0
20
0
30
0
70
128
71
133
72
134
73
135
0
VERTEX
8
OBJECT__9
10
0
20
0
30
0
70
128
71
135
72
132
73
133
0
VERTEX
8
OBJECT__9
10
0
20
0
30
0
70
128
71
136
72
137
73
134
0
VERTEX
8
OBJECT__9
10
0
20
0
30
0
70
128
71
134
72
133
73
136
0
VERTEX
8
OBJECT__9
10
0
20
0
30
0
70
128
71
132
72
135
73
130
0
VERTEX
8
OBJECT__9
10
0
20
0
30
0
70
128
71
138
72
139
73
137
0
VERTEX
8
OBJECT__9
10
0
20
0
30
0
70
128
71
140
72
141
73
139
0
VERTEX
8
OBJECT__9
10
0
20
0
30
0
70
128
71
139
72
138
73
140
0
VERTEX
8
OBJECT__9
10
0
20
0
30
0
70
128
71
142
72
141
73
140
0
VERTEX
8
OBJECT__9
10
0
20
0
30
0
70
128
71
140
72
143
73
142
0
VERTEX
8
OBJECT__9
10
0
20
0
30
0
70
128
71
143
72
21
73
144
0
VERTEX
8
OBJECT__9
10
0
20
0
30
0
70
128
71
144
72
142
73
143
0
VERTEX
8
OBJECT__9
10
0
20
0
30
0
70
128
71
21
72
145
73
146
0
VERTEX
8
OBJECT__9
10
0
20
0
30
0
70
128
71
21
72
143
73
145
0
VERTEX
8
OBJECT__9
10
0
20
0
30
0
70
128
71
146
72
26
73
21
0
VERTEX
8
OBJECT__9
10
0
20
0
30
0
70
128
71
147
72
148
73
149
0
VERTEX
8
OBJECT__9
10
0
20
0
30
0
70
128
71
148
72
147
73
150
0
VERTEX
8
OBJECT__9
10
0
20
0
30
0
70
128
71
151
72
150
73
152
0
VERTEX
8
OBJECT__9
10
0
20
0
30
0
70
128
71
152
72
153
73
151
0
VERTEX
8
OBJECT__9
10
0
20
0
30
0
70
128
71
154
72
155
73
153
0
VERTEX
8
OBJECT__9
10
0
20
0
30
0
70
128
71
153
72
152
73
154
0
VERTEX
8
OBJECT__9
10
0
20
0
30
0
70
128
71
150
72
151
73
148
0
VERTEX
8
OBJECT__9
10
0
20
0
30
0
70
128
71
155
72
154
73
156
0
VERTEX
8
OBJECT__9
10
0
20
0
30
0
70
128
71
157
72
156
73
158
0
VERTEX
8
OBJECT__9
10
0
20
0
30
0
70
128
71
158
72
159
73
157
0
VERTEX
8
OBJECT__9
10
0
20
0
30
0
70
128
71
160
72
161
73
159
0
VERTEX
8
OBJECT__9
10
0
20
0
30
0
70
128
71
159
72
158
73
160
0
VERTEX
8
OBJECT__9
10
0
20
0
30
0
70
128
71
160
72
162
73
161
0
VERTEX
8
OBJECT__9
10
0
20
0
30
0
70
128
71
162
72
163
73
161
0
VERTEX
8
OBJECT__9
10
0
20
0
30
0
70
128
71
164
72
165
73
163
0
VERTEX
8
OBJECT__9
10
0
20
0
30
0
70
128
71
164
72
166
73
167
0
VERTEX
8
OBJECT__9
10
0
20
0
30
0
70
128
71
167
72
165
73
164
0
VERTEX
8
OBJECT__9
10
0
20
0
30
0
70
128
71
168
72
167
73
166
0
VERTEX
8
OBJECT__9
10
0
20
0
30
0
70
128
71
166
72
169
73
168
0
VERTEX
8
OBJECT__9
10
0
20
0
30
0
70
128
71
170
72
171
73
168
0
VERTEX
8
OBJECT__9
10
0
20
0
30
0
70
128
71
172
72
171
73
170
0
VERTEX
8
OBJECT__9
10
0
20
0
30
0
70
128
71
170
72
173
73
172
0
VERTEX
8
OBJECT__9
10
0
20
0
30
0
70
128
71
173
72
174
73
172
0
VERTEX
8
OBJECT__9
10
0
20
0
30
0
70
128
71
174
72
16
73
175
0
VERTEX
8
OBJECT__9
10
0
20
0
30
0
70
128
71
175
72
172
73
174
0
VERTEX
8
OBJECT__9
10
0
20
0
30
0
70
128
71
16
72
174
73
176
0
VERTEX
8
OBJECT__9
10
0
20
0
30
0
70
128
71
176
72
177
73
17
0
VERTEX
8
OBJECT__9
10
0
20
0
30
0
70
128
71
178
72
179
73
180
0
VERTEX
8
OBJECT__9
10
0
20
0
30
0
70
128
71
177
72
176
73
178
0
VERTEX
8
OBJECT__9
10
0
20
0
30
0
70
128
71
180
72
177
73
178
0
VERTEX
8
OBJECT__9
10
0
20
0
30
0
70
128
71
181
72
179
73
182
0
VERTEX
8
OBJECT__9
10
0
20
0
30
0
70
128
71
182
72
183
73
184
0
VERTEX
8
OBJECT__9
10
0
20
0
30
0
70
128
71
185
72
184
73
183
0
VERTEX
8
OBJECT__9
10
0
20
0
30
0
70
128
71
183
72
186
73
185
0
VERTEX
8
OBJECT__9
10
0
20
0
30
0
70
128
71
184
72
187
73
182
0
VERTEX
8
OBJECT__9
10
0
20
0
30
0
70
128
71
182
72
187
73
181
0
VERTEX
8
OBJECT__9
10
0
20
0
30
0
70
128
71
186
72
188
73
189
0
VERTEX
8
OBJECT__9
10
0
20
0
30
0
70
128
71
188
72
190
73
191
0
VERTEX
8
OBJECT__9
10
0
20
0
30
0
70
128
71
192
72
191
73
190
0
VERTEX
8
OBJECT__9
10
0
20
0
30
0
70
128
71
190
72
193
73
192
0
VERTEX
8
OBJECT__9
10
0
20
0
30
0
70
128
71
191
72
189
73
188
0
VERTEX
8
OBJECT__9
10
0
20
0
30
0
70
128
71
193
72
194
73
192
0
VERTEX
8
OBJECT__9
10
0
20
0
30
0
70
128
71
195
72
196
73
194
0
VERTEX
8
OBJECT__9
10
0
20
0
30
0
70
128
71
197
72
198
73
196
0
VERTEX
8
OBJECT__9
10
0
20
0
30
0
70
128
71
196
72
195
73
197
0
VERTEX
8
OBJECT__9
10
0
20
0
30
0
70
128
71
197
72
199
73
198
0
VERTEX
8
OBJECT__9
10
0
20
0
30
0
70
128
71
199
72
200
73
198
0
VERTEX
8
OBJECT__9
10
0
20
0
30
0
70
128
71
199
72
5
73
201
0
VERTEX
8
OBJECT__9
10
0
20
0
30
0
70
128
71
201
72
200
73
199
0
VERTEX
8
OBJECT__9
10
0
20
0
30
0
70
128
71
10
72
5
73
202
0
VERTEX
8
OBJECT__9
10
0
20
0
30
0
70
128
71
5
72
199
73
202
0
VERTEX
8
OBJECT__9
10
0
20
0
30
0
70
128
71
202
72
203
73
10
0
VERTEX
8
OBJECT__9
10
0
20
0
30
0
70
128
71
204
72
205
73
206
0
VERTEX
8
OBJECT__9
10
0
20
0
30
0
70
128
71
205
72
204
73
207
0
VERTEX
8
OBJECT__9
10
0
20
0
30
0
70
128
71
208
72
207
73
209
0
VERTEX
8
OBJECT__9
10
0
20
0
30
0
70
128
71
210
72
211
73
212
0
VERTEX
8
OBJECT__9
10
0
20
0
30
0
70
128
71
212
72
209
73
210
0
VERTEX
8
OBJECT__9
10
0
20
0
30
0
70
128
71
209
72
212
73
208
0
VERTEX
8
OBJECT__9
10
0
20
0
30
0
70
128
71
207
72
208
73
205
0
VERTEX
8
OBJECT__9
10
0
20
0
30
0
70
128
71
213
72
214
73
215
0
VERTEX
8
OBJECT__9
10
0
20
0
30
0
70
128
71
216
72
210
73
213
0
VERTEX
8
OBJECT__9
10
0
20
0
30
0
70
128
71
215
72
216
73
213
0
VERTEX
8
OBJECT__9
10
0
20
0
30
0
70
128
71
217
72
215
73
214
0
VERTEX
8
OBJECT__9
10
0
20
0
30
0
70
128
71
214
72
54
73
217
0
VERTEX
8
OBJECT__9
10
0
20
0
30
0
70
128
71
54
72
53
73
217
0
VERTEX
8
OBJECT__9
10
0
20
0
30
0
70
128
71
216
72
211
73
210
0
VERTEX
8
OBJECT__9
10
0
20
0
30
0
70
128
71
206
72
10
73
204
0
VERTEX
8
OBJECT__9
10
0
20
0
30
0
70
128
71
203
72
204
73
10
0
VERTEX
8
OBJECT__9
10
0
20
0
30
0
70
128
71
194
72
193
73
195
0
VERTEX
8
OBJECT__9
10
0
20
0
30
0
70
128
71
189
72
185
73
186
0
VERTEX
8
OBJECT__9
10
0
20
0
30
0
70
128
71
181
72
180
73
179
0
VERTEX
8
OBJECT__9
10
0
20
0
30
0
70
128
71
176
72
17
73
16
0
VERTEX
8
OBJECT__9
10
0
20
0
30
0
70
128
71
168
72
169
73
170
0
VERTEX
8
OBJECT__9
10
0
20
0
30
0
70
128
71
163
72
162
73
164
0
VERTEX
8
OBJECT__9
10
0
20
0
30
0
70
128
71
156
72
157
73
155
0
VERTEX
8
OBJECT__9
10
0
20
0
30
0
70
128
71
149
72
26
73
147
0
VERTEX
8
OBJECT__9
10
0
20
0
30
0
70
128
71
146
72
147
73
26
0
VERTEX
8
OBJECT__9
10
0
20
0
30
0
70
128
71
137
72
136
73
138
0
VERTEX
8
OBJECT__9
10
0
20
0
30
0
70
128
71
130
72
129
73
128
0
VERTEX
8
OBJECT__9
10
0
20
0
30
0
70
128
71
124
72
127
73
122
0
VERTEX
8
OBJECT__9
10
0
20
0
30
0
70
128
71
30
72
29
73
118
0
VERTEX
8
OBJECT__9
10
0
20
0
30
0
70
128
71
113
72
112
73
114
0
VERTEX
8
OBJECT__9
10
0
20
0
30
0
70
128
71
108
72
106
73
105
0
VERTEX
8
OBJECT__9
10
0
20
0
30
0
70
128
71
100
72
98
73
97
0
VERTEX
8
OBJECT__9
10
0
20
0
30
0
70
128
71
39
72
38
73
93
0
VERTEX
8
OBJECT__9
10
0
20
0
30
0
70
128
71
92
72
93
73
38
0
VERTEX
8
OBJECT__9
10
0
20
0
30
0
70
128
71
86
72
83
73
84
0
VERTEX
8
OBJECT__9
10
0
20
0
30
0
70
128
71
78
72
75
73
76
0
VERTEX
8
OBJECT__9
10
0
20
0
30
0
70
128
71
72
72
77
73
70
0
VERTEX
8
OBJECT__9
10
0
20
0
30
0
70
128
71
66
72
51
73
1
0
VERTEX
8
OBJECT__9
10
0
20
0
30
0
70
128
71
59
72
60
73
61
0
VERTEX
8
OBJECT__9
10
0
20
0
30
0
70
128
71
55
72
58
73
53
0
VERTEX
8
OBJECT__9
10
0
20
0
30
0
70
128
71
4
72
1
73
49
0
VERTEX
8
OBJECT__9
10
0
20
0
30
0
70
128
71
91
72
41
73
218
0
VERTEX
8
OBJECT__9
10
0
20
0
30
0
70
128
71
42
72
218
73
41
0
VERTEX
8
OBJECT__9
10
0
20
0
30
0
70
128
71
40
72
47
73
38
0
VERTEX
8
OBJECT__9
10
0
20
0
30
0
70
128
71
34
72
116
73
29
0
VERTEX
8
OBJECT__9
10
0
20
0
30
0
70
128
71
32
72
35
73
29
0
VERTEX
8
OBJECT__9
10
0
20
0
30
0
70
128
71
144
72
21
73
219
0
VERTEX
8
OBJECT__9
10
0
20
0
30
0
70
128
71
23
72
219
73
21
0
VERTEX
8
OBJECT__9
10
0
20
0
30
0
70
128
71
27
72
26
73
149
0
VERTEX
8
OBJECT__9
10
0
20
0
30
0
70
128
71
20
72
175
73
16
0
VERTEX
8
OBJECT__9
10
0
20
0
30
0
70
128
71
15
72
16
73
13
0
VERTEX
8
OBJECT__9
10
0
20
0
30
0
70
128
71
201
72
5
73
220
0
VERTEX
8
OBJECT__9
10
0
20
0
30
0
70
128
71
7
72
220
73
5
0
VERTEX
8
OBJECT__9
10
0
20
0
30
0
70
128
71
11
72
10
73
206
0
VERTEX
8
OBJECT__9
10
0
20
0
30
0
70
128
71
3
72
65
73
1
0
SEQEND
8
OBJECT__9
0
POLYLINE
8
OBJECT__11
66
1
70
64
71
42
72
40
62
253
0
VERTEX
8
OBJECT__11
10
13.495000
20
-18.534000
30
44.046001
70
192
0
VERTEX
8
OBJECT__11
10
10.386000
20
-20.688000
30
43.456001
70
192
0
VERTEX
8
OBJECT__11
10
11.645000
20
-20.476999
30
43.032001
70
192
0
VERTEX
8
OBJECT__11
10
10.840000
20
-21.034000
30
42.875999
70
192
0
VERTEX
8
OBJECT__11
10
8.513000
20
-22.309000
30
42.683998
70
192
0
VERTEX
8
OBJECT__11
10
9.050000
20
-22.580999
30
42.130001
70
192
0
VERTEX
8
OBJECT__11
10
6.639000
20
-25.146999
30
40.424999
70
192
0
VERTEX
8
OBJECT__11
10
7.552000
20
-23.334999
30
42.008999
70
192
0
VERTEX
8
OBJECT__11
10
7.926000
20
-22.934999
30
42.271999
70
192
0
VERTEX
8
OBJECT__11
10
4.819000
20
-26.540001
30
39.636002
70
192
0
VERTEX
8
OBJECT__11
10
5.505000
20
-26.629999
30
39.189999
70
192
0
VERTEX
8
OBJECT__11
10
3.197000
20
-29.260000
30
36.890999
70
192
0
VERTEX
8
OBJECT__11
10
3.944000
20
-29.238001
30
36.548000
70
192
0
VERTEX
8
OBJECT__11
10
3.328000
20
-30.695999
30
34.770000
70
192
0
VERTEX
8
OBJECT__11
10
3.022000
20
-29.674000
30
36.387001
70
192
0
VERTEX
8
OBJECT__11
10
2.041000
20
-33.127998
30
31.611000
70
192
0
VERTEX
8
OBJECT__11
10
2.829000
20
-32.952000
30
31.469999
70
192
0
VERTEX
8
OBJECT__11
10
2.093000
20
-34.453999
30
29.245001
70
192
0
VERTEX
8
OBJECT__11
10
2.879000
20
-34.227001
30
29.195999
70
192
0
VERTEX
8
OBJECT__11
10
2.842000
20
-33.287998
30
30.870001
70
192
0
VERTEX
8
OBJECT__11
10
3.532000
20
-35.856998
30
25.566000
70
192
0
VERTEX
8
OBJECT__11
10
2.159000
20
-34.618999
30
28.875999
70
192
0
VERTEX
8
OBJECT__11
10
2.770000
20
-36.146999
30
25.468000
70
192
0
VERTEX
8
OBJECT__11
10
3.569000
20
-36.972000
30
23.052999
70
192
0
VERTEX
8
OBJECT__11
10
4.302000
20
-36.653000
30
23.246000
70
192
0
VERTEX
8
OBJECT__11
10
4.863000
20
-37.601002
30
20.399000
70
192
0
VERTEX
8
OBJECT__11
10
6.019000
20
-37.492001
30
19.735001
70
192
0
VERTEX
8
OBJECT__11
10
5.353000
20
-37.838001
30
19.396000
70
192
0
VERTEX
8
OBJECT__11
10
6.853000
20
-38.119999
30
17.146000
70
192
0
VERTEX
8
OBJECT__11
10
7.459000
20
-37.770000
30
17.576000
70
192
0
VERTEX
8
OBJECT__11
10
9.972000
20
-37.790001
30
14.737000
70
192
0
VERTEX
8
OBJECT__11
10
7.513000
20
-38.120998
30
16.400000
70
192
0
VERTEX
8
OBJECT__11
10
9.477000
20
-38.125999
30
14.183000
70
192
0
VERTEX
8
OBJECT__11
10
11.666000
20
-37.841000
30
12.366000
70
192
0
VERTEX
8
OBJECT__11
10
11.594000
20
-37.585999
30
13.389000
70
192
0
VERTEX
8
OBJECT__11
10
12.062000
20
-37.528000
30
13.000000
70
192
0
VERTEX
8
OBJECT__11
10
13.006000
20
-37.575001
30
11.489000
70
192
0
VERTEX
8
OBJECT__11
10
13.372000
20
-37.272999
30
12.141000
70
192
0
VERTEX
8
OBJECT__11
10
13.041000
20
-37.568001
30
11.466000
70
192
0
VERTEX
8
OBJECT__11
10
2.558000
20
-30.780001
30
35.042999
70
192
0
VERTEX
8
OBJECT__11
10
5.998000
20
-24.992001
30
40.917999
70
192
0
VERTEX
8
OBJECT__11
10
13.804000
20
-18.983999
30
43.451000
70
192
0
VERTEX
8
OBJECT__11
10
0
20
0
30
0
70
128
71
1
72
2
73
3
0
VERTEX
8
OBJECT__11
10
0
20
0
30
0
70
128
71
2
72
4
73
3
0
VERTEX
8
OBJECT__11
10
0
20
0
30
0
70
128
71
5
72
6
73
4
0
VERTEX
8
OBJECT__11
10
0
20
0
30
0
70
128
71
7
72
6
73
8
0
VERTEX
8
OBJECT__11
10
0
20
0
30
0
70
128
71
6
72
5
73
9
0
VERTEX
8
OBJECT__11
10
0
20
0
30
0
70
128
71
9
72
8
73
6
0
VERTEX
8
OBJECT__11
10
0
20
0
30
0
70
128
71
10
72
11
73
7
0
VERTEX
8
OBJECT__11
10
0
20
0
30
0
70
128
71
12
72
13
73
11
0
VERTEX
8
OBJECT__11
10
0
20
0
30
0
70
128
71
14
72
13
73
15
0
VERTEX
8
OBJECT__11
10
0
20
0
30
0
70
128
71
13
72
12
73
15
0
VERTEX
8
OBJECT__11
10
0
20
0
30
0
70
128
71
16
72
17
73
14
0
VERTEX
8
OBJECT__11
10
0
20
0
30
0
70
128
71
18
72
19
73
20
0
VERTEX
8
OBJECT__11
10
0
20
0
30
0
70
128
71
20
72
16
73
18
0
VERTEX
8
OBJECT__11
10
0
20
0
30
0
70
128
71
21
72
19
73
22
0
VERTEX
8
OBJECT__11
10
0
20
0
30
0
70
128
71
19
72
18
73
22
0
VERTEX
8
OBJECT__11
10
0
20
0
30
0
70
128
71
23
72
24
73
25
0
VERTEX
8
OBJECT__11
10
0
20
0
30
0
70
128
71
25
72
24
73
26
0
VERTEX
8
OBJECT__11
10
0
20
0
30
0
70
128
71
26
72
27
73
25
0
VERTEX
8
OBJECT__11
10
0
20
0
30
0
70
128
71
28
72
29
73
30
0
VERTEX
8
OBJECT__11
10
0
20
0
30
0
70
128
71
31
72
30
73
32
0
VERTEX
8
OBJECT__11
10
0
20
0
30
0
70
128
71
30
72
29
73
32
0
VERTEX
8
OBJECT__11
10
0
20
0
30
0
70
128
71
33
72
34
73
35
0
VERTEX
8
OBJECT__11
10
0
20
0
30
0
70
128
71
34
72
36
73
35
0
VERTEX
8
OBJECT__11
10
0
20
0
30
0
70
128
71
37
72
38
73
36
0
VERTEX
8
OBJECT__11
10
0
20
0
30
0
70
128
71
36
72
34
73
37
0
VERTEX
8
OBJECT__11
10
0
20
0
30
0
70
128
71
37
72
39
73
38
0
VERTEX
8
OBJECT__11
10
0
20
0
30
0
70
128
71
35
72
31
73
33
0
VERTEX
8
OBJECT__11
10
0
20
0
30
0
70
128
71
32
72
33
73
31
0
VERTEX
8
OBJECT__11
10
0
20
0
30
0
70
128
71
30
72
27
73
28
0
VERTEX
8
OBJECT__11
10
0
20
0
30
0
70
128
71
26
72
28
73
27
0
VERTEX
8
OBJECT__11
10
0
20
0
30
0
70
128
71
25
72
21
73
23
0
VERTEX
8
OBJECT__11
10
0
20
0
30
0
70
128
71
22
72
23
73
21
0
VERTEX
8
OBJECT__11
10
0
20
0
30
0
70
128
71
20
72
17
73
16
0
VERTEX
8
OBJECT__11
10
0
20
0
30
0
70
128
71
14
72
40
73
16
0
VERTEX
8
OBJECT__11
10
0
20
0
30
0
70
128
71
15
72
40
73
14
0
VERTEX
8
OBJECT__11
10
0
20
0
30
0
70
128
71
11
72
10
73
12
0
VERTEX
8
OBJECT__11
10
0
20
0
30
0
70
128
71
7
72
41
73
10
0
VERTEX
8
OBJECT__11
10
0
20
0
30
0
70
128
71
8
72
41
73
7
0
VERTEX
8
OBJECT__11
10
0
20
0
30
0
70
128
71
4
72
2
73
5
0
VERTEX
8
OBJECT__11
10
0
20
0
30
0
70
128
71
3
72
42
73
1
0
SEQEND
8
OBJECT__11
0
POLYLINE
8
OBJECT__12
66
1
70
64
71
3
72
1
62
253
0
VERTEX
8
OBJECT__12
10
13.804000
20
-18.983999
30
43.451000
70
192
0
VERTEX
8
OBJECT__12
10
13.809000
20
-17.813000
30
44.126999
70
192
0
VERTEX
8
OBJECT__12
10
13.495000
20
-18.534000
30
44.046001
70
192
0
VERTEX
8
OBJECT__12
10
0
20
0
30
0
70
128
71
1
72
2
73
3
0
SEQEND
8
OBJECT__12
0
POLYLINE
8
OBJECT__13
66
1
70
64
71
115
72
131
62
253
0
VERTEX
8
OBJECT__13
10
22.016001
20
-25.069000
30
26.034000
70
192
0
VERTEX
8
OBJECT__13
10
22.003000
20
-33.118000
30
12.113000
70
192
0
VERTEX
8
OBJECT__13
10
31.218000
20
-29.701000
30
12.076000
70
192
0
VERTEX
8
OBJECT__13
10
32.889000
20
-22.136000
30
24.270000
70
192
0
VERTEX
8
OBJECT__13
10
43.945000
20
-19.812000
30
22.899000
70
192
0
VERTEX
8
OBJECT__13
10
39.127998
20
-27.334000
30
12.085000
70
192
0
VERTEX
8
OBJECT__13
10
32.881001
20
-29.204000
30
12.078000
70
192
0
VERTEX
8
OBJECT__13
10
66.226997
20
-16.351999
30
20.992001
70
192
0
VERTEX
8
OBJECT__13
10
52.883999
20
-23.996000
30
12.205000
70
192
0
VERTEX
8
OBJECT__13
10
43.943001
20
-26.166000
30
12.127000
70
192
0
VERTEX
8
OBJECT__13
10
68.242996
20
-21.066000
30
12.417000
70
192
0
VERTEX
8
OBJECT__13
10
83.152000
20
-18.900000
30
12.630000
70
192
0
VERTEX
8
OBJECT__13
10
66.236000
20
-21.448999
30
12.389000
70
192
0
VERTEX
8
OBJECT__13
10
88.750999
20
-14.096000
30
19.896000
70
192
0
VERTEX
8
OBJECT__13
10
111.684998
20
-13.146000
30
19.514000
70
192
0
VERTEX
8
OBJECT__13
10
95.690002
20
-17.732000
30
12.782000
70
192
0
VERTEX
8
OBJECT__13
10
88.766998
20
-18.377001
30
12.698000
70
192
0
VERTEX
8
OBJECT__13
10
113.030998
20
-17.010000
30
12.923000
70
192
0
VERTEX
8
OBJECT__13
10
131.294006
20
-16.804001
30
12.981000
70
192
0
VERTEX
8
OBJECT__13
10
134.274002
20
-12.901000
30
19.495001
70
192
0
VERTEX
8
OBJECT__13
10
111.495003
20
-17.073999
30
12.911000
70
192
0
VERTEX
8
OBJECT__13
10
134.410004
20
-16.846001
30
12.983000
70
192
0
VERTEX
8
OBJECT__13
10
142.692993
20
-17.157000
30
12.978000
70
192
0
VERTEX
8
OBJECT__13
10
151.244003
20
-13.462000
30
19.216000
70
192
0
VERTEX
8
OBJECT__13
10
156.100998
20
-13.697000
30
18.860001
70
192
0
VERTEX
8
OBJECT__13
10
153.828003
20
-17.972000
30
12.347000
70
192
0
VERTEX
8
OBJECT__13
10
156.725006
20
-18.256001
30
11.652000
70
192
0
VERTEX
8
OBJECT__13
10
149.787003
20
-17.628000
30
12.778000
70
192
0
VERTEX
8
OBJECT__13
10
148.987000
20
-17.575001
30
12.801000
70
192
0
VERTEX
8
OBJECT__13
10
160.841995
20
-13.947000
30
18.108999
70
192
0
VERTEX
8
OBJECT__13
10
158.190994
20
-18.400000
30
11.300000
70
192
0
VERTEX
8
OBJECT__13
10
160.360001
20
-18.625999
30
10.434000
70
192
0
VERTEX
8
OBJECT__13
10
165.432007
20
-14.213000
30
16.691999
70
192
0
VERTEX
8
OBJECT__13
10
163.852005
20
-19.006001
30
8.381000
70
192
0
VERTEX
8
OBJECT__13
10
169.763000
20
-14.494000
30
14.422000
70
192
0
VERTEX
8
OBJECT__13
10
163.903000
20
-19.011999
30
8.350000
70
192
0
VERTEX
8
OBJECT__13
10
166.042999
20
-19.271999
30
6.547000
70
192
0
VERTEX
8
OBJECT__13
10
173.529999
20
-14.779000
30
11.331000
70
192
0
VERTEX
8
OBJECT__13
10
166.759003
20
-19.375999
30
5.688000
70
192
0
VERTEX
8
OBJECT__13
10
168.304001
20
-19.601999
30
3.832000
70
192
0
VERTEX
8
OBJECT__13
10
176.401993
20
-15.059000
30
7.481000
70
192
0
VERTEX
8
OBJECT__13
10
178.179993
20
-15.323000
30
2.991000
70
192
0
VERTEX
8
OBJECT__13
10
169.100006
20
-19.747999
30
2.471000
70
192
0
VERTEX
8
OBJECT__13
10
170.356003
20
-20.077000
30
-0.936000
70
192
0
VERTEX
8
OBJECT__13
10
179.128998
20
-15.546000
30
-1.840000
70
192
0
VERTEX
8
OBJECT__13
10
170.369995
20
-20.083000
30
-1.001000
70
192
0
VERTEX
8
OBJECT__13
10
170.664993
20
-20.201000
30
-2.376000
70
192
0
VERTEX
8
OBJECT__13
10
170.904999
20
-20.368000
30
-4.861000
70
192
0
VERTEX
8
OBJECT__13
10
171.231003
20
-20.596001
30
-8.240000
70
192
0
VERTEX
8
OBJECT__13
10
179.903000
20
-15.786000
30
-11.304000
70
192
0
VERTEX
8
OBJECT__13
10
180.134995
20
-15.827000
30
-18.542000
70
192
0
VERTEX
8
OBJECT__13
10
171.362000
20
-20.643999
30
-12.622000
70
192
0
VERTEX
8
OBJECT__13
10
171.539993
20
-20.709000
30
-18.563999
70
192
0
VERTEX
8
OBJECT__13
10
180.143005
20
-15.823000
30
-18.542000
70
192
0
VERTEX
8
OBJECT__13
10
188.684998
20
-10.927000
30
-16.660000
70
192
0
VERTEX
8
OBJECT__13
10
188.731995
20
-10.949000
30
-18.521999
70
192
0
VERTEX
8
OBJECT__13
10
188.354004
20
-10.833000
30
-8.988000
70
192
0
VERTEX
8
OBJECT__13
10
187.317001
20
-10.698000
30
0.862000
70
192
0
VERTEX
8
OBJECT__13
10
188.397003
20
-10.846000
30
-9.988000
70
192
0
VERTEX
8
OBJECT__13
10
187.250000
20
-10.692000
30
1.167000
70
192
0
VERTEX
8
OBJECT__13
10
185.992996
20
-10.588000
30
6.824000
70
192
0
VERTEX
8
OBJECT__13
10
184.710007
20
-10.502000
30
10.290000
70
192
0
VERTEX
8
OBJECT__13
10
182.541000
20
-10.374000
30
14.061000
70
192
0
VERTEX
8
OBJECT__13
10
183.570999
20
-10.434000
30
12.271000
70
192
0
VERTEX
8
OBJECT__13
10
179.645996
20
-10.223000
30
17.318001
70
192
0
VERTEX
8
OBJECT__13
10
176.145996
20
-10.058000
30
20.041000
70
192
0
VERTEX
8
OBJECT__13
10
180.102005
20
-10.246000
30
16.805000
70
192
0
VERTEX
8
OBJECT__13
10
173.013000
20
-9.925000
30
21.813999
70
192
0
VERTEX
8
OBJECT__13
10
170.382996
20
-9.825000
30
22.841000
70
192
0
VERTEX
8
OBJECT__13
10
175.584000
20
-10.034000
30
20.358999
70
192
0
VERTEX
8
OBJECT__13
10
166.401993
20
-9.682000
30
24.169001
70
192
0
VERTEX
8
OBJECT__13
10
164.932007
20
-9.637000
30
24.420000
70
192
0
VERTEX
8
OBJECT__13
10
168.287994
20
-9.746000
30
23.658001
70
192
0
VERTEX
8
OBJECT__13
10
160.526993
20
-9.502000
30
25.171000
70
192
0
VERTEX
8
OBJECT__13
10
159.296997
20
-9.468000
30
25.264000
70
192
0
VERTEX
8
OBJECT__13
10
154.033005
20
-9.321000
30
25.659000
70
192
0
VERTEX
8
OBJECT__13
10
146.826004
20
-9.135000
30
25.900000
70
192
0
VERTEX
8
OBJECT__13
10
136.681000
20
-8.948000
30
26.037001
70
192
0
VERTEX
8
OBJECT__13
10
153.526001
20
-9.308000
30
25.674999
70
192
0
VERTEX
8
OBJECT__13
10
134.182999
20
-8.974000
30
26.042999
70
192
0
VERTEX
8
OBJECT__13
10
115.238998
20
-9.173000
30
26.091999
70
192
0
VERTEX
8
OBJECT__13
10
111.878998
20
-9.252000
30
26.187000
70
192
0
VERTEX
8
OBJECT__13
10
96.073997
20
-9.623000
30
26.631001
70
192
0
VERTEX
8
OBJECT__13
10
89.063004
20
-9.882000
30
27.063000
70
192
0
VERTEX
8
OBJECT__13
10
88.742996
20
-9.899000
30
27.094999
70
192
0
VERTEX
8
OBJECT__13
10
73.625000
20
-10.733000
30
28.596001
70
192
0
VERTEX
8
OBJECT__13
10
58.116001
20
-11.998000
30
30.903999
70
192
0
VERTEX
8
OBJECT__13
10
66.242996
20
-11.335000
30
29.694000
70
192
0
VERTEX
8
OBJECT__13
10
43.361000
20
-13.624000
30
33.828999
70
192
0
VERTEX
8
OBJECT__13
10
43.973000
20
-13.556000
30
33.708000
70
192
0
VERTEX
8
OBJECT__13
10
30.743000
20
-15.440000
30
37.090000
70
192
0
VERTEX
8
OBJECT__13
10
32.925999
20
-15.126000
30
36.526001
70
192
0
VERTEX
8
OBJECT__13
10
11.611000
20
-28.950001
30
28.340000
70
192
0
VERTEX
8
OBJECT__13
10
21.465000
20
-17.156000
30
40.173000
70
192
0
VERTEX
8
OBJECT__13
10
13.804000
20
-18.983999
30
43.451000
70
192
0
VERTEX
8
OBJECT__13
10
22.044001
20
-17.049000
30
39.980000
70
192
0
VERTEX
8
OBJECT__13
10
3.328000
20
-30.695999
30
34.770000
70
192
0
VERTEX
8
OBJECT__13
10
2.829000
20
-32.952000
30
31.469999
70
192
0
VERTEX
8
OBJECT__13
10
3.944000
20
-29.238001
30
36.548000
70
192
0
VERTEX
8
OBJECT__13
10
5.505000
20
-26.629999
30
39.189999
70
192
0
VERTEX
8
OBJECT__13
10
11.645000
20
-20.476999
30
43.032001
70
192
0
VERTEX
8
OBJECT__13
10
10.840000
20
-21.034000
30
42.875999
70
192
0
VERTEX
8
OBJECT__13
10
9.050000
20
-22.580999
30
42.130001
70
192
0
VERTEX
8
OBJECT__13
10
6.639000
20
-25.146999
30
40.424999
70
192
0
VERTEX
8
OBJECT__13
10
7.459000
20
-37.770000
30
17.576000
70
192
0
VERTEX
8
OBJECT__13
10
9.972000
20
-37.790001
30
14.737000
70
192
0
VERTEX
8
OBJECT__13
10
6.019000
20
-37.492001
30
19.735001
70
192
0
VERTEX
8
OBJECT__13
10
4.302000
20
-36.653000
30
23.246000
70
192
0
VERTEX
8
OBJECT__13
10
2.842000
20
-33.287998
30
30.870001
70
192
0
VERTEX
8
OBJECT__13
10
2.879000
20
-34.227001
30
29.195999
70
192
0
VERTEX
8
OBJECT__13
10
3.532000
20
-35.856998
30
25.566000
70
192
0
VERTEX
8
OBJECT__13
10
12.062000
20
-37.528000
30
13.000000
70
192
0
VERTEX
8
OBJECT__13
10
13.372000
20
-37.272999
30
12.141000
70
192
0
VERTEX
8
OBJECT__13
10
11.594000
20
-37.585999
30
13.389000
70
192
0
VERTEX
8
OBJECT__13
10
21.570999
20
-33.278000
30
12.115000
70
192
0
VERTEX
8
OBJECT__13
10
0
20
0
30
0
70
128
71
1
72
2
73
3
0
VERTEX
8
OBJECT__13
10
0
20
0
30
0
70
128
71
3
72
4
73
1
0
VERTEX
8
OBJECT__13
10
0
20
0
30
0
70
128
71
5
72
4
73
6
0
VERTEX
8
OBJECT__13
10
0
20
0
30
0
70
128
71
4
72
7
73
6
0
VERTEX
8
OBJECT__13
10
0
20
0
30
0
70
128
71
8
72
5
73
9
0
VERTEX
8
OBJECT__13
10
0
20
0
30
0
70
128
71
5
72
10
73
9
0
VERTEX
8
OBJECT__13
10
0
20
0
30
0
70
128
71
8
72
11
73
12
0
VERTEX
8
OBJECT__13
10
0
20
0
30
0
70
128
71
8
72
13
73
11
0
VERTEX
8
OBJECT__13
10
0
20
0
30
0
70
128
71
12
72
14
73
8
0
VERTEX
8
OBJECT__13
10
0
20
0
30
0
70
128
71
15
72
14
73
16
0
VERTEX
8
OBJECT__13
10
0
20
0
30
0
70
128
71
14
72
17
73
16
0
VERTEX
8
OBJECT__13
10
0
20
0
30
0
70
128
71
15
72
18
73
19
0
VERTEX
8
OBJECT__13
10
0
20
0
30
0
70
128
71
19
72
20
73
15
0
VERTEX
8
OBJECT__13
10
0
20
0
30
0
70
128
71
15
72
21
73
18
0
VERTEX
8
OBJECT__13
10
0
20
0
30
0
70
128
71
20
72
22
73
23
0
VERTEX
8
OBJECT__13
10
0
20
0
30
0
70
128
71
23
72
24
73
20
0
VERTEX
8
OBJECT__13
10
0
20
0
30
0
70
128
71
25
72
26
73
27
0
VERTEX
8
OBJECT__13
10
0
20
0
30
0
70
128
71
24
72
28
73
26
0
VERTEX
8
OBJECT__13
10
0
20
0
30
0
70
128
71
24
72
29
73
28
0
VERTEX
8
OBJECT__13
10
0
20
0
30
0
70
128
71
26
72
25
73
24
0
VERTEX
8
OBJECT__13
10
0
20
0
30
0
70
128
71
30
72
31
73
32
0
VERTEX
8
OBJECT__13
10
0
20
0
30
0
70
128
71
30
72
27
73
31
0
VERTEX
8
OBJECT__13
10
0
20
0
30
0
70
128
71
33
72
32
73
34
0
VERTEX
8
OBJECT__13
10
0
20
0
30
0
70
128
71
35
72
36
73
37
0
VERTEX
8
OBJECT__13
10
0
20
0
30
0
70
128
71
35
72
34
73
36
0
VERTEX
8
OBJECT__13
10
0
20
0
30
0
70
128
71
37
72
38
73
35
0
VERTEX
8
OBJECT__13
10
0
20
0
30
0
70
128
71
38
72
39
73
40
0
VERTEX
8
OBJECT__13
10
0
20
0
30
0
70
128
71
40
72
41
73
38
0
VERTEX
8
OBJECT__13
10
0
20
0
30
0
70
128
71
42
72
41
73
43
0
VERTEX
8
OBJECT__13
10
0
20
0
30
0
70
128
71
43
72
44
73
42
0
VERTEX
8
OBJECT__13
10
0
20
0
30
0
70
128
71
45
72
42
73
46
0
VERTEX
8
OBJECT__13
10
0
20
0
30
0
70
128
71
46
72
47
73
45
0
VERTEX
8
OBJECT__13
10
0
20
0
30
0
70
128
71
45
72
48
73
49
0
VERTEX
8
OBJECT__13
10
0
20
0
30
0
70
128
71
49
72
50
73
45
0
VERTEX
8
OBJECT__13
10
0
20
0
30
0
70
128
71
51
72
50
73
52
0
VERTEX
8
OBJECT__13
10
0
20
0
30
0
70
128
71
52
72
53
73
51
0
VERTEX
8
OBJECT__13
10
0
20
0
30
0
70
128
71
50
72
54
73
55
0
VERTEX
8
OBJECT__13
10
0
20
0
30
0
70
128
71
54
72
56
73
55
0
VERTEX
8
OBJECT__13
10
0
20
0
30
0
70
128
71
57
72
58
73
45
0
VERTEX
8
OBJECT__13
10
0
20
0
30
0
70
128
71
45
72
50
73
57
0
VERTEX
8
OBJECT__13
10
0
20
0
30
0
70
128
71
50
72
59
73
57
0
VERTEX
8
OBJECT__13
10
0
20
0
30
0
70
128
71
60
72
61
73
42
0
VERTEX
8
OBJECT__13
10
0
20
0
30
0
70
128
71
41
72
42
73
61
0
VERTEX
8
OBJECT__13
10
0
20
0
30
0
70
128
71
61
72
62
73
41
0
VERTEX
8
OBJECT__13
10
0
20
0
30
0
70
128
71
38
72
41
73
63
0
VERTEX
8
OBJECT__13
10
0
20
0
30
0
70
128
71
41
72
64
73
63
0
VERTEX
8
OBJECT__13
10
0
20
0
30
0
70
128
71
38
72
65
73
66
0
VERTEX
8
OBJECT__13
10
0
20
0
30
0
70
128
71
38
72
67
73
65
0
VERTEX
8
OBJECT__13
10
0
20
0
30
0
70
128
71
66
72
35
73
38
0
VERTEX
8
OBJECT__13
10
0
20
0
30
0
70
128
71
35
72
68
73
69
0
VERTEX
8
OBJECT__13
10
0
20
0
30
0
70
128
71
35
72
70
73
68
0
VERTEX
8
OBJECT__13
10
0
20
0
30
0
70
128
71
33
72
71
73
72
0
VERTEX
8
OBJECT__13
10
0
20
0
30
0
70
128
71
33
72
69
73
73
0
VERTEX
8
OBJECT__13
10
0
20
0
30
0
70
128
71
73
72
71
73
33
0
VERTEX
8
OBJECT__13
10
0
20
0
30
0
70
128
71
30
72
74
73
75
0
VERTEX
8
OBJECT__13
10
0
20
0
30
0
70
128
71
30
72
72
73
74
0
VERTEX
8
OBJECT__13
10
0
20
0
30
0
70
128
71
76
72
24
73
25
0
VERTEX
8
OBJECT__13
10
0
20
0
30
0
70
128
71
25
72
75
73
76
0
VERTEX
8
OBJECT__13
10
0
20
0
30
0
70
128
71
20
72
24
73
77
0
VERTEX
8
OBJECT__13
10
0
20
0
30
0
70
128
71
77
72
78
73
20
0
VERTEX
8
OBJECT__13
10
0
20
0
30
0
70
128
71
24
72
79
73
77
0
VERTEX
8
OBJECT__13
10
0
20
0
30
0
70
128
71
20
72
80
73
81
0
VERTEX
8
OBJECT__13
10
0
20
0
30
0
70
128
71
81
72
15
73
20
0
VERTEX
8
OBJECT__13
10
0
20
0
30
0
70
128
71
15
72
82
73
83
0
VERTEX
8
OBJECT__13
10
0
20
0
30
0
70
128
71
83
72
14
73
15
0
VERTEX
8
OBJECT__13
10
0
20
0
30
0
70
128
71
83
72
84
73
14
0
VERTEX
8
OBJECT__13
10
0
20
0
30
0
70
128
71
14
72
85
73
86
0
VERTEX
8
OBJECT__13
10
0
20
0
30
0
70
128
71
86
72
8
73
14
0
VERTEX
8
OBJECT__13
10
0
20
0
30
0
70
128
71
5
72
8
73
87
0
VERTEX
8
OBJECT__13
10
0
20
0
30
0
70
128
71
8
72
88
73
87
0
VERTEX
8
OBJECT__13
10
0
20
0
30
0
70
128
71
4
72
5
73
89
0
VERTEX
8
OBJECT__13
10
0
20
0
30
0
70
128
71
5
72
90
73
89
0
VERTEX
8
OBJECT__13
10
0
20
0
30
0
70
128
71
1
72
4
73
91
0
VERTEX
8
OBJECT__13
10
0
20
0
30
0
70
128
71
4
72
92
73
91
0
VERTEX
8
OBJECT__13
10
0
20
0
30
0
70
128
71
93
72
1
73
94
0
VERTEX
8
OBJECT__13
10
0
20
0
30
0
70
128
71
94
72
95
73
93
0
VERTEX
8
OBJECT__13
10
0
20
0
30
0
70
128
71
1
72
96
73
94
0
VERTEX
8
OBJECT__13
10
0
20
0
30
0
70
128
71
93
72
97
73
98
0
VERTEX
8
OBJECT__13
10
0
20
0
30
0
70
128
71
93
72
99
73
97
0
VERTEX
8
OBJECT__13
10
0
20
0
30
0
70
128
71
93
72
100
73
99
0
VERTEX
8
OBJECT__13
10
0
20
0
30
0
70
128
71
93
72
101
73
102
0
VERTEX
8
OBJECT__13
10
0
20
0
30
0
70
128
71
102
72
103
73
93
0
VERTEX
8
OBJECT__13
10
0
20
0
30
0
70
128
71
103
72
104
73
93
0
VERTEX
8
OBJECT__13
10
0
20
0
30
0
70
128
71
104
72
100
73
93
0
VERTEX
8
OBJECT__13
10
0
20
0
30
0
70
128
71
93
72
105
73
106
0
VERTEX
8
OBJECT__13
10
0
20
0
30
0
70
128
71
93
72
107
73
105
0
VERTEX
8
OBJECT__13
10
0
20
0
30
0
70
128
71
93
72
108
73
107
0
VERTEX
8
OBJECT__13
10
0
20
0
30
0
70
128
71
93
72
109
73
110
0
VERTEX
8
OBJECT__13
10
0
20
0
30
0
70
128
71
110
72
111
73
93
0
VERTEX
8
OBJECT__13
10
0
20
0
30
0
70
128
71
111
72
108
73
93
0
VERTEX
8
OBJECT__13
10
0
20
0
30
0
70
128
71
1
72
112
73
113
0
VERTEX
8
OBJECT__13
10
0
20
0
30
0
70
128
71
1
72
93
73
114
0
VERTEX
8
OBJECT__13
10
0
20
0
30
0
70
128
71
114
72
112
73
1
0
VERTEX
8
OBJECT__13
10
0
20
0
30
0
70
128
71
113
72
115
73
1
0
VERTEX
8
OBJECT__13
10
0
20
0
30
0
70
128
71
115
72
2
73
1
0
VERTEX
8
OBJECT__13
10
0
20
0
30
0
70
128
71
106
72
114
73
93
0
VERTEX
8
OBJECT__13
10
0
20
0
30
0
70
128
71
98
72
109
73
93
0
VERTEX
8
OBJECT__13
10
0
20
0
30
0
70
128
71
95
72
101
73
93
0
VERTEX
8
OBJECT__13
10
0
20
0
30
0
70
128
71
91
72
96
73
1
0
VERTEX
8
OBJECT__13
10
0
20
0
30
0
70
128
71
89
72
92
73
4
0
VERTEX
8
OBJECT__13
10
0
20
0
30
0
70
128
71
87
72
90
73
5
0
VERTEX
8
OBJECT__13
10
0
20
0
30
0
70
128
71
86
72
88
73
8
0
VERTEX
8
OBJECT__13
10
0
20
0
30
0
70
128
71
84
72
85
73
14
0
VERTEX
8
OBJECT__13
10
0
20
0
30
0
70
128
71
81
72
82
73
15
0
VERTEX
8
OBJECT__13
10
0
20
0
30
0
70
128
71
78
72
80
73
20
0
VERTEX
8
OBJECT__13
10
0
20
0
30
0
70
128
71
76
72
79
73
24
0
VERTEX
8
OBJECT__13
10
0
20
0
30
0
70
128
71
75
72
25
73
30
0
VERTEX
8
OBJECT__13
10
0
20
0
30
0
70
128
71
72
72
30
73
33
0
VERTEX
8
OBJECT__13
10
0
20
0
30
0
70
128
71
69
72
33
73
35
0
VERTEX
8
OBJECT__13
10
0
20
0
30
0
70
128
71
66
72
70
73
35
0
VERTEX
8
OBJECT__13
10
0
20
0
30
0
70
128
71
63
72
67
73
38
0
VERTEX
8
OBJECT__13
10
0
20
0
30
0
70
128
71
62
72
64
73
41
0
VERTEX
8
OBJECT__13
10
0
20
0
30
0
70
128
71
42
72
45
73
60
0
VERTEX
8
OBJECT__13
10
0
20
0
30
0
70
128
71
58
72
60
73
45
0
VERTEX
8
OBJECT__13
10
0
20
0
30
0
70
128
71
55
72
59
73
50
0
VERTEX
8
OBJECT__13
10
0
20
0
30
0
70
128
71
51
72
54
73
50
0
VERTEX
8
OBJECT__13
10
0
20
0
30
0
70
128
71
49
72
52
73
50
0
VERTEX
8
OBJECT__13
10
0
20
0
30
0
70
128
71
47
72
48
73
45
0
VERTEX
8
OBJECT__13
10
0
20
0
30
0
70
128
71
44
72
46
73
42
0
VERTEX
8
OBJECT__13
10
0
20
0
30
0
70
128
71
40
72
43
73
41
0
VERTEX
8
OBJECT__13
10
0
20
0
30
0
70
128
71
37
72
39
73
38
0
VERTEX
8
OBJECT__13
10
0
20
0
30
0
70
128
71
34
72
35
73
33
0
VERTEX
8
OBJECT__13
10
0
20
0
30
0
70
128
71
32
72
33
73
30
0
VERTEX
8
OBJECT__13
10
0
20
0
30
0
70
128
71
27
72
30
73
25
0
VERTEX
8
OBJECT__13
10
0
20
0
30
0
70
128
71
23
72
29
73
24
0
VERTEX
8
OBJECT__13
10
0
20
0
30
0
70
128
71
19
72
22
73
20
0
VERTEX
8
OBJECT__13
10
0
20
0
30
0
70
128
71
16
72
21
73
15
0
VERTEX
8
OBJECT__13
10
0
20
0
30
0
70
128
71
12
72
17
73
14
0
VERTEX
8
OBJECT__13
10
0
20
0
30
0
70
128
71
9
72
13
73
8
0
VERTEX
8
OBJECT__13
10
0
20
0
30
0
70
128
71
6
72
10
73
5
0
VERTEX
8
OBJECT__13
10
0
20
0
30
0
70
128
71
3
72
7
73
4
0
SEQEND
8
OBJECT__13
0
POLYLINE
8
OBJECT__14
66
1
70
64
71
84
72
82
62
253
0
VERTEX
8
OBJECT__14
10
21.469999
20
-15.939000
30
40.875000
70
192
0
VERTEX
8
OBJECT__14
10
13.809000
20
-17.813000
30
44.126999
70
192
0
VERTEX
8
OBJECT__14
10
13.804000
20
-18.983999
30
43.451000
70
192
0
VERTEX
8
OBJECT__14
10
21.465000
20
-17.156000
30
40.173000
70
192
0
VERTEX
8
OBJECT__14
10
22.044001
20
-17.049000
30
39.980000
70
192
0
VERTEX
8
OBJECT__14
10
30.743000
20
-15.440000
30
37.090000
70
192
0
VERTEX
8
OBJECT__14
10
30.747999
20
-14.193000
30
37.810001
70
192
0
VERTEX
8
OBJECT__14
10
22.500000
20
-15.745000
30
40.535000
70
192
0
VERTEX
8
OBJECT__14
10
32.925999
20
-15.126000
30
36.526001
70
192
0
VERTEX
8
OBJECT__14
10
43.361000
20
-13.624000
30
33.828999
70
192
0
VERTEX
8
OBJECT__14
10
43.366001
20
-12.358000
30
34.557999
70
192
0
VERTEX
8
OBJECT__14
10
33.358002
20
-13.813000
30
37.137001
70
192
0
VERTEX
8
OBJECT__14
10
43.973000
20
-13.556000
30
33.708000
70
192
0
VERTEX
8
OBJECT__14
10
58.116001
20
-11.998000
30
30.903999
70
192
0
VERTEX
8
OBJECT__14
10
58.119999
20
-10.723000
30
31.634001
70
192
0
VERTEX
8
OBJECT__14
10
44.375999
20
-12.246000
30
34.356998
70
192
0
VERTEX
8
OBJECT__14
10
73.625000
20
-10.733000
30
28.596001
70
192
0
VERTEX
8
OBJECT__14
10
73.627998
20
-9.450000
30
29.330000
70
192
0
VERTEX
8
OBJECT__14
10
66.577003
20
-10.029000
30
30.378000
70
192
0
VERTEX
8
OBJECT__14
10
66.242996
20
-11.335000
30
29.694000
70
192
0
VERTEX
8
OBJECT__14
10
88.742996
20
-9.899000
30
27.094999
70
192
0
VERTEX
8
OBJECT__14
10
89.061996
20
-8.590000
30
27.805000
70
192
0
VERTEX
8
OBJECT__14
10
96.073997
20
-9.623000
30
26.631001
70
192
0
VERTEX
8
OBJECT__14
10
96.070000
20
-8.329000
30
27.372999
70
192
0
VERTEX
8
OBJECT__14
10
115.238998
20
-9.173000
30
26.091999
70
192
0
VERTEX
8
OBJECT__14
10
115.223000
20
-7.882000
30
26.827999
70
192
0
VERTEX
8
OBJECT__14
10
112.105003
20
-7.955000
30
26.917000
70
192
0
VERTEX
8
OBJECT__14
10
111.878998
20
-9.252000
30
26.187000
70
192
0
VERTEX
8
OBJECT__14
10
134.182999
20
-8.974000
30
26.042999
70
192
0
VERTEX
8
OBJECT__14
10
136.681000
20
-8.948000
30
26.037001
70
192
0
VERTEX
8
OBJECT__14
10
136.701996
20
-7.667000
30
26.756001
70
192
0
VERTEX
8
OBJECT__14
10
134.345001
20
-7.690000
30
26.764000
70
192
0
VERTEX
8
OBJECT__14
10
146.826004
20
-9.135000
30
25.900000
70
192
0
VERTEX
8
OBJECT__14
10
146.875000
20
-7.865000
30
26.600000
70
192
0
VERTEX
8
OBJECT__14
10
153.526001
20
-9.308000
30
25.674999
70
192
0
VERTEX
8
OBJECT__14
10
154.102005
20
-8.059000
30
26.346001
70
192
0
VERTEX
8
OBJECT__14
10
160.526993
20
-9.502000
30
25.171000
70
192
0
VERTEX
8
OBJECT__14
10
160.638000
20
-8.239000
30
25.856001
70
192
0
VERTEX
8
OBJECT__14
10
159.819000
20
-8.216000
30
25.917999
70
192
0
VERTEX
8
OBJECT__14
10
154.033005
20
-9.321000
30
25.659000
70
192
0
VERTEX
8
OBJECT__14
10
159.296997
20
-9.468000
30
25.264000
70
192
0
VERTEX
8
OBJECT__14
10
164.932007
20
-9.637000
30
24.420000
70
192
0
VERTEX
8
OBJECT__14
10
166.401993
20
-9.682000
30
24.169001
70
192
0
VERTEX
8
OBJECT__14
10
166.604004
20
-8.406000
30
24.856001
70
192
0
VERTEX
8
OBJECT__14
10
165.516006
20
-8.375000
30
25.038000
70
192
0
VERTEX
8
OBJECT__14
10
168.531998
20
-8.463000
30
24.343000
70
192
0
VERTEX
8
OBJECT__14
10
168.287994
20
-9.746000
30
23.658001
70
192
0
VERTEX
8
OBJECT__14
10
170.382996
20
-9.825000
30
22.841000
70
192
0
VERTEX
8
OBJECT__14
10
173.013000
20
-9.925000
30
21.813999
70
192
0
VERTEX
8
OBJECT__14
10
173.382004
20
-8.625000
30
22.475000
70
192
0
VERTEX
8
OBJECT__14
10
171.014999
20
-8.546000
30
23.386999
70
192
0
VERTEX
8
OBJECT__14
10
176.145996
20
-10.058000
30
20.041000
70
192
0
VERTEX
8
OBJECT__14
10
176.606003
20
-8.748000
30
20.666000
70
192
0
VERTEX
8
OBJECT__14
10
176.263000
20
-8.735000
30
20.858999
70
192
0
VERTEX
8
OBJECT__14
10
175.584000
20
-10.034000
30
20.358999
70
192
0
VERTEX
8
OBJECT__14
10
180.220001
20
-8.903000
30
17.867001
70
192
0
VERTEX
8
OBJECT__14
10
179.645996
20
-10.223000
30
17.318001
70
192
0
VERTEX
8
OBJECT__14
10
180.102005
20
-10.246000
30
16.805000
70
192
0
VERTEX
8
OBJECT__14
10
182.541000
20
-10.374000
30
14.061000
70
192
0
VERTEX
8
OBJECT__14
10
183.216995
20
-9.050000
30
14.494000
70
192
0
VERTEX
8
OBJECT__14
10
180.792999
20
-8.931000
30
17.221001
70
192
0
VERTEX
8
OBJECT__14
10
184.285004
20
-9.114000
30
12.621000
70
192
0
VERTEX
8
OBJECT__14
10
183.570999
20
-10.434000
30
12.271000
70
192
0
VERTEX
8
OBJECT__14
10
184.710007
20
-10.502000
30
10.290000
70
192
0
VERTEX
8
OBJECT__14
10
185.451004
20
-9.183000
30
10.577000
70
192
0
VERTEX
8
OBJECT__14
10
185.992996
20
-10.588000
30
6.824000
70
192
0
VERTEX
8
OBJECT__14
10
186.669998
20
-9.271000
30
7.233000
70
192
0
VERTEX
8
OBJECT__14
10
186.748993
20
-9.277000
30
7.017000
70
192
0
VERTEX
8
OBJECT__14
10
188.070999
20
-9.397000
30
0.957000
70
192
0
VERTEX
8
OBJECT__14
10
187.983002
20
-9.389000
30
1.363000
70
192
0
VERTEX
8
OBJECT__14
10
187.250000
20
-10.692000
30
1.167000
70
192
0
VERTEX
8
OBJECT__14
10
189.104996
20
-9.537000
30
-8.955000
70
192
0
VERTEX
8
OBJECT__14
10
187.317001
20
-10.698000
30
0.862000
70
192
0
VERTEX
8
OBJECT__14
10
189.442993
20
-9.628000
30
-16.653000
70
192
0
VERTEX
8
OBJECT__14
10
189.147003
20
-9.548000
30
-9.905000
70
192
0
VERTEX
8
OBJECT__14
10
188.397003
20
-10.846000
30
-9.988000
70
192
0
VERTEX
8
OBJECT__14
10
188.354004
20
-10.833000
30
-8.988000
70
192
0
VERTEX
8
OBJECT__14
10
188.684998
20
-10.927000
30
-16.660000
70
192
0
VERTEX
8
OBJECT__14
10
189.121994
20
-10.631000
30
-18.518999
70
192
0
VERTEX
8
OBJECT__14
10
189.384995
20
-10.201000
30
-18.517000
70
192
0
VERTEX
8
OBJECT__14
10
188.731995
20
-10.949000
30
-18.521999
70
192
0
VERTEX
8
OBJECT__14
10
189.490997
20
-9.709000
30
-18.518000
70
192
0
VERTEX
8
OBJECT__14
10
189.492004
20
-9.649000
30
-18.518000
70
192
0
VERTEX
8
OBJECT__14
10
89.063004
20
-9.882000
30
27.063000
70
192
0
VERTEX
8
OBJECT__14
10
0
20
0
30
0
70
128
71
1
72
2
73
3
0
VERTEX
8
OBJECT__14
10
0
20
0
30
0
70
128
71
1
72
4
73
5
0
VERTEX
8
OBJECT__14
10
0
20
0
30
0
70
128
71
6
72
7
73
8
0
VERTEX
8
OBJECT__14
10
0
20
0
30
0
70
128
71
8
72
5
73
6
0
VERTEX
8
OBJECT__14
10
0
20
0
30
0
70
128
71
7
72
6
73
9
0
VERTEX
8
OBJECT__14
10
0
20
0
30
0
70
128
71
10
72
11
73
12
0
VERTEX
8
OBJECT__14
10
0
20
0
30
0
70
128
71
12
72
9
73
10
0
VERTEX
8
OBJECT__14
10
0
20
0
30
0
70
128
71
11
72
10
73
13
0
VERTEX
8
OBJECT__14
10
0
20
0
30
0
70
128
71
14
72
15
73
16
0
VERTEX
8
OBJECT__14
10
0
20
0
30
0
70
128
71
16
72
13
73
14
0
VERTEX
8
OBJECT__14
10
0
20
0
30
0
70
128
71
17
72
18
73
19
0
VERTEX
8
OBJECT__14
10
0
20
0
30
0
70
128
71
15
72
14
73
20
0
VERTEX
8
OBJECT__14
10
0
20
0
30
0
70
128
71
20
72
19
73
15
0
VERTEX
8
OBJECT__14
10
0
20
0
30
0
70
128
71
18
72
17
73
21
0
VERTEX
8
OBJECT__14
10
0
20
0
30
0
70
128
71
21
72
22
73
18
0
VERTEX
8
OBJECT__14
10
0
20
0
30
0
70
128
71
23
72
24
73
22
0
VERTEX
8
OBJECT__14
10
0
20
0
30
0
70
128
71
25
72
26
73
27
0
VERTEX
8
OBJECT__14
10
0
20
0
30
0
70
128
71
24
72
23
73
28
0
VERTEX
8
OBJECT__14
10
0
20
0
30
0
70
128
71
28
72
27
73
24
0
VERTEX
8
OBJECT__14
10
0
20
0
30
0
70
128
71
26
72
25
73
29
0
VERTEX
8
OBJECT__14
10
0
20
0
30
0
70
128
71
30
72
31
73
32
0
VERTEX
8
OBJECT__14
10
0
20
0
30
0
70
128
71
32
72
29
73
30
0
VERTEX
8
OBJECT__14
10
0
20
0
30
0
70
128
71
31
72
30
73
33
0
VERTEX
8
OBJECT__14
10
0
20
0
30
0
70
128
71
34
72
33
73
35
0
VERTEX
8
OBJECT__14
10
0
20
0
30
0
70
128
71
35
72
36
73
34
0
VERTEX
8
OBJECT__14
10
0
20
0
30
0
70
128
71
37
72
38
73
39
0
VERTEX
8
OBJECT__14
10
0
20
0
30
0
70
128
71
36
72
40
73
41
0
VERTEX
8
OBJECT__14
10
0
20
0
30
0
70
128
71
41
72
39
73
36
0
VERTEX
8
OBJECT__14
10
0
20
0
30
0
70
128
71
38
72
37
73
42
0
VERTEX
8
OBJECT__14
10
0
20
0
30
0
70
128
71
43
72
44
73
45
0
VERTEX
8
OBJECT__14
10
0
20
0
30
0
70
128
71
45
72
42
73
43
0
VERTEX
8
OBJECT__14
10
0
20
0
30
0
70
128
71
46
72
44
73
43
0
VERTEX
8
OBJECT__14
10
0
20
0
30
0
70
128
71
46
72
47
73
48
0
VERTEX
8
OBJECT__14
10
0
20
0
30
0
70
128
71
49
72
50
73
51
0
VERTEX
8
OBJECT__14
10
0
20
0
30
0
70
128
71
51
72
48
73
49
0
VERTEX
8
OBJECT__14
10
0
20
0
30
0
70
128
71
52
72
53
73
54
0
VERTEX
8
OBJECT__14
10
0
20
0
30
0
70
128
71
50
72
49
73
55
0
VERTEX
8
OBJECT__14
10
0
20
0
30
0
70
128
71
55
72
54
73
50
0
VERTEX
8
OBJECT__14
10
0
20
0
30
0
70
128
71
56
72
53
73
52
0
VERTEX
8
OBJECT__14
10
0
20
0
30
0
70
128
71
56
72
57
73
58
0
VERTEX
8
OBJECT__14
10
0
20
0
30
0
70
128
71
59
72
60
73
61
0
VERTEX
8
OBJECT__14
10
0
20
0
30
0
70
128
71
61
72
58
73
59
0
VERTEX
8
OBJECT__14
10
0
20
0
30
0
70
128
71
62
72
60
73
59
0
VERTEX
8
OBJECT__14
10
0
20
0
30
0
70
128
71
62
72
63
73
64
0
VERTEX
8
OBJECT__14
10
0
20
0
30
0
70
128
71
64
72
65
73
62
0
VERTEX
8
OBJECT__14
10
0
20
0
30
0
70
128
71
64
72
66
73
67
0
VERTEX
8
OBJECT__14
10
0
20
0
30
0
70
128
71
66
72
68
73
67
0
VERTEX
8
OBJECT__14
10
0
20
0
30
0
70
128
71
69
72
70
73
71
0
VERTEX
8
OBJECT__14
10
0
20
0
30
0
70
128
71
66
72
71
73
70
0
VERTEX
8
OBJECT__14
10
0
20
0
30
0
70
128
71
70
72
68
73
66
0
VERTEX
8
OBJECT__14
10
0
20
0
30
0
70
128
71
72
72
69
73
73
0
VERTEX
8
OBJECT__14
10
0
20
0
30
0
70
128
71
74
72
75
73
76
0
VERTEX
8
OBJECT__14
10
0
20
0
30
0
70
128
71
77
72
76
73
75
0
VERTEX
8
OBJECT__14
10
0
20
0
30
0
70
128
71
75
72
72
73
77
0
VERTEX
8
OBJECT__14
10
0
20
0
30
0
70
128
71
78
72
79
73
80
0
VERTEX
8
OBJECT__14
10
0
20
0
30
0
70
128
71
78
72
81
73
79
0
VERTEX
8
OBJECT__14
10
0
20
0
30
0
70
128
71
80
72
74
73
78
0
VERTEX
8
OBJECT__14
10
0
20
0
30
0
70
128
71
80
72
82
73
74
0
VERTEX
8
OBJECT__14
10
0
20
0
30
0
70
128
71
82
72
83
73
74
0
VERTEX
8
OBJECT__14
10
0
20
0
30
0
70
128
71
76
72
78
73
74
0
VERTEX
8
OBJECT__14
10
0
20
0
30
0
70
128
71
73
72
77
73
72
0
VERTEX
8
OBJECT__14
10
0
20
0
30
0
70
128
71
71
72
73
73
69
0
VERTEX
8
OBJECT__14
10
0
20
0
30
0
70
128
71
67
72
65
73
64
0
VERTEX
8
OBJECT__14
10
0
20
0
30
0
70
128
71
59
72
63
73
62
0
VERTEX
8
OBJECT__14
10
0
20
0
30
0
70
128
71
58
72
61
73
56
0
VERTEX
8
OBJECT__14
10
0
20
0
30
0
70
128
71
52
72
57
73
56
0
VERTEX
8
OBJECT__14
10
0
20
0
30
0
70
128
71
54
72
55
73
52
0
VERTEX
8
OBJECT__14
10
0
20
0
30
0
70
128
71
48
72
51
73
46
0
VERTEX
8
OBJECT__14
10
0
20
0
30
0
70
128
71
43
72
47
73
46
0
VERTEX
8
OBJECT__14
10
0
20
0
30
0
70
128
71
42
72
45
73
38
0
VERTEX
8
OBJECT__14
10
0
20
0
30
0
70
128
71
39
72
41
73
37
0
VERTEX
8
OBJECT__14
10
0
20
0
30
0
70
128
71
35
72
40
73
36
0
VERTEX
8
OBJECT__14
10
0
20
0
30
0
70
128
71
33
72
34
73
31
0
VERTEX
8
OBJECT__14
10
0
20
0
30
0
70
128
71
29
72
32
73
26
0
VERTEX
8
OBJECT__14
10
0
20
0
30
0
70
128
71
27
72
28
73
25
0
VERTEX
8
OBJECT__14
10
0
20
0
30
0
70
128
71
22
72
84
73
23
0
VERTEX
8
OBJECT__14
10
0
20
0
30
0
70
128
71
21
72
84
73
22
0
VERTEX
8
OBJECT__14
10
0
20
0
30
0
70
128
71
19
72
20
73
17
0
VERTEX
8
OBJECT__14
10
0
20
0
30
0
70
128
71
13
72
16
73
11
0
VERTEX
8
OBJECT__14
10
0
20
0
30
0
70
128
71
9
72
12
73
7
0
VERTEX
8
OBJECT__14
10
0
20
0
30
0
70
128
71
5
72
8
73
1
0
VERTEX
8
OBJECT__14
10
0
20
0
30
0
70
128
71
3
72
4
73
1
0
SEQEND
8
OBJECT__14
0
POLYLINE
8
OBJECT__15
66
1
70
64
71
42
72
40
62
253
0
VERTEX
8
OBJECT__15
10
14.145000
20
18.613001
30
43.791000
70
192
0
VERTEX
8
OBJECT__15
10
11.450000
20
17.441000
30
45.118999
70
192
0
VERTEX
8
OBJECT__15
10
12.188000
20
16.903000
30
44.983002
70
192
0
VERTEX
8
OBJECT__15
10
14.862000
20
18.073999
30
43.674000
70
192
0
VERTEX
8
OBJECT__15
10
14.599000
20
18.811001
30
43.567001
70
192
0
VERTEX
8
OBJECT__15
10
11.860000
20
16.760000
30
45.144001
70
192
0
VERTEX
8
OBJECT__15
10
9.608000
20
16.153999
30
46.099998
70
192
0
VERTEX
8
OBJECT__15
10
10.101000
20
15.525000
30
46.074001
70
192
0
VERTEX
8
OBJECT__15
10
7.651000
20
14.154000
30
47.202999
70
192
0
VERTEX
8
OBJECT__15
10
7.611000
20
12.971000
30
47.466000
70
192
0
VERTEX
8
OBJECT__15
10
5.804000
20
11.778000
30
48.271000
70
192
0
VERTEX
8
OBJECT__15
10
6.456000
20
11.320000
30
48.138000
70
192
0
VERTEX
8
OBJECT__15
10
4.753000
20
7.873000
30
49.152000
70
192
0
VERTEX
8
OBJECT__15
10
5.453000
20
11.066000
30
48.481998
70
192
0
VERTEX
8
OBJECT__15
10
3.337000
20
6.044000
30
49.758999
70
192
0
VERTEX
8
OBJECT__15
10
4.082000
20
5.808000
30
49.556999
70
192
0
VERTEX
8
OBJECT__15
10
2.670000
20
2.250000
30
50.166000
70
192
0
VERTEX
8
OBJECT__15
10
3.392000
20
1.898000
30
49.973999
70
192
0
VERTEX
8
OBJECT__15
10
2.621000
20
1.976000
30
50.195999
70
192
0
VERTEX
8
OBJECT__15
10
2.540000
20
-0.628000
30
50.242001
70
192
0
VERTEX
8
OBJECT__15
10
3.342000
20
0.278000
30
50.002998
70
192
0
VERTEX
8
OBJECT__15
10
3.314000
20
-0.606000
30
50.019001
70
192
0
VERTEX
8
OBJECT__15
10
3.001000
20
-4.747000
30
49.949001
70
192
0
VERTEX
8
OBJECT__15
10
3.758000
20
-4.566000
30
49.737999
70
192
0
VERTEX
8
OBJECT__15
10
3.520000
20
-6.728000
30
49.625000
70
192
0
VERTEX
8
OBJECT__15
10
4.387000
20
-6.961000
30
49.349998
70
192
0
VERTEX
8
OBJECT__15
10
3.654000
20
-7.239000
30
49.542000
70
192
0
VERTEX
8
OBJECT__15
10
5.238000
20
-10.929000
30
48.573002
70
192
0
VERTEX
8
OBJECT__15
10
5.911000
20
-10.508000
30
48.425999
70
192
0
VERTEX
8
OBJECT__15
10
6.577000
20
-13.045000
30
47.776001
70
192
0
VERTEX
8
OBJECT__15
10
7.198000
20
-12.542000
30
47.666000
70
192
0
VERTEX
8
OBJECT__15
10
9.565000
20
-15.176000
30
46.323002
70
192
0
VERTEX
8
OBJECT__15
10
7.576000
20
-14.154000
30
47.203999
70
192
0
VERTEX
8
OBJECT__15
10
8.510000
20
-15.190000
30
46.669998
70
192
0
VERTEX
8
OBJECT__15
10
9.047000
20
-15.787000
30
46.362000
70
192
0
VERTEX
8
OBJECT__15
10
11.074000
20
-17.316000
30
45.266998
70
192
0
VERTEX
8
OBJECT__15
10
11.501000
20
-16.643999
30
45.284000
70
192
0
VERTEX
8
OBJECT__15
10
13.495000
20
-18.534000
30
44.046001
70
192
0
VERTEX
8
OBJECT__15
10
13.809000
20
-17.813000
30
44.126999
70
192
0
VERTEX
8
OBJECT__15
10
12.100000
20
-16.948000
30
44.984001
70
192
0
VERTEX
8
OBJECT__15
10
4.034000
20
8.193000
30
49.334000
70
192
0
VERTEX
8
OBJECT__15
10
7.008000
20
13.496000
30
47.564999
70
192
0
VERTEX
8
OBJECT__15
10
0
20
0
30
0
70
128
71
1
72
2
73
3
0
VERTEX
8
OBJECT__15
10
0
20
0
30
0
70
128
71
4
72
5
73
1
0
VERTEX
8
OBJECT__15
10
0
20
0
30
0
70
128
71
2
72
6
73
3
0
VERTEX
8
OBJECT__15
10
0
20
0
30
0
70
128
71
7
72
8
73
6
0
VERTEX
8
OBJECT__15
10
0
20
0
30
0
70
128
71
8
72
7
73
9
0
VERTEX
8
OBJECT__15
10
0
20
0
30
0
70
128
71
9
72
10
73
8
0
VERTEX
8
OBJECT__15
10
0
20
0
30
0
70
128
71
11
72
12
73
10
0
VERTEX
8
OBJECT__15
10
0
20
0
30
0
70
128
71
13
72
12
73
14
0
VERTEX
8
OBJECT__15
10
0
20
0
30
0
70
128
71
12
72
11
73
14
0
VERTEX
8
OBJECT__15
10
0
20
0
30
0
70
128
71
15
72
16
73
13
0
VERTEX
8
OBJECT__15
10
0
20
0
30
0
70
128
71
16
72
15
73
17
0
VERTEX
8
OBJECT__15
10
0
20
0
30
0
70
128
71
17
72
18
73
16
0
VERTEX
8
OBJECT__15
10
0
20
0
30
0
70
128
71
19
72
20
73
21
0
VERTEX
8
OBJECT__15
10
0
20
0
30
0
70
128
71
20
72
22
73
21
0
VERTEX
8
OBJECT__15
10
0
20
0
30
0
70
128
71
20
72
23
73
24
0
VERTEX
8
OBJECT__15
10
0
20
0
30
0
70
128
71
24
72
23
73
25
0
VERTEX
8
OBJECT__15
10
0
20
0
30
0
70
128
71
25
72
26
73
24
0
VERTEX
8
OBJECT__15
10
0
20
0
30
0
70
128
71
27
72
28
73
29
0
VERTEX
8
OBJECT__15
10
0
20
0
30
0
70
128
71
28
72
30
73
31
0
VERTEX
8
OBJECT__15
10
0
20
0
30
0
70
128
71
32
72
31
73
33
0
VERTEX
8
OBJECT__15
10
0
20
0
30
0
70
128
71
31
72
30
73
33
0
VERTEX
8
OBJECT__15
10
0
20
0
30
0
70
128
71
33
72
34
73
32
0
VERTEX
8
OBJECT__15
10
0
20
0
30
0
70
128
71
35
72
36
73
37
0
VERTEX
8
OBJECT__15
10
0
20
0
30
0
70
128
71
38
72
39
73
40
0
VERTEX
8
OBJECT__15
10
0
20
0
30
0
70
128
71
40
72
36
73
38
0
VERTEX
8
OBJECT__15
10
0
20
0
30
0
70
128
71
40
72
37
73
36
0
VERTEX
8
OBJECT__15
10
0
20
0
30
0
70
128
71
37
72
32
73
35
0
VERTEX
8
OBJECT__15
10
0
20
0
30
0
70
128
71
34
72
35
73
32
0
VERTEX
8
OBJECT__15
10
0
20
0
30
0
70
128
71
31
72
29
73
28
0
VERTEX
8
OBJECT__15
10
0
20
0
30
0
70
128
71
29
72
26
73
27
0
VERTEX
8
OBJECT__15
10
0
20
0
30
0
70
128
71
25
72
27
73
26
0
VERTEX
8
OBJECT__15
10
0
20
0
30
0
70
128
71
24
72
22
73
20
0
VERTEX
8
OBJECT__15
10
0
20
0
30
0
70
128
71
21
72
18
73
19
0
VERTEX
8
OBJECT__15
10
0
20
0
30
0
70
128
71
17
72
19
73
18
0
VERTEX
8
OBJECT__15
10
0
20
0
30
0
70
128
71
13
72
41
73
15
0
VERTEX
8
OBJECT__15
10
0
20
0
30
0
70
128
71
14
72
41
73
13
0
VERTEX
8
OBJECT__15
10
0
20
0
30
0
70
128
71
10
72
42
73
11
0
VERTEX
8
OBJECT__15
10
0
20
0
30
0
70
128
71
9
72
42
73
10
0
VERTEX
8
OBJECT__15
10
0
20
0
30
0
70
128
71
6
72
2
73
7
0
VERTEX
8
OBJECT__15
10
0
20
0
30
0
70
128
71
3
72
4
73
1
0
SEQEND
8
OBJECT__15
0
POLYLINE
8
OBJECT__16
66
1
70
64
71
3
72
1
62
253
0
VERTEX
8
OBJECT__16
10
14.862000
20
18.073999
30
43.674000
70
192
0
VERTEX
8
OBJECT__16
10
14.862000
20
19.253000
30
42.993999
70
192
0
VERTEX
8
OBJECT__16
10
14.599000
20
18.811001
30
43.567001
70
192
0
VERTEX
8
OBJECT__16
10
0
20
0
30
0
70
128
71
1
72
2
73
3
0
SEQEND
8
OBJECT__16
0
POLYLINE
8
OBJECT__17
66
1
70
64
71
166
72
181
62
253
0
VERTEX
8
OBJECT__17
10
22.527000
20
0.244000
30
40.500000
70
192
0
VERTEX
8
OBJECT__17
10
22.500000
20
-15.745000
30
40.535000
70
192
0
VERTEX
8
OBJECT__17
10
30.747999
20
-14.193000
30
37.810001
70
192
0
VERTEX
8
OBJECT__17
10
33.374001
20
0.231000
30
37.074001
70
192
0
VERTEX
8
OBJECT__17
10
33.358002
20
-13.813000
30
37.137001
70
192
0
VERTEX
8
OBJECT__17
10
43.366001
20
-12.358000
30
34.557999
70
192
0
VERTEX
8
OBJECT__17
10
44.403000
20
0.215000
30
34.332001
70
192
0
VERTEX
8
OBJECT__17
10
44.375999
20
-12.246000
30
34.356998
70
192
0
VERTEX
8
OBJECT__17
10
58.119999
20
-10.723000
30
31.634001
70
192
0
VERTEX
8
OBJECT__17
10
66.586998
20
0.192000
30
30.289000
70
192
0
VERTEX
8
OBJECT__17
10
89.041000
20
0.182000
30
27.808001
70
192
0
VERTEX
8
OBJECT__17
10
73.627998
20
-9.450000
30
29.330000
70
192
0
VERTEX
8
OBJECT__17
10
66.577003
20
-10.029000
30
30.378000
70
192
0
VERTEX
8
OBJECT__17
10
112.124001
20
0.133000
30
26.868000
70
192
0
VERTEX
8
OBJECT__17
10
96.070000
20
-8.329000
30
27.372999
70
192
0
VERTEX
8
OBJECT__17
10
89.061996
20
-8.590000
30
27.805000
70
192
0
VERTEX
8
OBJECT__17
10
134.365005
20
0.095000
30
26.777000
70
192
0
VERTEX
8
OBJECT__17
10
115.223000
20
-7.882000
30
26.827999
70
192
0
VERTEX
8
OBJECT__17
10
112.105003
20
-7.955000
30
26.917000
70
192
0
VERTEX
8
OBJECT__17
10
136.701996
20
-7.667000
30
26.756001
70
192
0
VERTEX
8
OBJECT__17
10
146.875000
20
-7.865000
30
26.600000
70
192
0
VERTEX
8
OBJECT__17
10
154.001007
20
0.062000
30
26.351999
70
192
0
VERTEX
8
OBJECT__17
10
134.345001
20
-7.690000
30
26.764000
70
192
0
VERTEX
8
OBJECT__17
10
159.843002
20
0.063000
30
25.941999
70
192
0
VERTEX
8
OBJECT__17
10
154.102005
20
-8.059000
30
26.346001
70
192
0
VERTEX
8
OBJECT__17
10
162.757004
20
-1.540000
30
25.587000
70
192
0
VERTEX
8
OBJECT__17
10
162.750000
20
-1.414000
30
25.587999
70
192
0
VERTEX
8
OBJECT__17
10
159.819000
20
-8.216000
30
25.917999
70
192
0
VERTEX
8
OBJECT__17
10
162.873993
20
-2.056000
30
25.570000
70
192
0
VERTEX
8
OBJECT__17
10
163.979996
20
-4.522000
30
25.392000
70
192
0
VERTEX
8
OBJECT__17
10
160.638000
20
-8.239000
30
25.856001
70
192
0
VERTEX
8
OBJECT__17
10
165.516006
20
-8.375000
30
25.038000
70
192
0
VERTEX
8
OBJECT__17
10
165.531006
20
-6.247000
30
25.096001
70
192
0
VERTEX
8
OBJECT__17
10
165.522995
20
-6.241000
30
25.097000
70
192
0
VERTEX
8
OBJECT__17
10
165.414001
20
-6.151000
30
25.120001
70
192
0
VERTEX
8
OBJECT__17
10
163.701996
20
-4.074000
30
25.438999
70
192
0
VERTEX
8
OBJECT__17
10
165.817001
20
-6.480000
30
25.035000
70
192
0
VERTEX
8
OBJECT__17
10
166.604004
20
-8.406000
30
24.856001
70
192
0
VERTEX
8
OBJECT__17
10
168.531998
20
-8.463000
30
24.343000
70
192
0
VERTEX
8
OBJECT__17
10
168.158997
20
-7.724000
30
24.452000
70
192
0
VERTEX
8
OBJECT__17
10
171.014999
20
-8.546000
30
23.386999
70
192
0
VERTEX
8
OBJECT__17
10
170.259995
20
-8.135000
30
23.781000
70
192
0
VERTEX
8
OBJECT__17
10
171.050003
20
-8.111000
30
23.476999
70
192
0
VERTEX
8
OBJECT__17
10
170.759995
20
-8.150000
30
23.598000
70
192
0
VERTEX
8
OBJECT__17
10
167.686996
20
-7.548000
30
24.583000
70
192
0
VERTEX
8
OBJECT__17
10
173.382004
20
-8.625000
30
22.475000
70
192
0
VERTEX
8
OBJECT__17
10
172.903000
20
-7.863000
30
22.702999
70
192
0
VERTEX
8
OBJECT__17
10
176.263000
20
-8.735000
30
20.858999
70
192
0
VERTEX
8
OBJECT__17
10
175.572998
20
-6.577000
30
21.306999
70
192
0
VERTEX
8
OBJECT__17
10
173.645996
20
-7.622000
30
22.347000
70
192
0
VERTEX
8
OBJECT__17
10
176.113007
20
-6.145000
30
20.982000
70
192
0
VERTEX
8
OBJECT__17
10
175.996002
20
-6.239000
30
21.052999
70
192
0
VERTEX
8
OBJECT__17
10
176.278000
20
-5.959000
30
20.874001
70
192
0
VERTEX
8
OBJECT__17
10
180.220001
20
-8.903000
30
17.867001
70
192
0
VERTEX
8
OBJECT__17
10
177.501007
20
-4.581000
30
20.070000
70
192
0
VERTEX
8
OBJECT__17
10
176.606003
20
-8.748000
30
20.666000
70
192
0
VERTEX
8
OBJECT__17
10
180.792999
20
-8.931000
30
17.221001
70
192
0
VERTEX
8
OBJECT__17
10
178.016006
20
-3.711000
30
19.700001
70
192
0
VERTEX
8
OBJECT__17
10
180.867996
20
0.043000
30
17.267000
70
192
0
VERTEX
8
OBJECT__17
10
178.766998
20
-1.521000
30
19.129999
70
192
0
VERTEX
8
OBJECT__17
10
178.695999
20
-1.855000
30
19.184999
70
192
0
VERTEX
8
OBJECT__17
10
178.873993
20
0.051000
30
19.047001
70
192
0
VERTEX
8
OBJECT__17
10
178.774002
20
-1.414000
30
19.124001
70
192
0
VERTEX
8
OBJECT__17
10
183.216995
20
-9.050000
30
14.494000
70
192
0
VERTEX
8
OBJECT__17
10
184.412994
20
0.026000
30
12.680000
70
192
0
VERTEX
8
OBJECT__17
10
186.707001
20
0.015000
30
7.238000
70
192
0
VERTEX
8
OBJECT__17
10
185.451004
20
-9.183000
30
10.577000
70
192
0
VERTEX
8
OBJECT__17
10
184.285004
20
-9.114000
30
12.621000
70
192
0
VERTEX
8
OBJECT__17
10
188.031006
20
0.011000
30
1.369000
70
192
0
VERTEX
8
OBJECT__17
10
186.748993
20
-9.277000
30
7.017000
70
192
0
VERTEX
8
OBJECT__17
10
186.669998
20
-9.271000
30
7.233000
70
192
0
VERTEX
8
OBJECT__17
10
188.070999
20
-9.397000
30
0.957000
70
192
0
VERTEX
8
OBJECT__17
10
189.104996
20
-9.537000
30
-8.955000
70
192
0
VERTEX
8
OBJECT__17
10
187.983002
20
-9.389000
30
1.363000
70
192
0
VERTEX
8
OBJECT__17
10
189.190002
20
0.029000
30
-9.908000
70
192
0
VERTEX
8
OBJECT__17
10
189.147003
20
-9.548000
30
-9.905000
70
192
0
VERTEX
8
OBJECT__17
10
189.442993
20
-9.628000
30
-16.653000
70
192
0
VERTEX
8
OBJECT__17
10
189.509003
20
-3.098000
30
-18.500999
70
192
0
VERTEX
8
OBJECT__17
10
189.492004
20
-9.649000
30
-18.518000
70
192
0
VERTEX
8
OBJECT__17
10
189.160995
20
9.618000
30
-9.914000
70
192
0
VERTEX
8
OBJECT__17
10
189.526001
20
3.343000
30
-18.483999
70
192
0
VERTEX
8
OBJECT__17
10
189.516998
20
0.064000
30
-18.492001
70
192
0
VERTEX
8
OBJECT__17
10
189.052994
20
9.571000
30
-7.493000
70
192
0
VERTEX
8
OBJECT__17
10
188.048004
20
9.419000
30
1.415000
70
192
0
VERTEX
8
OBJECT__17
10
186.722000
20
9.310000
30
7.237000
70
192
0
VERTEX
8
OBJECT__17
10
186.692001
20
9.307000
30
7.370000
70
192
0
VERTEX
8
OBJECT__17
10
185.266998
20
9.220000
30
11.087000
70
192
0
VERTEX
8
OBJECT__17
10
182.945007
20
9.108000
30
14.927000
70
192
0
VERTEX
8
OBJECT__17
10
184.339005
20
9.175000
30
12.621000
70
192
0
VERTEX
8
OBJECT__17
10
178.863007
20
0.873000
30
19.058001
70
192
0
VERTEX
8
OBJECT__17
10
178.899002
20
0.418000
30
19.028000
70
192
0
VERTEX
8
OBJECT__17
10
180.828995
20
9.025000
30
17.208000
70
192
0
VERTEX
8
OBJECT__17
10
178.363998
20
2.932000
30
19.452000
70
192
0
VERTEX
8
OBJECT__17
10
177.319000
20
4.838000
30
20.214001
70
192
0
VERTEX
8
OBJECT__17
10
177.755997
20
4.041000
30
19.895000
70
192
0
VERTEX
8
OBJECT__17
10
179.947006
20
8.990000
30
18.158001
70
192
0
VERTEX
8
OBJECT__17
10
176.317001
20
8.861000
30
20.872000
70
192
0
VERTEX
8
OBJECT__17
10
176.304993
20
5.887000
30
20.868000
70
192
0
VERTEX
8
OBJECT__17
10
175.533005
20
6.606000
30
21.351999
70
192
0
VERTEX
8
OBJECT__17
10
176.257004
20
8.859000
30
20.917999
70
192
0
VERTEX
8
OBJECT__17
10
173.612000
20
7.635000
30
22.384001
70
192
0
VERTEX
8
OBJECT__17
10
175.819000
20
6.390000
30
21.181999
70
192
0
VERTEX
8
OBJECT__17
10
173.078003
20
8.754000
30
22.642000
70
192
0
VERTEX
8
OBJECT__17
10
173.546997
20
7.656000
30
22.415001
70
192
0
VERTEX
8
OBJECT__17
10
172.901001
20
7.864000
30
22.722000
70
192
0
VERTEX
8
OBJECT__17
10
171.063004
20
8.691000
30
23.389000
70
192
0
VERTEX
8
OBJECT__17
10
171.093002
20
8.109000
30
23.476000
70
192
0
VERTEX
8
OBJECT__17
10
168.184006
20
8.601000
30
24.457001
70
192
0
VERTEX
8
OBJECT__17
10
169.819000
20
8.096000
30
23.948999
70
192
0
VERTEX
8
OBJECT__17
10
170.789993
20
8.150000
30
23.603001
70
192
0
VERTEX
8
OBJECT__17
10
167.979004
20
7.632000
30
24.507000
70
192
0
VERTEX
8
OBJECT__17
10
167.332993
20
8.575000
30
24.687000
70
192
0
VERTEX
8
OBJECT__17
10
167.753006
20
7.575000
30
24.576000
70
192
0
VERTEX
8
OBJECT__17
10
165.554993
20
8.522000
30
25.011999
70
192
0
VERTEX
8
OBJECT__17
10
166.994995
20
7.228000
30
24.771000
70
192
0
VERTEX
8
OBJECT__17
10
165.561996
20
6.221000
30
25.090000
70
192
0
VERTEX
8
OBJECT__17
10
161.363998
20
8.396000
30
25.777000
70
192
0
VERTEX
8
OBJECT__17
10
165.231003
20
5.987000
30
25.164000
70
192
0
VERTEX
8
OBJECT__17
10
164.785004
20
5.542000
30
25.250999
70
192
0
VERTEX
8
OBJECT__17
10
163.733994
20
4.052000
30
25.434999
70
192
0
VERTEX
8
OBJECT__17
10
159.862000
20
8.353000
30
25.900000
70
192
0
VERTEX
8
OBJECT__17
10
163.531006
20
3.764000
30
25.469999
70
192
0
VERTEX
8
OBJECT__17
10
163.294998
20
3.269000
30
25.507999
70
192
0
VERTEX
8
OBJECT__17
10
162.694000
20
1.170000
30
25.597000
70
192
0
VERTEX
8
OBJECT__17
10
162.634995
20
0.642000
30
25.606001
70
192
0
VERTEX
8
OBJECT__17
10
162.667007
20
0.066000
30
25.601000
70
192
0
VERTEX
8
OBJECT__17
10
154.811005
20
8.209000
30
26.311001
70
192
0
VERTEX
8
OBJECT__17
10
147.542007
20
8.029000
30
26.584999
70
192
0
VERTEX
8
OBJECT__17
10
154.022003
20
8.189000
30
26.341000
70
192
0
VERTEX
8
OBJECT__17
10
137.600006
20
7.863000
30
26.747000
70
192
0
VERTEX
8
OBJECT__17
10
134.386002
20
7.902000
30
26.757999
70
192
0
VERTEX
8
OBJECT__17
10
116.209999
20
8.118000
30
26.819000
70
192
0
VERTEX
8
OBJECT__17
10
112.148003
20
8.230000
30
26.927999
70
192
0
VERTEX
8
OBJECT__17
10
96.736000
20
8.654000
30
27.341999
70
192
0
VERTEX
8
OBJECT__17
10
90.650002
20
8.892000
30
27.695999
70
192
0
VERTEX
8
OBJECT__17
10
89.068001
20
8.978000
30
27.844999
70
192
0
VERTEX
8
OBJECT__17
10
75.109001
20
9.740000
30
29.156000
70
192
0
VERTEX
8
OBJECT__17
10
59.442001
20
11.006000
30
31.419001
70
192
0
VERTEX
8
OBJECT__17
10
66.630997
20
10.425000
30
30.379999
70
192
0
VERTEX
8
OBJECT__17
10
45.139999
20
12.583000
30
34.174999
70
192
0
VERTEX
8
OBJECT__17
10
44.442001
20
12.684000
30
34.349998
70
192
0
VERTEX
8
OBJECT__17
10
32.235001
20
14.441000
30
37.403999
70
192
0
VERTEX
8
OBJECT__17
10
33.422001
20
14.270000
30
37.106998
70
192
0
VERTEX
8
OBJECT__17
10
12.139000
20
0.259000
30
44.978001
70
192
0
VERTEX
8
OBJECT__17
10
22.676001
20
16.202999
30
40.460999
70
192
0
VERTEX
8
OBJECT__17
10
14.862000
20
18.073999
30
43.674000
70
192
0
VERTEX
8
OBJECT__17
10
4.082000
20
5.808000
30
49.556999
70
192
0
VERTEX
8
OBJECT__17
10
3.392000
20
1.898000
30
49.973999
70
192
0
VERTEX
8
OBJECT__17
10
4.753000
20
7.873000
30
49.152000
70
192
0
VERTEX
8
OBJECT__17
10
6.456000
20
11.320000
30
48.138000
70
192
0
VERTEX
8
OBJECT__17
10
12.188000
20
16.903000
30
44.983002
70
192
0
VERTEX
8
OBJECT__17
10
11.860000
20
16.760000
30
45.144001
70
192
0
VERTEX
8
OBJECT__17
10
10.101000
20
15.525000
30
46.074001
70
192
0
VERTEX
8
OBJECT__17
10
7.611000
20
12.971000
30
47.466000
70
192
0
VERTEX
8
OBJECT__17
10
7.198000
20
-12.542000
30
47.666000
70
192
0
VERTEX
8
OBJECT__17
10
9.565000
20
-15.176000
30
46.323002
70
192
0
VERTEX
8
OBJECT__17
10
5.911000
20
-10.508000
30
48.425999
70
192
0
VERTEX
8
OBJECT__17
10
4.387000
20
-6.961000
30
49.349998
70
192
0
VERTEX
8
OBJECT__17
10
3.342000
20
0.278000
30
50.002998
70
192
0
VERTEX
8
OBJECT__17
10
3.314000
20
-0.606000
30
50.019001
70
192
0
VERTEX
8
OBJECT__17
10
3.758000
20
-4.566000
30
49.737999
70
192
0
VERTEX
8
OBJECT__17
10
11.501000
20
-16.643999
30
45.284000
70
192
0
VERTEX
8
OBJECT__17
10
13.809000
20
-17.813000
30
44.126999
70
192
0
VERTEX
8
OBJECT__17
10
21.469999
20
-15.939000
30
40.875000
70
192
0
VERTEX
8
OBJECT__17
10
12.100000
20
-16.948000
30
44.984001
70
192
0
VERTEX
8
OBJECT__17
10
189.542999
20
9.784000
30
-18.466999
70
192
0
VERTEX
8
OBJECT__17
10
0
20
0
30
0
70
128
71
1
72
2
73
3
0
VERTEX
8
OBJECT__17
10
0
20
0
30
0
70
128
71
3
72
4
73
1
0
VERTEX
8
OBJECT__17
10
0
20
0
30
0
70
128
71
4
72
5
73
6
0
VERTEX
8
OBJECT__17
10
0
20
0
30
0
70
128
71
6
72
7
73
4
0
VERTEX
8
OBJECT__17
10
0
20
0
30
0
70
128
71
7
72
8
73
9
0
VERTEX
8
OBJECT__17
10
0
20
0
30
0
70
128
71
9
72
10
73
7
0
VERTEX
8
OBJECT__17
10
0
20
0
30
0
70
128
71
11
72
10
73
12
0
VERTEX
8
OBJECT__17
10
0
20
0
30
0
70
128
71
10
72
13
73
12
0
VERTEX
8
OBJECT__17
10
0
20
0
30
0
70
128
71
14
72
11
73
15
0
VERTEX
8
OBJECT__17
10
0
20
0
30
0
70
128
71
11
72
16
73
15
0
VERTEX
8
OBJECT__17
10
0
20
0
30
0
70
128
71
17
72
14
73
18
0
VERTEX
8
OBJECT__17
10
0
20
0
30
0
70
128
71
14
72
19
73
18
0
VERTEX
8
OBJECT__17
10
0
20
0
30
0
70
128
71
17
72
20
73
21
0
VERTEX
8
OBJECT__17
10
0
20
0
30
0
70
128
71
21
72
22
73
17
0
VERTEX
8
OBJECT__17
10
0
20
0
30
0
70
128
71
17
72
23
73
20
0
VERTEX
8
OBJECT__17
10
0
20
0
30
0
70
128
71
24
72
22
73
25
0
VERTEX
8
OBJECT__17
10
0
20
0
30
0
70
128
71
24
72
26
73
27
0
VERTEX
8
OBJECT__17
10
0
20
0
30
0
70
128
71
24
72
28
73
29
0
VERTEX
8
OBJECT__17
10
0
20
0
30
0
70
128
71
30
72
28
73
31
0
VERTEX
8
OBJECT__17
10
0
20
0
30
0
70
128
71
31
72
32
73
33
0
VERTEX
8
OBJECT__17
10
0
20
0
30
0
70
128
71
33
72
34
73
31
0
VERTEX
8
OBJECT__17
10
0
20
0
30
0
70
128
71
34
72
35
73
31
0
VERTEX
8
OBJECT__17
10
0
20
0
30
0
70
128
71
31
72
35
73
30
0
VERTEX
8
OBJECT__17
10
0
20
0
30
0
70
128
71
30
72
36
73
28
0
VERTEX
8
OBJECT__17
10
0
20
0
30
0
70
128
71
36
72
29
73
28
0
VERTEX
8
OBJECT__17
10
0
20
0
30
0
70
128
71
29
72
26
73
24
0
VERTEX
8
OBJECT__17
10
0
20
0
30
0
70
128
71
37
72
32
73
38
0
VERTEX
8
OBJECT__17
10
0
20
0
30
0
70
128
71
38
72
39
73
40
0
VERTEX
8
OBJECT__17
10
0
20
0
30
0
70
128
71
39
72
41
73
42
0
VERTEX
8
OBJECT__17
10
0
20
0
30
0
70
128
71
41
72
43
73
44
0
VERTEX
8
OBJECT__17
10
0
20
0
30
0
70
128
71
44
72
42
73
41
0
VERTEX
8
OBJECT__17
10
0
20
0
30
0
70
128
71
42
72
40
73
39
0
VERTEX
8
OBJECT__17
10
0
20
0
30
0
70
128
71
40
72
45
73
38
0
VERTEX
8
OBJECT__17
10
0
20
0
30
0
70
128
71
38
72
45
73
37
0
VERTEX
8
OBJECT__17
10
0
20
0
30
0
70
128
71
41
72
46
73
47
0
VERTEX
8
OBJECT__17
10
0
20
0
30
0
70
128
71
48
72
49
73
50
0
VERTEX
8
OBJECT__17
10
0
20
0
30
0
70
128
71
48
72
51
73
52
0
VERTEX
8
OBJECT__17
10
0
20
0
30
0
70
128
71
52
72
49
73
48
0
VERTEX
8
OBJECT__17
10
0
20
0
30
0
70
128
71
48
72
53
73
51
0
VERTEX
8
OBJECT__17
10
0
20
0
30
0
70
128
71
50
72
46
73
48
0
VERTEX
8
OBJECT__17
10
0
20
0
30
0
70
128
71
50
72
47
73
46
0
VERTEX
8
OBJECT__17
10
0
20
0
30
0
70
128
71
54
72
55
73
53
0
VERTEX
8
OBJECT__17
10
0
20
0
30
0
70
128
71
53
72
56
73
54
0
VERTEX
8
OBJECT__17
10
0
20
0
30
0
70
128
71
53
72
48
73
56
0
VERTEX
8
OBJECT__17
10
0
20
0
30
0
70
128
71
57
72
58
73
55
0
VERTEX
8
OBJECT__17
10
0
20
0
30
0
70
128
71
59
72
60
73
61
0
VERTEX
8
OBJECT__17
10
0
20
0
30
0
70
128
71
61
72
57
73
59
0
VERTEX
8
OBJECT__17
10
0
20
0
30
0
70
128
71
59
72
62
73
63
0
VERTEX
8
OBJECT__17
10
0
20
0
30
0
70
128
71
63
72
60
73
59
0
VERTEX
8
OBJECT__17
10
0
20
0
30
0
70
128
71
61
72
58
73
57
0
VERTEX
8
OBJECT__17
10
0
20
0
30
0
70
128
71
59
72
57
73
64
0
VERTEX
8
OBJECT__17
10
0
20
0
30
0
70
128
71
64
72
65
73
59
0
VERTEX
8
OBJECT__17
10
0
20
0
30
0
70
128
71
66
72
65
73
67
0
VERTEX
8
OBJECT__17
10
0
20
0
30
0
70
128
71
65
72
68
73
67
0
VERTEX
8
OBJECT__17
10
0
20
0
30
0
70
128
71
69
72
66
73
70
0
VERTEX
8
OBJECT__17
10
0
20
0
30
0
70
128
71
66
72
71
73
70
0
VERTEX
8
OBJECT__17
10
0
20
0
30
0
70
128
71
69
72
72
73
73
0
VERTEX
8
OBJECT__17
10
0
20
0
30
0
70
128
71
69
72
74
73
72
0
VERTEX
8
OBJECT__17
10
0
20
0
30
0
70
128
71
73
72
75
73
69
0
VERTEX
8
OBJECT__17
10
0
20
0
30
0
70
128
71
75
72
76
73
77
0
VERTEX
8
OBJECT__17
10
0
20
0
30
0
70
128
71
77
72
78
73
75
0
VERTEX
8
OBJECT__17
10
0
20
0
30
0
70
128
71
77
72
79
73
78
0
VERTEX
8
OBJECT__17
10
0
20
0
30
0
70
128
71
80
72
75
73
81
0
VERTEX
8
OBJECT__17
10
0
20
0
30
0
70
128
71
75
72
82
73
81
0
VERTEX
8
OBJECT__17
10
0
20
0
30
0
70
128
71
69
72
75
73
83
0
VERTEX
8
OBJECT__17
10
0
20
0
30
0
70
128
71
75
72
80
73
83
0
VERTEX
8
OBJECT__17
10
0
20
0
30
0
70
128
71
69
72
84
73
85
0
VERTEX
8
OBJECT__17
10
0
20
0
30
0
70
128
71
66
72
86
73
87
0
VERTEX
8
OBJECT__17
10
0
20
0
30
0
70
128
71
87
72
65
73
66
0
VERTEX
8
OBJECT__17
10
0
20
0
30
0
70
128
71
66
72
85
73
86
0
VERTEX
8
OBJECT__17
10
0
20
0
30
0
70
128
71
59
72
65
73
88
0
VERTEX
8
OBJECT__17
10
0
20
0
30
0
70
128
71
65
72
89
73
88
0
VERTEX
8
OBJECT__17
10
0
20
0
30
0
70
128
71
59
72
90
73
91
0
VERTEX
8
OBJECT__17
10
0
20
0
30
0
70
128
71
59
72
92
73
93
0
VERTEX
8
OBJECT__17
10
0
20
0
30
0
70
128
71
93
72
90
73
59
0
VERTEX
8
OBJECT__17
10
0
20
0
30
0
70
128
71
92
72
94
73
95
0
VERTEX
8
OBJECT__17
10
0
20
0
30
0
70
128
71
96
72
97
73
98
0
VERTEX
8
OBJECT__17
10
0
20
0
30
0
70
128
71
94
72
92
73
96
0
VERTEX
8
OBJECT__17
10
0
20
0
30
0
70
128
71
98
72
94
73
96
0
VERTEX
8
OBJECT__17
10
0
20
0
30
0
70
128
71
95
72
93
73
92
0
VERTEX
8
OBJECT__17
10
0
20
0
30
0
70
128
71
99
72
97
73
100
0
VERTEX
8
OBJECT__17
10
0
20
0
30
0
70
128
71
100
72
101
73
99
0
VERTEX
8
OBJECT__17
10
0
20
0
30
0
70
128
71
99
72
102
73
97
0
VERTEX
8
OBJECT__17
10
0
20
0
30
0
70
128
71
103
72
104
73
101
0
VERTEX
8
OBJECT__17
10
0
20
0
30
0
70
128
71
103
72
105
73
104
0
VERTEX
8
OBJECT__17
10
0
20
0
30
0
70
128
71
101
72
100
73
103
0
VERTEX
8
OBJECT__17
10
0
20
0
30
0
70
128
71
103
72
106
73
107
0
VERTEX
8
OBJECT__17
10
0
20
0
30
0
70
128
71
107
72
105
73
103
0
VERTEX
8
OBJECT__17
10
0
20
0
30
0
70
128
71
106
72
108
73
109
0
VERTEX
8
OBJECT__17
10
0
20
0
30
0
70
128
71
109
72
110
73
106
0
VERTEX
8
OBJECT__17
10
0
20
0
30
0
70
128
71
111
72
109
73
108
0
VERTEX
8
OBJECT__17
10
0
20
0
30
0
70
128
71
112
72
113
73
111
0
VERTEX
8
OBJECT__17
10
0
20
0
30
0
70
128
71
112
72
114
73
115
0
VERTEX
8
OBJECT__17
10
0
20
0
30
0
70
128
71
115
72
113
73
112
0
VERTEX
8
OBJECT__17
10
0
20
0
30
0
70
128
71
108
72
112
73
111
0
VERTEX
8
OBJECT__17
10
0
20
0
30
0
70
128
71
114
72
116
73
115
0
VERTEX
8
OBJECT__17
10
0
20
0
30
0
70
128
71
117
72
118
73
116
0
VERTEX
8
OBJECT__17
10
0
20
0
30
0
70
128
71
117
72
119
73
118
0
VERTEX
8
OBJECT__17
10
0
20
0
30
0
70
128
71
120
72
119
73
117
0
VERTEX
8
OBJECT__17
10
0
20
0
30
0
70
128
71
121
72
122
73
120
0
VERTEX
8
OBJECT__17
10
0
20
0
30
0
70
128
71
121
72
123
73
122
0
VERTEX
8
OBJECT__17
10
0
20
0
30
0
70
128
71
24
72
124
73
123
0
VERTEX
8
OBJECT__17
10
0
20
0
30
0
70
128
71
24
72
125
73
124
0
VERTEX
8
OBJECT__17
10
0
20
0
30
0
70
128
71
24
72
126
73
125
0
VERTEX
8
OBJECT__17
10
0
20
0
30
0
70
128
71
123
72
121
73
24
0
VERTEX
8
OBJECT__17
10
0
20
0
30
0
70
128
71
117
72
121
73
120
0
VERTEX
8
OBJECT__17
10
0
20
0
30
0
70
128
71
24
72
121
73
127
0
VERTEX
8
OBJECT__17
10
0
20
0
30
0
70
128
71
127
72
22
73
24
0
VERTEX
8
OBJECT__17
10
0
20
0
30
0
70
128
71
17
72
22
73
128
0
VERTEX
8
OBJECT__17
10
0
20
0
30
0
70
128
71
22
72
129
73
128
0
VERTEX
8
OBJECT__17
10
0
20
0
30
0
70
128
71
128
72
130
73
17
0
VERTEX
8
OBJECT__17
10
0
20
0
30
0
70
128
71
17
72
131
73
132
0
VERTEX
8
OBJECT__17
10
0
20
0
30
0
70
128
71
132
72
14
73
17
0
VERTEX
8
OBJECT__17
10
0
20
0
30
0
70
128
71
14
72
133
73
134
0
VERTEX
8
OBJECT__17
10
0
20
0
30
0
70
128
71
134
72
11
73
14
0
VERTEX
8
OBJECT__17
10
0
20
0
30
0
70
128
71
134
72
135
73
11
0
VERTEX
8
OBJECT__17
10
0
20
0
30
0
70
128
71
11
72
136
73
137
0
VERTEX
8
OBJECT__17
10
0
20
0
30
0
70
128
71
137
72
10
73
11
0
VERTEX
8
OBJECT__17
10
0
20
0
30
0
70
128
71
7
72
10
73
138
0
VERTEX
8
OBJECT__17
10
0
20
0
30
0
70
128
71
10
72
139
73
138
0
VERTEX
8
OBJECT__17
10
0
20
0
30
0
70
128
71
138
72
140
73
7
0
VERTEX
8
OBJECT__17
10
0
20
0
30
0
70
128
71
4
72
7
73
141
0
VERTEX
8
OBJECT__17
10
0
20
0
30
0
70
128
71
1
72
4
73
142
0
VERTEX
8
OBJECT__17
10
0
20
0
30
0
70
128
71
4
72
143
73
142
0
VERTEX
8
OBJECT__17
10
0
20
0
30
0
70
128
71
144
72
1
73
145
0
VERTEX
8
OBJECT__17
10
0
20
0
30
0
70
128
71
145
72
146
73
144
0
VERTEX
8
OBJECT__17
10
0
20
0
30
0
70
128
71
144
72
147
73
148
0
VERTEX
8
OBJECT__17
10
0
20
0
30
0
70
128
71
144
72
149
73
147
0
VERTEX
8
OBJECT__17
10
0
20
0
30
0
70
128
71
144
72
150
73
149
0
VERTEX
8
OBJECT__17
10
0
20
0
30
0
70
128
71
144
72
151
73
152
0
VERTEX
8
OBJECT__17
10
0
20
0
30
0
70
128
71
152
72
153
73
144
0
VERTEX
8
OBJECT__17
10
0
20
0
30
0
70
128
71
153
72
154
73
144
0
VERTEX
8
OBJECT__17
10
0
20
0
30
0
70
128
71
154
72
150
73
144
0
VERTEX
8
OBJECT__17
10
0
20
0
30
0
70
128
71
144
72
155
73
156
0
VERTEX
8
OBJECT__17
10
0
20
0
30
0
70
128
71
144
72
157
73
155
0
VERTEX
8
OBJECT__17
10
0
20
0
30
0
70
128
71
144
72
158
73
157
0
VERTEX
8
OBJECT__17
10
0
20
0
30
0
70
128
71
144
72
159
73
160
0
VERTEX
8
OBJECT__17
10
0
20
0
30
0
70
128
71
160
72
161
73
144
0
VERTEX
8
OBJECT__17
10
0
20
0
30
0
70
128
71
161
72
158
73
144
0
VERTEX
8
OBJECT__17
10
0
20
0
30
0
70
128
71
156
72
162
73
144
0
VERTEX
8
OBJECT__17
10
0
20
0
30
0
70
128
71
144
72
163
73
164
0
VERTEX
8
OBJECT__17
10
0
20
0
30
0
70
128
71
144
72
165
73
163
0
VERTEX
8
OBJECT__17
10
0
20
0
30
0
70
128
71
164
72
1
73
144
0
VERTEX
8
OBJECT__17
10
0
20
0
30
0
70
128
71
164
72
2
73
1
0
VERTEX
8
OBJECT__17
10
0
20
0
30
0
70
128
71
162
72
165
73
144
0
VERTEX
8
OBJECT__17
10
0
20
0
30
0
70
128
71
148
72
159
73
144
0
VERTEX
8
OBJECT__17
10
0
20
0
30
0
70
128
71
146
72
151
73
144
0
VERTEX
8
OBJECT__17
10
0
20
0
30
0
70
128
71
142
72
145
73
1
0
VERTEX
8
OBJECT__17
10
0
20
0
30
0
70
128
71
141
72
143
73
4
0
VERTEX
8
OBJECT__17
10
0
20
0
30
0
70
128
71
140
72
141
73
7
0
VERTEX
8
OBJECT__17
10
0
20
0
30
0
70
128
71
137
72
139
73
10
0
VERTEX
8
OBJECT__17
10
0
20
0
30
0
70
128
71
135
72
136
73
11
0
VERTEX
8
OBJECT__17
10
0
20
0
30
0
70
128
71
132
72
133
73
14
0
VERTEX
8
OBJECT__17
10
0
20
0
30
0
70
128
71
130
72
131
73
17
0
VERTEX
8
OBJECT__17
10
0
20
0
30
0
70
128
71
127
72
129
73
22
0
VERTEX
8
OBJECT__17
10
0
20
0
30
0
70
128
71
116
72
114
73
117
0
VERTEX
8
OBJECT__17
10
0
20
0
30
0
70
128
71
110
72
107
73
106
0
VERTEX
8
OBJECT__17
10
0
20
0
30
0
70
128
71
102
72
98
73
97
0
VERTEX
8
OBJECT__17
10
0
20
0
30
0
70
128
71
91
72
62
73
59
0
VERTEX
8
OBJECT__17
10
0
20
0
30
0
70
128
71
88
72
92
73
59
0
VERTEX
8
OBJECT__17
10
0
20
0
30
0
70
128
71
87
72
89
73
65
0
VERTEX
8
OBJECT__17
10
0
20
0
30
0
70
128
71
85
72
66
73
69
0
VERTEX
8
OBJECT__17
10
0
20
0
30
0
70
128
71
83
72
84
73
69
0
VERTEX
8
OBJECT__17
10
0
20
0
30
0
70
128
71
81
72
166
73
80
0
VERTEX
8
OBJECT__17
10
0
20
0
30
0
70
128
71
78
72
82
73
75
0
VERTEX
8
OBJECT__17
10
0
20
0
30
0
70
128
71
73
72
76
73
75
0
VERTEX
8
OBJECT__17
10
0
20
0
30
0
70
128
71
70
72
74
73
69
0
VERTEX
8
OBJECT__17
10
0
20
0
30
0
70
128
71
67
72
71
73
66
0
VERTEX
8
OBJECT__17
10
0
20
0
30
0
70
128
71
64
72
68
73
65
0
VERTEX
8
OBJECT__17
10
0
20
0
30
0
70
128
71
54
72
57
73
55
0
VERTEX
8
OBJECT__17
10
0
20
0
30
0
70
128
71
47
72
43
73
41
0
VERTEX
8
OBJECT__17
10
0
20
0
30
0
70
128
71
37
72
33
73
32
0
VERTEX
8
OBJECT__17
10
0
20
0
30
0
70
128
71
27
72
126
73
24
0
VERTEX
8
OBJECT__17
10
0
20
0
30
0
70
128
71
25
72
28
73
24
0
VERTEX
8
OBJECT__17
10
0
20
0
30
0
70
128
71
21
72
25
73
22
0
VERTEX
8
OBJECT__17
10
0
20
0
30
0
70
128
71
18
72
23
73
17
0
VERTEX
8
OBJECT__17
10
0
20
0
30
0
70
128
71
15
72
19
73
14
0
VERTEX
8
OBJECT__17
10
0
20
0
30
0
70
128
71
12
72
16
73
11
0
VERTEX
8
OBJECT__17
10
0
20
0
30
0
70
128
71
9
72
13
73
10
0
VERTEX
8
OBJECT__17
10
0
20
0
30
0
70
128
71
6
72
8
73
7
0
VERTEX
8
OBJECT__17
10
0
20
0
30
0
70
128
71
3
72
5
73
4
0
SEQEND
8
OBJECT__17
0
POLYLINE
8
OBJECT__18
66
1
70
64
71
62
72
63
62
253
0
VERTEX
8
OBJECT__18
10
170.759995
20
-8.150000
30
15.619000
70
192
0
VERTEX
8
OBJECT__18
10
175.572998
20
-6.577000
30
21.306999
70
192
0
VERTEX
8
OBJECT__18
10
175.996002
20
-6.239000
30
21.052999
70
192
0
VERTEX
8
OBJECT__18
10
171.050003
20
-8.111000
30
23.476999
70
192
0
VERTEX
8
OBJECT__18
10
172.903000
20
-7.863000
30
22.702999
70
192
0
VERTEX
8
OBJECT__18
10
173.645996
20
-7.622000
30
22.347000
70
192
0
VERTEX
8
OBJECT__18
10
170.759995
20
-8.150000
30
23.598000
70
192
0
VERTEX
8
OBJECT__18
10
178.785995
20
-1.415000
30
15.619000
70
192
0
VERTEX
8
OBJECT__18
10
175.998993
20
-6.243000
30
15.619000
70
192
0
VERTEX
8
OBJECT__18
10
178.016006
20
-3.711000
30
19.700001
70
192
0
VERTEX
8
OBJECT__18
10
178.695999
20
-1.855000
30
19.184999
70
192
0
VERTEX
8
OBJECT__18
10
176.113007
20
-6.145000
30
20.982000
70
192
0
VERTEX
8
OBJECT__18
10
176.278000
20
-5.959000
30
20.874001
70
192
0
VERTEX
8
OBJECT__18
10
177.501007
20
-4.581000
30
20.070000
70
192
0
VERTEX
8
OBJECT__18
10
178.766998
20
-1.521000
30
19.129999
70
192
0
VERTEX
8
OBJECT__18
10
178.899002
20
0.418000
30
19.028000
70
192
0
VERTEX
8
OBJECT__18
10
178.863007
20
0.873000
30
19.058001
70
192
0
VERTEX
8
OBJECT__18
10
178.774002
20
-1.414000
30
19.124001
70
192
0
VERTEX
8
OBJECT__18
10
178.873993
20
0.051000
30
19.047001
70
192
0
VERTEX
8
OBJECT__18
10
177.817993
20
4.075000
30
15.619000
70
192
0
VERTEX
8
OBJECT__18
10
178.363998
20
2.932000
30
19.452000
70
192
0
VERTEX
8
OBJECT__18
10
173.548004
20
7.658000
30
15.619000
70
192
0
VERTEX
8
OBJECT__18
10
175.533005
20
6.606000
30
21.351999
70
192
0
VERTEX
8
OBJECT__18
10
173.612000
20
7.635000
30
22.384001
70
192
0
VERTEX
8
OBJECT__18
10
175.819000
20
6.390000
30
21.181999
70
192
0
VERTEX
8
OBJECT__18
10
177.319000
20
4.838000
30
20.214001
70
192
0
VERTEX
8
OBJECT__18
10
176.304993
20
5.887000
30
20.868000
70
192
0
VERTEX
8
OBJECT__18
10
177.755997
20
4.041000
30
19.895000
70
192
0
VERTEX
8
OBJECT__18
10
167.973007
20
7.658000
30
15.619000
70
192
0
VERTEX
8
OBJECT__18
10
171.093002
20
8.109000
30
23.476000
70
192
0
VERTEX
8
OBJECT__18
10
170.789993
20
8.150000
30
23.603001
70
192
0
VERTEX
8
OBJECT__18
10
169.819000
20
8.096000
30
23.948999
70
192
0
VERTEX
8
OBJECT__18
10
173.546997
20
7.656000
30
22.415001
70
192
0
VERTEX
8
OBJECT__18
10
172.901001
20
7.864000
30
22.722000
70
192
0
VERTEX
8
OBJECT__18
10
163.701996
20
4.075000
30
15.619000
70
192
0
VERTEX
8
OBJECT__18
10
165.561996
20
6.221000
30
25.090000
70
192
0
VERTEX
8
OBJECT__18
10
165.231003
20
5.987000
30
25.164000
70
192
0
VERTEX
8
OBJECT__18
10
164.785004
20
5.542000
30
25.250999
70
192
0
VERTEX
8
OBJECT__18
10
167.979004
20
7.632000
30
24.507000
70
192
0
VERTEX
8
OBJECT__18
10
167.753006
20
7.575000
30
24.576000
70
192
0
VERTEX
8
OBJECT__18
10
166.994995
20
7.228000
30
24.771000
70
192
0
VERTEX
8
OBJECT__18
10
163.294998
20
3.269000
30
25.507999
70
192
0
VERTEX
8
OBJECT__18
10
162.694000
20
1.170000
30
25.597000
70
192
0
VERTEX
8
OBJECT__18
10
163.733994
20
4.052000
30
25.434999
70
192
0
VERTEX
8
OBJECT__18
10
163.531006
20
3.764000
30
25.469999
70
192
0
VERTEX
8
OBJECT__18
10
162.733994
20
-1.415000
30
15.619000
70
192
0
VERTEX
8
OBJECT__18
10
162.634995
20
0.642000
30
25.606001
70
192
0
VERTEX
8
OBJECT__18
10
162.667007
20
0.066000
30
25.601000
70
192
0
VERTEX
8
OBJECT__18
10
165.520996
20
-6.243000
30
15.619000
70
192
0
VERTEX
8
OBJECT__18
10
163.979996
20
-4.522000
30
25.392000
70
192
0
VERTEX
8
OBJECT__18
10
165.414001
20
-6.151000
30
25.120001
70
192
0
VERTEX
8
OBJECT__18
10
163.701996
20
-4.074000
30
25.438999
70
192
0
VERTEX
8
OBJECT__18
10
162.873993
20
-2.056000
30
25.570000
70
192
0
VERTEX
8
OBJECT__18
10
162.757004
20
-1.540000
30
25.587000
70
192
0
VERTEX
8
OBJECT__18
10
162.750000
20
-1.414000
30
25.587999
70
192
0
VERTEX
8
OBJECT__18
10
165.817001
20
-6.480000
30
25.035000
70
192
0
VERTEX
8
OBJECT__18
10
167.686996
20
-7.548000
30
24.583000
70
192
0
VERTEX
8
OBJECT__18
10
166.557007
20
-6.983000
30
24.839001
70
192
0
VERTEX
8
OBJECT__18
10
165.531006
20
-6.247000
30
25.096001
70
192
0
VERTEX
8
OBJECT__18
10
170.259995
20
-8.135000
30
23.781000
70
192
0
VERTEX
8
OBJECT__18
10
168.158997
20
-7.724000
30
24.452000
70
192
0
VERTEX
8
OBJECT__18
10
165.522995
20
-6.241000
30
25.097000
70
192
0
VERTEX
8
OBJECT__18
10
0
20
0
30
0
70
128
71
1
72
2
73
3
0
VERTEX
8
OBJECT__18
10
0
20
0
30
0
70
128
71
1
72
4
73
5
0
VERTEX
8
OBJECT__18
10
0
20
0
30
0
70
128
71
5
72
6
73
1
0
VERTEX
8
OBJECT__18
10
0
20
0
30
0
70
128
71
6
72
2
73
1
0
VERTEX
8
OBJECT__18
10
0
20
0
30
0
70
128
71
1
72
7
73
4
0
VERTEX
8
OBJECT__18
10
0
20
0
30
0
70
128
71
8
72
9
73
10
0
VERTEX
8
OBJECT__18
10
0
20
0
30
0
70
128
71
10
72
11
73
8
0
VERTEX
8
OBJECT__18
10
0
20
0
30
0
70
128
71
9
72
12
73
13
0
VERTEX
8
OBJECT__18
10
0
20
0
30
0
70
128
71
9
72
3
73
12
0
VERTEX
8
OBJECT__18
10
0
20
0
30
0
70
128
71
13
72
14
73
9
0
VERTEX
8
OBJECT__18
10
0
20
0
30
0
70
128
71
14
72
10
73
9
0
VERTEX
8
OBJECT__18
10
0
20
0
30
0
70
128
71
11
72
15
73
8
0
VERTEX
8
OBJECT__18
10
0
20
0
30
0
70
128
71
8
72
16
73
17
0
VERTEX
8
OBJECT__18
10
0
20
0
30
0
70
128
71
8
72
18
73
19
0
VERTEX
8
OBJECT__18
10
0
20
0
30
0
70
128
71
19
72
16
73
8
0
VERTEX
8
OBJECT__18
10
0
20
0
30
0
70
128
71
17
72
20
73
8
0
VERTEX
8
OBJECT__18
10
0
20
0
30
0
70
128
71
17
72
21
73
20
0
VERTEX
8
OBJECT__18
10
0
20
0
30
0
70
128
71
22
72
23
73
24
0
VERTEX
8
OBJECT__18
10
0
20
0
30
0
70
128
71
22
72
25
73
23
0
VERTEX
8
OBJECT__18
10
0
20
0
30
0
70
128
71
22
72
26
73
27
0
VERTEX
8
OBJECT__18
10
0
20
0
30
0
70
128
71
27
72
25
73
22
0
VERTEX
8
OBJECT__18
10
0
20
0
30
0
70
128
71
20
72
28
73
26
0
VERTEX
8
OBJECT__18
10
0
20
0
30
0
70
128
71
26
72
22
73
20
0
VERTEX
8
OBJECT__18
10
0
20
0
30
0
70
128
71
29
72
30
73
31
0
VERTEX
8
OBJECT__18
10
0
20
0
30
0
70
128
71
31
72
32
73
29
0
VERTEX
8
OBJECT__18
10
0
20
0
30
0
70
128
71
29
72
22
73
33
0
VERTEX
8
OBJECT__18
10
0
20
0
30
0
70
128
71
33
72
34
73
29
0
VERTEX
8
OBJECT__18
10
0
20
0
30
0
70
128
71
34
72
30
73
29
0
VERTEX
8
OBJECT__18
10
0
20
0
30
0
70
128
71
35
72
36
73
37
0
VERTEX
8
OBJECT__18
10
0
20
0
30
0
70
128
71
37
72
38
73
35
0
VERTEX
8
OBJECT__18
10
0
20
0
30
0
70
128
71
35
72
29
73
39
0
VERTEX
8
OBJECT__18
10
0
20
0
30
0
70
128
71
39
72
40
73
35
0
VERTEX
8
OBJECT__18
10
0
20
0
30
0
70
128
71
40
72
41
73
35
0
VERTEX
8
OBJECT__18
10
0
20
0
30
0
70
128
71
41
72
36
73
35
0
VERTEX
8
OBJECT__18
10
0
20
0
30
0
70
128
71
35
72
42
73
43
0
VERTEX
8
OBJECT__18
10
0
20
0
30
0
70
128
71
35
72
44
73
45
0
VERTEX
8
OBJECT__18
10
0
20
0
30
0
70
128
71
45
72
42
73
35
0
VERTEX
8
OBJECT__18
10
0
20
0
30
0
70
128
71
43
72
46
73
35
0
VERTEX
8
OBJECT__18
10
0
20
0
30
0
70
128
71
43
72
47
73
46
0
VERTEX
8
OBJECT__18
10
0
20
0
30
0
70
128
71
47
72
48
73
46
0
VERTEX
8
OBJECT__18
10
0
20
0
30
0
70
128
71
49
72
46
73
50
0
VERTEX
8
OBJECT__18
10
0
20
0
30
0
70
128
71
50
72
51
73
49
0
VERTEX
8
OBJECT__18
10
0
20
0
30
0
70
128
71
46
72
52
73
50
0
VERTEX
8
OBJECT__18
10
0
20
0
30
0
70
128
71
46
72
53
73
52
0
VERTEX
8
OBJECT__18
10
0
20
0
30
0
70
128
71
46
72
54
73
53
0
VERTEX
8
OBJECT__18
10
0
20
0
30
0
70
128
71
46
72
55
73
54
0
VERTEX
8
OBJECT__18
10
0
20
0
30
0
70
128
71
56
72
57
73
58
0
VERTEX
8
OBJECT__18
10
0
20
0
30
0
70
128
71
58
72
59
73
56
0
VERTEX
8
OBJECT__18
10
0
20
0
30
0
70
128
71
49
72
60
73
7
0
VERTEX
8
OBJECT__18
10
0
20
0
30
0
70
128
71
49
72
61
73
60
0
VERTEX
8
OBJECT__18
10
0
20
0
30
0
70
128
71
49
72
57
73
61
0
VERTEX
8
OBJECT__18
10
0
20
0
30
0
70
128
71
49
72
58
73
57
0
VERTEX
8
OBJECT__18
10
0
20
0
30
0
70
128
71
49
72
62
73
59
0
VERTEX
8
OBJECT__18
10
0
20
0
30
0
70
128
71
59
72
58
73
49
0
VERTEX
8
OBJECT__18
10
0
20
0
30
0
70
128
71
7
72
1
73
49
0
VERTEX
8
OBJECT__18
10
0
20
0
30
0
70
128
71
51
72
62
73
49
0
VERTEX
8
OBJECT__18
10
0
20
0
30
0
70
128
71
48
72
55
73
46
0
VERTEX
8
OBJECT__18
10
0
20
0
30
0
70
128
71
38
72
44
73
35
0
VERTEX
8
OBJECT__18
10
0
20
0
30
0
70
128
71
32
72
39
73
29
0
VERTEX
8
OBJECT__18
10
0
20
0
30
0
70
128
71
24
72
33
73
22
0
VERTEX
8
OBJECT__18
10
0
20
0
30
0
70
128
71
21
72
28
73
20
0
VERTEX
8
OBJECT__18
10
0
20
0
30
0
70
128
71
15
72
18
73
8
0
VERTEX
8
OBJECT__18
10
0
20
0
30
0
70
128
71
3
72
9
73
1
0
SEQEND
8
OBJECT__18
0
POLYLINE
8
OBJECT__19
66
1
70
64
71
11
72
9
62
253
0
VERTEX
8
OBJECT__19
10
189.121994
20
-10.631000
30
-18.518999
70
192
0
VERTEX
8
OBJECT__19
10
188.731995
20
-10.949000
30
-18.521999
70
192
0
VERTEX
8
OBJECT__19
10
188.481995
20
-10.506000
30
-19.211000
70
192
0
VERTEX
8
OBJECT__19
10
189.384995
20
-10.201000
30
-18.517000
70
192
0
VERTEX
8
OBJECT__19
10
188.748993
20
-10.282000
30
-19.211000
70
192
0
VERTEX
8
OBJECT__19
10
188.737000
20
-10.292000
30
-19.211000
70
192
0
VERTEX
8
OBJECT__19
10
188.854004
20
-9.990000
30
-19.211000
70
192
0
VERTEX
8
OBJECT__19
10
188.964005
20
-9.681000
30
-19.211000
70
192
0
VERTEX
8
OBJECT__19
10
189.490997
20
-9.709000
30
-18.518000
70
192
0
VERTEX
8
OBJECT__19
10
188.977005
20
-9.646000
30
-19.211000
70
192
0
VERTEX
8
OBJECT__19
10
189.492004
20
-9.649000
30
-18.518000
70
192
0
VERTEX
8
OBJECT__19
10
0
20
0
30
0
70
128
71
1
72
2
73
3
0
VERTEX
8
OBJECT__19
10
0
20
0
30
0
70
128
71
4
72
1
73
5
0
VERTEX
8
OBJECT__19
10
0
20
0
30
0
70
128
71
1
72
6
73
5
0
VERTEX
8
OBJECT__19
10
0
20
0
30
0
70
128
71
4
72
7
73
8
0
VERTEX
8
OBJECT__19
10
0
20
0
30
0
70
128
71
9
72
8
73
10
0
VERTEX
8
OBJECT__19
10
0
20
0
30
0
70
128
71
10
72
11
73
9
0
VERTEX
8
OBJECT__19
10
0
20
0
30
0
70
128
71
8
72
9
73
4
0
VERTEX
8
OBJECT__19
10
0
20
0
30
0
70
128
71
5
72
7
73
4
0
VERTEX
8
OBJECT__19
10
0
20
0
30
0
70
128
71
3
72
6
73
1
0
SEQEND
8
OBJECT__19
0
POLYLINE
8
OBJECT__20
66
1
70
64
71
8
72
6
62
253
0
VERTEX
8
OBJECT__20
10
180.134995
20
-15.827000
30
-18.542000
70
192
0
VERTEX
8
OBJECT__20
10
171.539993
20
-20.709000
30
-18.563999
70
192
0
VERTEX
8
OBJECT__20
10
171.326004
20
-20.332001
30
-19.211000
70
192
0
VERTEX
8
OBJECT__20
10
188.731995
20
-10.949000
30
-18.521999
70
192
0
VERTEX
8
OBJECT__20
10
180.143005
20
-15.823000
30
-18.542000
70
192
0
VERTEX
8
OBJECT__20
10
182.408005
20
-13.986000
30
-19.211000
70
192
0
VERTEX
8
OBJECT__20
10
179.904999
20
-15.420000
30
-19.211000
70
192
0
VERTEX
8
OBJECT__20
10
188.481995
20
-10.506000
30
-19.211000
70
192
0
VERTEX
8
OBJECT__20
10
0
20
0
30
0
70
128
71
1
72
2
73
3
0
VERTEX
8
OBJECT__20
10
0
20
0
30
0
70
128
71
4
72
5
73
6
0
VERTEX
8
OBJECT__20
10
0
20
0
30
0
70
128
71
7
72
6
73
5
0
VERTEX
8
OBJECT__20
10
0
20
0
30
0
70
128
71
5
72
1
73
7
0
VERTEX
8
OBJECT__20
10
0
20
0
30
0
70
128
71
6
72
8
73
4
0
VERTEX
8
OBJECT__20
10
0
20
0
30
0
70
128
71
3
72
7
73
1
0
SEQEND
8
OBJECT__20
0
POLYLINE
8
OBJECT__21
66
1
70
64
71
8
72
6
62
253
0
VERTEX
8
OBJECT__21
10
170.533005
20
-20.882000
30
-18.573999
70
192
0
VERTEX
8
OBJECT__21
10
170.059006
20
-20.711000
30
-18.577999
70
192
0
VERTEX
8
OBJECT__21
10
170.272995
20
-20.333000
30
-19.211000
70
192
0
VERTEX
8
OBJECT__21
10
171.037003
20
-20.886000
30
-18.570000
70
192
0
VERTEX
8
OBJECT__21
10
170.610001
20
-20.332001
30
-19.211000
70
192
0
VERTEX
8
OBJECT__21
10
170.968002
20
-20.332001
30
-19.211000
70
192
0
VERTEX
8
OBJECT__21
10
171.326004
20
-20.332001
30
-19.211000
70
192
0
VERTEX
8
OBJECT__21
10
171.539993
20
-20.709000
30
-18.563999
70
192
0
VERTEX
8
OBJECT__21
10
0
20
0
30
0
70
128
71
1
72
2
73
3
0
VERTEX
8
OBJECT__21
10
0
20
0
30
0
70
128
71
4
72
1
73
5
0
VERTEX
8
OBJECT__21
10
0
20
0
30
0
70
128
71
4
72
6
73
7
0
VERTEX
8
OBJECT__21
10
0
20
0
30
0
70
128
71
7
72
8
73
4
0
VERTEX
8
OBJECT__21
10
0
20
0
30
0
70
128
71
5
72
6
73
4
0
VERTEX
8
OBJECT__21
10
0
20
0
30
0
70
128
71
3
72
5
73
1
0
SEQEND
8
OBJECT__21
0
POLYLINE
8
OBJECT__22
66
1
70
64
71
78
72
76
62
253
0
VERTEX
8
OBJECT__22
10
21.570999
20
-33.278000
30
12.115000
70
192
0
VERTEX
8
OBJECT__22
10
13.372000
20
-37.272999
30
12.141000
70
192
0
VERTEX
8
OBJECT__22
10
13.367000
20
-37.275002
30
10.792000
70
192
0
VERTEX
8
OBJECT__22
10
21.562000
20
-33.280998
30
10.708000
70
192
0
VERTEX
8
OBJECT__22
10
21.981001
20
-33.125999
30
10.705000
70
192
0
VERTEX
8
OBJECT__22
10
31.212999
20
-29.702000
30
10.634000
70
192
0
VERTEX
8
OBJECT__22
10
31.218000
20
-29.701000
30
12.076000
70
192
0
VERTEX
8
OBJECT__22
10
22.003000
20
-33.118000
30
12.113000
70
192
0
VERTEX
8
OBJECT__22
10
39.132000
20
-27.334000
30
10.626000
70
192
0
VERTEX
8
OBJECT__22
10
39.127998
20
-27.334000
30
12.085000
70
192
0
VERTEX
8
OBJECT__22
10
32.881001
20
-29.204000
30
12.078000
70
192
0
VERTEX
8
OBJECT__22
10
32.848000
20
-29.212999
30
10.632000
70
192
0
VERTEX
8
OBJECT__22
10
43.897999
20
-26.180000
30
10.662000
70
192
0
VERTEX
8
OBJECT__22
10
52.901001
20
-24.000000
30
10.729000
70
192
0
VERTEX
8
OBJECT__22
10
52.883999
20
-23.996000
30
12.205000
70
192
0
VERTEX
8
OBJECT__22
10
43.943001
20
-26.166000
30
12.127000
70
192
0
VERTEX
8
OBJECT__22
10
66.172997
20
-21.476000
30
10.908000
70
192
0
VERTEX
8
OBJECT__22
10
68.265999
20
-21.077999
30
10.937000
70
192
0
VERTEX
8
OBJECT__22
10
68.242996
20
-21.066000
30
12.417000
70
192
0
VERTEX
8
OBJECT__22
10
66.236000
20
-21.448999
30
12.389000
70
192
0
VERTEX
8
OBJECT__22
10
83.174004
20
-18.915001
30
11.151000
70
192
0
VERTEX
8
OBJECT__22
10
83.152000
20
-18.900000
30
12.630000
70
192
0
VERTEX
8
OBJECT__22
10
88.683998
20
-18.400000
30
11.214000
70
192
0
VERTEX
8
OBJECT__22
10
95.706001
20
-17.745001
30
11.295000
70
192
0
VERTEX
8
OBJECT__22
10
95.690002
20
-17.732000
30
12.782000
70
192
0
VERTEX
8
OBJECT__22
10
88.766998
20
-18.377001
30
12.698000
70
192
0
VERTEX
8
OBJECT__22
10
111.343002
20
-17.087999
30
11.398000
70
192
0
VERTEX
8
OBJECT__22
10
113.039001
20
-17.017000
30
11.409000
70
192
0
VERTEX
8
OBJECT__22
10
113.030998
20
-17.010000
30
12.923000
70
192
0
VERTEX
8
OBJECT__22
10
111.495003
20
-17.073999
30
12.911000
70
192
0
VERTEX
8
OBJECT__22
10
131.294006
20
-16.804001
30
12.981000
70
192
0
VERTEX
8
OBJECT__22
10
131.294006
20
-16.809999
30
11.446000
70
192
0
VERTEX
8
OBJECT__22
10
134.248993
20
-16.851000
30
11.443000
70
192
0
VERTEX
8
OBJECT__22
10
134.410004
20
-16.846001
30
12.983000
70
192
0
VERTEX
8
OBJECT__22
10
134.408005
20
-16.853001
30
11.443000
70
192
0
VERTEX
8
OBJECT__22
10
142.679993
20
-17.180000
30
11.419000
70
192
0
VERTEX
8
OBJECT__22
10
149.675995
20
-17.677000
30
11.223000
70
192
0
VERTEX
8
OBJECT__22
10
149.787003
20
-17.628000
30
12.778000
70
192
0
VERTEX
8
OBJECT__22
10
148.987000
20
-17.575001
30
12.801000
70
192
0
VERTEX
8
OBJECT__22
10
142.692993
20
-17.157000
30
12.978000
70
192
0
VERTEX
8
OBJECT__22
10
148.261993
20
-17.576000
30
11.263000
70
192
0
VERTEX
8
OBJECT__22
10
153.585999
20
-18.030001
30
10.838000
70
192
0
VERTEX
8
OBJECT__22
10
153.828003
20
-17.972000
30
12.347000
70
192
0
VERTEX
8
OBJECT__22
10
155.690994
20
-18.247000
30
10.368000
70
192
0
VERTEX
8
OBJECT__22
10
157.723999
20
-18.455000
30
9.913000
70
192
0
VERTEX
8
OBJECT__22
10
158.190994
20
-18.400000
30
11.300000
70
192
0
VERTEX
8
OBJECT__22
10
156.725006
20
-18.256001
30
11.652000
70
192
0
VERTEX
8
OBJECT__22
10
159.300995
20
-18.625999
30
9.315000
70
192
0
VERTEX
8
OBJECT__22
10
160.360001
20
-18.625999
30
10.434000
70
192
0
VERTEX
8
OBJECT__22
10
163.091995
20
-19.049999
30
7.240000
70
192
0
VERTEX
8
OBJECT__22
10
163.903000
20
-19.011999
30
8.350000
70
192
0
VERTEX
8
OBJECT__22
10
163.852005
20
-19.006001
30
8.381000
70
192
0
VERTEX
8
OBJECT__22
10
159.759003
20
-18.674999
30
9.141000
70
192
0
VERTEX
8
OBJECT__22
10
162.688004
20
-19.004999
30
7.471000
70
192
0
VERTEX
8
OBJECT__22
10
165.093994
20
-19.301001
30
5.582000
70
192
0
VERTEX
8
OBJECT__22
10
167.167007
20
-19.615999
30
3.094000
70
192
0
VERTEX
8
OBJECT__22
10
168.304001
20
-19.601999
30
3.832000
70
192
0
VERTEX
8
OBJECT__22
10
166.759003
20
-19.375999
30
5.688000
70
192
0
VERTEX
8
OBJECT__22
10
166.042999
20
-19.271999
30
6.547000
70
192
0
VERTEX
8
OBJECT__22
10
165.591995
20
-19.377001
30
4.984000
70
192
0
VERTEX
8
OBJECT__22
10
169.100006
20
-19.747999
30
2.471000
70
192
0
VERTEX
8
OBJECT__22
10
170.356003
20
-20.077000
30
-0.936000
70
192
0
VERTEX
8
OBJECT__22
10
167.871994
20
-19.754000
30
1.859000
70
192
0
VERTEX
8
OBJECT__22
10
170.664993
20
-20.201000
30
-2.376000
70
192
0
VERTEX
8
OBJECT__22
10
170.369995
20
-20.083000
30
-1.001000
70
192
0
VERTEX
8
OBJECT__22
10
169.000000
20
-20.082001
30
-1.479000
70
192
0
VERTEX
8
OBJECT__22
10
168.959000
20
-20.063999
30
-1.270000
70
192
0
VERTEX
8
OBJECT__22
10
171.231003
20
-20.596001
30
-8.240000
70
192
0
VERTEX
8
OBJECT__22
10
170.904999
20
-20.368000
30
-4.861000
70
192
0
VERTEX
8
OBJECT__22
10
169.445999
20
-20.362000
30
-5.180000
70
192
0
VERTEX
8
OBJECT__22
10
169.223999
20
-20.184000
30
-2.622000
70
192
0
VERTEX
8
OBJECT__22
10
171.362000
20
-20.643999
30
-12.622000
70
192
0
VERTEX
8
OBJECT__22
10
169.862000
20
-20.635000
30
-12.634000
70
192
0
VERTEX
8
OBJECT__22
10
170.533005
20
-20.882000
30
-18.573999
70
192
0
VERTEX
8
OBJECT__22
10
171.037003
20
-20.886000
30
-18.570000
70
192
0
VERTEX
8
OBJECT__22
10
170.059006
20
-20.711000
30
-18.577999
70
192
0
VERTEX
8
OBJECT__22
10
169.718002
20
-20.580000
30
-8.311000
70
192
0
VERTEX
8
OBJECT__22
10
171.539993
20
-20.709000
30
-18.563999
70
192
0
VERTEX
8
OBJECT__22
10
0
20
0
30
0
70
128
71
1
72
2
73
3
0
VERTEX
8
OBJECT__22
10
0
20
0
30
0
70
128
71
1
72
4
73
5
0
VERTEX
8
OBJECT__22
10
0
20
0
30
0
70
128
71
6
72
7
73
8
0
VERTEX
8
OBJECT__22
10
0
20
0
30
0
70
128
71
8
72
5
73
6
0
VERTEX
8
OBJECT__22
10
0
20
0
30
0
70
128
71
9
72
10
73
11
0
VERTEX
8
OBJECT__22
10
0
20
0
30
0
70
128
71
7
72
6
73
12
0
VERTEX
8
OBJECT__22
10
0
20
0
30
0
70
128
71
12
72
11
73
7
0
VERTEX
8
OBJECT__22
10
0
20
0
30
0
70
128
71
10
72
9
73
13
0
VERTEX
8
OBJECT__22
10
0
20
0
30
0
70
128
71
14
72
15
73
16
0
VERTEX
8
OBJECT__22
10
0
20
0
30
0
70
128
71
16
72
13
73
14
0
VERTEX
8
OBJECT__22
10
0
20
0
30
0
70
128
71
15
72
14
73
17
0
VERTEX
8
OBJECT__22
10
0
20
0
30
0
70
128
71
18
72
19
73
20
0
VERTEX
8
OBJECT__22
10
0
20
0
30
0
70
128
71
20
72
17
73
18
0
VERTEX
8
OBJECT__22
10
0
20
0
30
0
70
128
71
19
72
18
73
21
0
VERTEX
8
OBJECT__22
10
0
20
0
30
0
70
128
71
22
72
21
73
23
0
VERTEX
8
OBJECT__22
10
0
20
0
30
0
70
128
71
24
72
25
73
26
0
VERTEX
8
OBJECT__22
10
0
20
0
30
0
70
128
71
26
72
23
73
24
0
VERTEX
8
OBJECT__22
10
0
20
0
30
0
70
128
71
25
72
24
73
27
0
VERTEX
8
OBJECT__22
10
0
20
0
30
0
70
128
71
28
72
29
73
30
0
VERTEX
8
OBJECT__22
10
0
20
0
30
0
70
128
71
30
72
27
73
28
0
VERTEX
8
OBJECT__22
10
0
20
0
30
0
70
128
71
31
72
29
73
28
0
VERTEX
8
OBJECT__22
10
0
20
0
30
0
70
128
71
31
72
32
73
33
0
VERTEX
8
OBJECT__22
10
0
20
0
30
0
70
128
71
33
72
34
73
31
0
VERTEX
8
OBJECT__22
10
0
20
0
30
0
70
128
71
34
72
35
73
36
0
VERTEX
8
OBJECT__22
10
0
20
0
30
0
70
128
71
37
72
38
73
39
0
VERTEX
8
OBJECT__22
10
0
20
0
30
0
70
128
71
40
72
36
73
41
0
VERTEX
8
OBJECT__22
10
0
20
0
30
0
70
128
71
41
72
39
73
40
0
VERTEX
8
OBJECT__22
10
0
20
0
30
0
70
128
71
38
72
37
73
42
0
VERTEX
8
OBJECT__22
10
0
20
0
30
0
70
128
71
43
72
42
73
44
0
VERTEX
8
OBJECT__22
10
0
20
0
30
0
70
128
71
45
72
46
73
47
0
VERTEX
8
OBJECT__22
10
0
20
0
30
0
70
128
71
47
72
44
73
45
0
VERTEX
8
OBJECT__22
10
0
20
0
30
0
70
128
71
46
72
45
73
48
0
VERTEX
8
OBJECT__22
10
0
20
0
30
0
70
128
71
48
72
49
73
46
0
VERTEX
8
OBJECT__22
10
0
20
0
30
0
70
128
71
50
72
51
73
52
0
VERTEX
8
OBJECT__22
10
0
20
0
30
0
70
128
71
49
72
53
73
54
0
VERTEX
8
OBJECT__22
10
0
20
0
30
0
70
128
71
54
72
52
73
49
0
VERTEX
8
OBJECT__22
10
0
20
0
30
0
70
128
71
51
72
50
73
55
0
VERTEX
8
OBJECT__22
10
0
20
0
30
0
70
128
71
56
72
57
73
58
0
VERTEX
8
OBJECT__22
10
0
20
0
30
0
70
128
71
59
72
55
73
60
0
VERTEX
8
OBJECT__22
10
0
20
0
30
0
70
128
71
60
72
58
73
59
0
VERTEX
8
OBJECT__22
10
0
20
0
30
0
70
128
71
61
72
57
73
56
0
VERTEX
8
OBJECT__22
10
0
20
0
30
0
70
128
71
62
72
61
73
63
0
VERTEX
8
OBJECT__22
10
0
20
0
30
0
70
128
71
64
72
65
73
66
0
VERTEX
8
OBJECT__22
10
0
20
0
30
0
70
128
71
67
72
66
73
65
0
VERTEX
8
OBJECT__22
10
0
20
0
30
0
70
128
71
65
72
62
73
67
0
VERTEX
8
OBJECT__22
10
0
20
0
30
0
70
128
71
68
72
69
73
70
0
VERTEX
8
OBJECT__22
10
0
20
0
30
0
70
128
71
71
72
70
73
69
0
VERTEX
8
OBJECT__22
10
0
20
0
30
0
70
128
71
69
72
64
73
71
0
VERTEX
8
OBJECT__22
10
0
20
0
30
0
70
128
71
72
72
73
73
74
0
VERTEX
8
OBJECT__22
10
0
20
0
30
0
70
128
71
74
72
75
73
72
0
VERTEX
8
OBJECT__22
10
0
20
0
30
0
70
128
71
73
72
76
73
74
0
VERTEX
8
OBJECT__22
10
0
20
0
30
0
70
128
71
68
72
77
73
73
0
VERTEX
8
OBJECT__22
10
0
20
0
30
0
70
128
71
73
72
72
73
68
0
VERTEX
8
OBJECT__22
10
0
20
0
30
0
70
128
71
75
72
78
73
72
0
VERTEX
8
OBJECT__22
10
0
20
0
30
0
70
128
71
70
72
77
73
68
0
VERTEX
8
OBJECT__22
10
0
20
0
30
0
70
128
71
66
72
71
73
64
0
VERTEX
8
OBJECT__22
10
0
20
0
30
0
70
128
71
63
72
67
73
62
0
VERTEX
8
OBJECT__22
10
0
20
0
30
0
70
128
71
56
72
63
73
61
0
VERTEX
8
OBJECT__22
10
0
20
0
30
0
70
128
71
58
72
60
73
56
0
VERTEX
8
OBJECT__22
10
0
20
0
30
0
70
128
71
55
72
59
73
51
0
VERTEX
8
OBJECT__22
10
0
20
0
30
0
70
128
71
52
72
54
73
50
0
VERTEX
8
OBJECT__22
10
0
20
0
30
0
70
128
71
48
72
53
73
49
0
VERTEX
8
OBJECT__22
10
0
20
0
30
0
70
128
71
44
72
47
73
43
0
VERTEX
8
OBJECT__22
10
0
20
0
30
0
70
128
71
42
72
43
73
38
0
VERTEX
8
OBJECT__22
10
0
20
0
30
0
70
128
71
39
72
41
73
37
0
VERTEX
8
OBJECT__22
10
0
20
0
30
0
70
128
71
36
72
40
73
34
0
VERTEX
8
OBJECT__22
10
0
20
0
30
0
70
128
71
33
72
35
73
34
0
VERTEX
8
OBJECT__22
10
0
20
0
30
0
70
128
71
28
72
32
73
31
0
VERTEX
8
OBJECT__22
10
0
20
0
30
0
70
128
71
27
72
30
73
25
0
VERTEX
8
OBJECT__22
10
0
20
0
30
0
70
128
71
23
72
26
73
22
0
VERTEX
8
OBJECT__22
10
0
20
0
30
0
70
128
71
21
72
22
73
19
0
VERTEX
8
OBJECT__22
10
0
20
0
30
0
70
128
71
17
72
20
73
15
0
VERTEX
8
OBJECT__22
10
0
20
0
30
0
70
128
71
13
72
16
73
10
0
VERTEX
8
OBJECT__22
10
0
20
0
30
0
70
128
71
11
72
12
73
9
0
VERTEX
8
OBJECT__22
10
0
20
0
30
0
70
128
71
5
72
8
73
1
0
VERTEX
8
OBJECT__22
10
0
20
0
30
0
70
128
71
3
72
4
73
1
0
SEQEND
8
OBJECT__22
0
POLYLINE
8
OBJECT__23
66
1
70
64
71
8
72
6
62
253
0
VERTEX
8
OBJECT__23
10
152.813004
20
-10.294000
30
-19.211000
70
192
0
VERTEX
8
OBJECT__23
10
161.535995
20
-15.325000
30
-19.211000
70
192
0
VERTEX
8
OBJECT__23
10
161.296997
20
-15.736000
30
-18.539000
70
192
0
VERTEX
8
OBJECT__23
10
161.302002
20
-15.739000
30
-18.539000
70
192
0
VERTEX
8
OBJECT__23
10
170.059006
20
-20.711000
30
-18.577999
70
192
0
VERTEX
8
OBJECT__23
10
164.195007
20
-16.858999
30
-19.211000
70
192
0
VERTEX
8
OBJECT__23
10
170.272995
20
-20.333000
30
-19.211000
70
192
0
VERTEX
8
OBJECT__23
10
152.559998
20
-10.735000
30
-18.487000
70
192
0
VERTEX
8
OBJECT__23
10
0
20
0
30
0
70
128
71
1
72
2
73
3
0
VERTEX
8
OBJECT__23
10
0
20
0
30
0
70
128
71
2
72
4
73
3
0
VERTEX
8
OBJECT__23
10
0
20
0
30
0
70
128
71
5
72
4
73
6
0
VERTEX
8
OBJECT__23
10
0
20
0
30
0
70
128
71
4
72
2
73
6
0
VERTEX
8
OBJECT__23
10
0
20
0
30
0
70
128
71
6
72
7
73
5
0
VERTEX
8
OBJECT__23
10
0
20
0
30
0
70
128
71
3
72
8
73
1
0
SEQEND
8
OBJECT__23
0
POLYLINE
8
OBJECT__24
66
1
70
64
71
115
72
132
62
253
0
VERTEX
8
OBJECT__24
10
32.858002
20
-22.142000
30
-1.564000
70
192
0
VERTEX
8
OBJECT__24
10
31.177999
20
-15.367000
30
-14.225000
70
192
0
VERTEX
8
OBJECT__24
10
32.666000
20
-15.132000
30
-13.817000
70
192
0
VERTEX
8
OBJECT__24
10
21.997999
20
-25.073999
30
-3.202000
70
192
0
VERTEX
8
OBJECT__24
10
22.024000
20
-17.040001
30
-17.120001
70
192
0
VERTEX
8
OBJECT__24
10
32.880001
20
-15.102000
30
-13.766000
70
192
0
VERTEX
8
OBJECT__24
10
43.903000
20
-13.594000
30
-11.139000
70
192
0
VERTEX
8
OBJECT__24
10
43.883999
20
-19.830999
30
-0.226000
70
192
0
VERTEX
8
OBJECT__24
10
45.416000
20
-13.387000
30
-10.779000
70
192
0
VERTEX
8
OBJECT__24
10
62.098000
20
-11.625000
30
-7.773000
70
192
0
VERTEX
8
OBJECT__24
10
66.195999
20
-16.339001
30
1.870000
70
192
0
VERTEX
8
OBJECT__24
10
66.237999
20
-11.282000
30
-7.222000
70
192
0
VERTEX
8
OBJECT__24
10
80.440002
20
-10.104000
30
-5.330000
70
192
0
VERTEX
8
OBJECT__24
10
88.710999
20
-13.959000
30
3.388000
70
192
0
VERTEX
8
OBJECT__24
10
111.147003
20
-13.052000
30
4.450000
70
192
0
VERTEX
8
OBJECT__24
10
95.885002
20
-9.309000
30
-3.724000
70
192
0
VERTEX
8
OBJECT__24
10
88.753998
20
-9.676000
30
-4.465000
70
192
0
VERTEX
8
OBJECT__24
10
107.775002
20
-9.065000
30
-2.731000
70
192
0
VERTEX
8
OBJECT__24
10
122.637001
20
-9.044000
30
-1.930000
70
192
0
VERTEX
8
OBJECT__24
10
122.628998
20
-12.954000
30
4.784000
70
192
0
VERTEX
8
OBJECT__24
10
124.567001
20
-9.041000
30
-1.826000
70
192
0
VERTEX
8
OBJECT__24
10
131.645996
20
-9.079000
30
-1.661000
70
192
0
VERTEX
8
OBJECT__24
10
134.401993
20
-12.989000
30
4.909000
70
192
0
VERTEX
8
OBJECT__24
10
134.554993
20
-9.108000
30
-1.696000
70
192
0
VERTEX
8
OBJECT__24
10
137.367996
20
-9.135000
30
-1.729000
70
192
0
VERTEX
8
OBJECT__24
10
140.242004
20
-13.141000
30
4.815000
70
192
0
VERTEX
8
OBJECT__24
10
145.925995
20
-13.437000
30
4.493000
70
192
0
VERTEX
8
OBJECT__24
10
142.145004
20
-9.223000
30
-2.121000
70
192
0
VERTEX
8
OBJECT__24
10
139.606003
20
-9.176000
30
-1.913000
70
192
0
VERTEX
8
OBJECT__24
10
143.427994
20
-9.266000
30
-2.351000
70
192
0
VERTEX
8
OBJECT__24
10
146.238998
20
-9.430000
30
-3.221000
70
192
0
VERTEX
8
OBJECT__24
10
151.304001
20
-13.866000
30
3.460000
70
192
0
VERTEX
8
OBJECT__24
10
156.188995
20
-14.387000
30
0.773000
70
192
0
VERTEX
8
OBJECT__24
10
153.830994
20
-14.119000
30
2.373000
70
192
0
VERTEX
8
OBJECT__24
10
149.186005
20
-9.746000
30
-5.266000
70
192
0
VERTEX
8
OBJECT__24
10
147.063995
20
-9.500000
30
-3.633000
70
192
0
VERTEX
8
OBJECT__24
10
146.889999
20
-9.485000
30
-3.546000
70
192
0
VERTEX
8
OBJECT__24
10
158.214005
20
-14.658000
30
-1.230000
70
192
0
VERTEX
8
OBJECT__24
10
150.001999
20
-9.866000
30
-6.169000
70
192
0
VERTEX
8
OBJECT__24
10
149.742996
20
-9.828000
30
-5.882000
70
192
0
VERTEX
8
OBJECT__24
10
159.723999
20
-14.916000
30
-3.490000
70
192
0
VERTEX
8
OBJECT__24
10
150.830002
20
-10.004000
30
-7.435000
70
192
0
VERTEX
8
OBJECT__24
10
151.666000
20
-10.144000
30
-8.713000
70
192
0
VERTEX
8
OBJECT__24
10
160.600006
20
-15.147000
30
-5.891000
70
192
0
VERTEX
8
OBJECT__24
10
151.748001
20
-10.158000
30
-8.897000
70
192
0
VERTEX
8
OBJECT__24
10
151.940994
20
-10.191000
30
-9.328000
70
192
0
VERTEX
8
OBJECT__24
10
161.003006
20
-15.344000
30
-8.428000
70
192
0
VERTEX
8
OBJECT__24
10
152.151001
20
-10.235000
30
-10.297000
70
192
0
VERTEX
8
OBJECT__24
10
152.559998
20
-10.735000
30
-18.487000
70
192
0
VERTEX
8
OBJECT__24
10
161.296997
20
-15.736000
30
-18.539000
70
192
0
VERTEX
8
OBJECT__24
10
161.244003
20
-15.614000
30
-13.991000
70
192
0
VERTEX
8
OBJECT__24
10
152.490005
20
-10.307000
30
-11.859000
70
192
0
VERTEX
8
OBJECT__24
10
152.557007
20
-10.393000
30
-13.669000
70
192
0
VERTEX
8
OBJECT__24
10
152.453003
20
-10.299000
30
-11.688000
70
192
0
VERTEX
8
OBJECT__24
10
170.059006
20
-20.711000
30
-18.577999
70
192
0
VERTEX
8
OBJECT__24
10
169.862000
20
-20.635000
30
-12.634000
70
192
0
VERTEX
8
OBJECT__24
10
161.302002
20
-15.739000
30
-18.539000
70
192
0
VERTEX
8
OBJECT__24
10
169.718002
20
-20.580000
30
-8.311000
70
192
0
VERTEX
8
OBJECT__24
10
169.445999
20
-20.362000
30
-5.180000
70
192
0
VERTEX
8
OBJECT__24
10
169.223999
20
-20.184000
30
-2.622000
70
192
0
VERTEX
8
OBJECT__24
10
169.000000
20
-20.082001
30
-1.479000
70
192
0
VERTEX
8
OBJECT__24
10
168.959000
20
-20.063999
30
-1.270000
70
192
0
VERTEX
8
OBJECT__24
10
167.167007
20
-19.615999
30
3.094000
70
192
0
VERTEX
8
OBJECT__24
10
165.591995
20
-19.377001
30
4.984000
70
192
0
VERTEX
8
OBJECT__24
10
167.871994
20
-19.754000
30
1.859000
70
192
0
VERTEX
8
OBJECT__24
10
163.091995
20
-19.049999
30
7.240000
70
192
0
VERTEX
8
OBJECT__24
10
162.688004
20
-19.004999
30
7.471000
70
192
0
VERTEX
8
OBJECT__24
10
165.093994
20
-19.301001
30
5.582000
70
192
0
VERTEX
8
OBJECT__24
10
159.759003
20
-18.674999
30
9.141000
70
192
0
VERTEX
8
OBJECT__24
10
159.300995
20
-18.625999
30
9.315000
70
192
0
VERTEX
8
OBJECT__24
10
157.723999
20
-18.455000
30
9.913000
70
192
0
VERTEX
8
OBJECT__24
10
155.690994
20
-18.247000
30
10.368000
70
192
0
VERTEX
8
OBJECT__24
10
149.675995
20
-17.677000
30
11.223000
70
192
0
VERTEX
8
OBJECT__24
10
148.261993
20
-17.576000
30
11.263000
70
192
0
VERTEX
8
OBJECT__24
10
153.585999
20
-18.030001
30
10.838000
70
192
0
VERTEX
8
OBJECT__24
10
142.679993
20
-17.180000
30
11.419000
70
192
0
VERTEX
8
OBJECT__24
10
134.408005
20
-16.853001
30
11.443000
70
192
0
VERTEX
8
OBJECT__24
10
134.248993
20
-16.851000
30
11.443000
70
192
0
VERTEX
8
OBJECT__24
10
113.039001
20
-17.017000
30
11.409000
70
192
0
VERTEX
8
OBJECT__24
10
131.294006
20
-16.809999
30
11.446000
70
192
0
VERTEX
8
OBJECT__24
10
111.343002
20
-17.087999
30
11.398000
70
192
0
VERTEX
8
OBJECT__24
10
95.706001
20
-17.745001
30
11.295000
70
192
0
VERTEX
8
OBJECT__24
10
83.174004
20
-18.915001
30
11.151000
70
192
0
VERTEX
8
OBJECT__24
10
68.265999
20
-21.077999
30
10.937000
70
192
0
VERTEX
8
OBJECT__24
10
88.683998
20
-18.400000
30
11.214000
70
192
0
VERTEX
8
OBJECT__24
10
66.172997
20
-21.476000
30
10.908000
70
192
0
VERTEX
8
OBJECT__24
10
52.901001
20
-24.000000
30
10.729000
70
192
0
VERTEX
8
OBJECT__24
10
43.897999
20
-26.180000
30
10.662000
70
192
0
VERTEX
8
OBJECT__24
10
39.132000
20
-27.334000
30
10.626000
70
192
0
VERTEX
8
OBJECT__24
10
31.212999
20
-29.702000
30
10.634000
70
192
0
VERTEX
8
OBJECT__24
10
32.848000
20
-29.212999
30
10.632000
70
192
0
VERTEX
8
OBJECT__24
10
11.600000
20
-28.955999
30
-5.393000
70
192
0
VERTEX
8
OBJECT__24
10
21.562000
20
-33.280998
30
10.708000
70
192
0
VERTEX
8
OBJECT__24
10
13.367000
20
-37.275002
30
10.792000
70
192
0
VERTEX
8
OBJECT__24
10
21.981001
20
-33.125999
30
10.705000
70
192
0
VERTEX
8
OBJECT__24
10
3.218000
20
-35.325001
30
-3.895000
70
192
0
VERTEX
8
OBJECT__24
10
2.814000
20
-33.542999
30
-7.484000
70
192
0
VERTEX
8
OBJECT__24
10
3.782000
20
-36.171001
30
-1.737000
70
192
0
VERTEX
8
OBJECT__24
10
5.258000
20
-37.216999
30
1.860000
70
192
0
VERTEX
8
OBJECT__24
10
11.591000
20
-37.563000
30
9.495000
70
192
0
VERTEX
8
OBJECT__24
10
10.450000
20
-37.748001
30
8.662000
70
192
0
VERTEX
8
OBJECT__24
10
8.690000
20
-37.835999
30
6.903000
70
192
0
VERTEX
8
OBJECT__24
10
6.346000
20
-37.580002
30
3.778000
70
192
0
VERTEX
8
OBJECT__24
10
7.787000
20
-23.856001
30
-18.372999
70
192
0
VERTEX
8
OBJECT__24
10
10.339000
20
-21.462000
30
-19.711000
70
192
0
VERTEX
8
OBJECT__24
10
6.288000
20
-25.589001
30
-17.097000
70
192
0
VERTEX
8
OBJECT__24
10
4.497000
20
-28.205999
30
-14.692000
70
192
0
VERTEX
8
OBJECT__24
10
2.835000
20
-33.292999
30
-7.893000
70
192
0
VERTEX
8
OBJECT__24
10
2.926000
20
-32.187000
30
-9.700000
70
192
0
VERTEX
8
OBJECT__24
10
3.672000
20
-29.826000
30
-12.881000
70
192
0
VERTEX
8
OBJECT__24
10
12.474000
20
-19.862000
30
-20.285999
70
192
0
VERTEX
8
OBJECT__24
10
13.924000
20
-18.952000
30
-20.461000
70
192
0
VERTEX
8
OBJECT__24
10
11.630000
20
-20.495001
30
-20.059000
70
192
0
VERTEX
8
OBJECT__24
10
21.878000
20
-17.066999
30
-17.166000
70
192
0
VERTEX
8
OBJECT__24
10
110.954002
20
-9.060000
30
-2.559000
70
192
0
VERTEX
8
OBJECT__24
10
0
20
0
30
0
70
128
71
1
72
2
73
3
0
VERTEX
8
OBJECT__24
10
0
20
0
30
0
70
128
71
4
72
5
73
2
0
VERTEX
8
OBJECT__24
10
0
20
0
30
0
70
128
71
2
72
1
73
4
0
VERTEX
8
OBJECT__24
10
0
20
0
30
0
70
128
71
1
72
6
73
7
0
VERTEX
8
OBJECT__24
10
0
20
0
30
0
70
128
71
8
72
9
73
10
0
VERTEX
8
OBJECT__24
10
0
20
0
30
0
70
128
71
10
72
11
73
8
0
VERTEX
8
OBJECT__24
10
0
20
0
30
0
70
128
71
8
72
7
73
9
0
VERTEX
8
OBJECT__24
10
0
20
0
30
0
70
128
71
11
72
12
73
13
0
VERTEX
8
OBJECT__24
10
0
20
0
30
0
70
128
71
13
72
14
73
11
0
VERTEX
8
OBJECT__24
10
0
20
0
30
0
70
128
71
15
72
14
73
16
0
VERTEX
8
OBJECT__24
10
0
20
0
30
0
70
128
71
14
72
17
73
16
0
VERTEX
8
OBJECT__24
10
0
20
0
30
0
70
128
71
16
72
18
73
15
0
VERTEX
8
OBJECT__24
10
0
20
0
30
0
70
128
71
19
72
20
73
15
0
VERTEX
8
OBJECT__24
10
0
20
0
30
0
70
128
71
20
72
21
73
22
0
VERTEX
8
OBJECT__24
10
0
20
0
30
0
70
128
71
20
72
19
73
21
0
VERTEX
8
OBJECT__24
10
0
20
0
30
0
70
128
71
22
72
23
73
20
0
VERTEX
8
OBJECT__24
10
0
20
0
30
0
70
128
71
23
72
24
73
25
0
VERTEX
8
OBJECT__24
10
0
20
0
30
0
70
128
71
25
72
26
73
23
0
VERTEX
8
OBJECT__24
10
0
20
0
30
0
70
128
71
27
72
26
73
28
0
VERTEX
8
OBJECT__24
10
0
20
0
30
0
70
128
71
26
72
29
73
28
0
VERTEX
8
OBJECT__24
10
0
20
0
30
0
70
128
71
27
72
30
73
31
0
VERTEX
8
OBJECT__24
10
0
20
0
30
0
70
128
71
31
72
32
73
27
0
VERTEX
8
OBJECT__24
10
0
20
0
30
0
70
128
71
33
72
34
73
35
0
VERTEX
8
OBJECT__24
10
0
20
0
30
0
70
128
71
35
72
34
73
32
0
VERTEX
8
OBJECT__24
10
0
20
0
30
0
70
128
71
32
72
36
73
35
0
VERTEX
8
OBJECT__24
10
0
20
0
30
0
70
128
71
32
72
37
73
36
0
VERTEX
8
OBJECT__24
10
0
20
0
30
0
70
128
71
38
72
33
73
39
0
VERTEX
8
OBJECT__24
10
0
20
0
30
0
70
128
71
33
72
40
73
39
0
VERTEX
8
OBJECT__24
10
0
20
0
30
0
70
128
71
41
72
38
73
42
0
VERTEX
8
OBJECT__24
10
0
20
0
30
0
70
128
71
42
72
43
73
41
0
VERTEX
8
OBJECT__24
10
0
20
0
30
0
70
128
71
44
72
41
73
45
0
VERTEX
8
OBJECT__24
10
0
20
0
30
0
70
128
71
45
72
46
73
44
0
VERTEX
8
OBJECT__24
10
0
20
0
30
0
70
128
71
47
72
44
73
48
0
VERTEX
8
OBJECT__24
10
0
20
0
30
0
70
128
71
49
72
50
73
51
0
VERTEX
8
OBJECT__24
10
0
20
0
30
0
70
128
71
51
72
47
73
52
0
VERTEX
8
OBJECT__24
10
0
20
0
30
0
70
128
71
52
72
53
73
51
0
VERTEX
8
OBJECT__24
10
0
20
0
30
0
70
128
71
47
72
54
73
52
0
VERTEX
8
OBJECT__24
10
0
20
0
30
0
70
128
71
55
72
56
73
51
0
VERTEX
8
OBJECT__24
10
0
20
0
30
0
70
128
71
51
72
50
73
57
0
VERTEX
8
OBJECT__24
10
0
20
0
30
0
70
128
71
47
72
51
73
56
0
VERTEX
8
OBJECT__24
10
0
20
0
30
0
70
128
71
56
72
58
73
47
0
VERTEX
8
OBJECT__24
10
0
20
0
30
0
70
128
71
44
72
47
73
59
0
VERTEX
8
OBJECT__24
10
0
20
0
30
0
70
128
71
59
72
60
73
44
0
VERTEX
8
OBJECT__24
10
0
20
0
30
0
70
128
71
41
72
44
73
61
0
VERTEX
8
OBJECT__24
10
0
20
0
30
0
70
128
71
61
72
62
73
41
0
VERTEX
8
OBJECT__24
10
0
20
0
30
0
70
128
71
63
72
64
73
38
0
VERTEX
8
OBJECT__24
10
0
20
0
30
0
70
128
71
41
72
65
73
63
0
VERTEX
8
OBJECT__24
10
0
20
0
30
0
70
128
71
38
72
66
73
67
0
VERTEX
8
OBJECT__24
10
0
20
0
30
0
70
128
71
38
72
64
73
68
0
VERTEX
8
OBJECT__24
10
0
20
0
30
0
70
128
71
68
72
66
73
38
0
VERTEX
8
OBJECT__24
10
0
20
0
30
0
70
128
71
33
72
69
73
70
0
VERTEX
8
OBJECT__24
10
0
20
0
30
0
70
128
71
33
72
67
73
69
0
VERTEX
8
OBJECT__24
10
0
20
0
30
0
70
128
71
34
72
71
73
72
0
VERTEX
8
OBJECT__24
10
0
20
0
30
0
70
128
71
34
72
70
73
71
0
VERTEX
8
OBJECT__24
10
0
20
0
30
0
70
128
71
32
72
73
73
74
0
VERTEX
8
OBJECT__24
10
0
20
0
30
0
70
128
71
32
72
72
73
75
0
VERTEX
8
OBJECT__24
10
0
20
0
30
0
70
128
71
75
72
73
73
32
0
VERTEX
8
OBJECT__24
10
0
20
0
30
0
70
128
71
27
72
74
73
76
0
VERTEX
8
OBJECT__24
10
0
20
0
30
0
70
128
71
77
72
23
73
26
0
VERTEX
8
OBJECT__24
10
0
20
0
30
0
70
128
71
26
72
76
73
77
0
VERTEX
8
OBJECT__24
10
0
20
0
30
0
70
128
71
77
72
78
73
23
0
VERTEX
8
OBJECT__24
10
0
20
0
30
0
70
128
71
79
72
15
73
20
0
VERTEX
8
OBJECT__24
10
0
20
0
30
0
70
128
71
20
72
80
73
79
0
VERTEX
8
OBJECT__24
10
0
20
0
30
0
70
128
71
23
72
78
73
80
0
VERTEX
8
OBJECT__24
10
0
20
0
30
0
70
128
71
20
72
23
73
80
0
VERTEX
8
OBJECT__24
10
0
20
0
30
0
70
128
71
15
72
81
73
82
0
VERTEX
8
OBJECT__24
10
0
20
0
30
0
70
128
71
82
72
14
73
15
0
VERTEX
8
OBJECT__24
10
0
20
0
30
0
70
128
71
11
72
14
73
83
0
VERTEX
8
OBJECT__24
10
0
20
0
30
0
70
128
71
83
72
84
73
11
0
VERTEX
8
OBJECT__24
10
0
20
0
30
0
70
128
71
14
72
85
73
83
0
VERTEX
8
OBJECT__24
10
0
20
0
30
0
70
128
71
11
72
86
73
87
0
VERTEX
8
OBJECT__24
10
0
20
0
30
0
70
128
71
87
72
8
73
11
0
VERTEX
8
OBJECT__24
10
0
20
0
30
0
70
128
71
8
72
88
73
89
0
VERTEX
8
OBJECT__24
10
0
20
0
30
0
70
128
71
89
72
1
73
8
0
VERTEX
8
OBJECT__24
10
0
20
0
30
0
70
128
71
4
72
1
73
90
0
VERTEX
8
OBJECT__24
10
0
20
0
30
0
70
128
71
1
72
91
73
90
0
VERTEX
8
OBJECT__24
10
0
20
0
30
0
70
128
71
92
72
4
73
93
0
VERTEX
8
OBJECT__24
10
0
20
0
30
0
70
128
71
93
72
94
73
92
0
VERTEX
8
OBJECT__24
10
0
20
0
30
0
70
128
71
4
72
95
73
93
0
VERTEX
8
OBJECT__24
10
0
20
0
30
0
70
128
71
92
72
96
73
97
0
VERTEX
8
OBJECT__24
10
0
20
0
30
0
70
128
71
92
72
98
73
96
0
VERTEX
8
OBJECT__24
10
0
20
0
30
0
70
128
71
92
72
99
73
98
0
VERTEX
8
OBJECT__24
10
0
20
0
30
0
70
128
71
92
72
100
73
101
0
VERTEX
8
OBJECT__24
10
0
20
0
30
0
70
128
71
101
72
102
73
92
0
VERTEX
8
OBJECT__24
10
0
20
0
30
0
70
128
71
102
72
103
73
92
0
VERTEX
8
OBJECT__24
10
0
20
0
30
0
70
128
71
103
72
99
73
92
0
VERTEX
8
OBJECT__24
10
0
20
0
30
0
70
128
71
92
72
104
73
105
0
VERTEX
8
OBJECT__24
10
0
20
0
30
0
70
128
71
92
72
106
73
104
0
VERTEX
8
OBJECT__24
10
0
20
0
30
0
70
128
71
92
72
107
73
106
0
VERTEX
8
OBJECT__24
10
0
20
0
30
0
70
128
71
92
72
108
73
109
0
VERTEX
8
OBJECT__24
10
0
20
0
30
0
70
128
71
109
72
110
73
92
0
VERTEX
8
OBJECT__24
10
0
20
0
30
0
70
128
71
110
72
107
73
92
0
VERTEX
8
OBJECT__24
10
0
20
0
30
0
70
128
71
4
72
111
73
112
0
VERTEX
8
OBJECT__24
10
0
20
0
30
0
70
128
71
4
72
92
73
113
0
VERTEX
8
OBJECT__24
10
0
20
0
30
0
70
128
71
113
72
111
73
4
0
VERTEX
8
OBJECT__24
10
0
20
0
30
0
70
128
71
112
72
114
73
4
0
VERTEX
8
OBJECT__24
10
0
20
0
30
0
70
128
71
114
72
5
73
4
0
VERTEX
8
OBJECT__24
10
0
20
0
30
0
70
128
71
105
72
113
73
92
0
VERTEX
8
OBJECT__24
10
0
20
0
30
0
70
128
71
97
72
108
73
92
0
VERTEX
8
OBJECT__24
10
0
20
0
30
0
70
128
71
94
72
100
73
92
0
VERTEX
8
OBJECT__24
10
0
20
0
30
0
70
128
71
90
72
95
73
4
0
VERTEX
8
OBJECT__24
10
0
20
0
30
0
70
128
71
89
72
91
73
1
0
VERTEX
8
OBJECT__24
10
0
20
0
30
0
70
128
71
87
72
88
73
8
0
VERTEX
8
OBJECT__24
10
0
20
0
30
0
70
128
71
84
72
86
73
11
0
VERTEX
8
OBJECT__24
10
0
20
0
30
0
70
128
71
82
72
85
73
14
0
VERTEX
8
OBJECT__24
10
0
20
0
30
0
70
128
71
79
72
81
73
15
0
VERTEX
8
OBJECT__24
10
0
20
0
30
0
70
128
71
76
72
26
73
27
0
VERTEX
8
OBJECT__24
10
0
20
0
30
0
70
128
71
74
72
27
73
32
0
VERTEX
8
OBJECT__24
10
0
20
0
30
0
70
128
71
72
72
32
73
34
0
VERTEX
8
OBJECT__24
10
0
20
0
30
0
70
128
71
70
72
34
73
33
0
VERTEX
8
OBJECT__24
10
0
20
0
30
0
70
128
71
67
72
33
73
38
0
VERTEX
8
OBJECT__24
10
0
20
0
30
0
70
128
71
38
72
41
73
63
0
VERTEX
8
OBJECT__24
10
0
20
0
30
0
70
128
71
62
72
65
73
41
0
VERTEX
8
OBJECT__24
10
0
20
0
30
0
70
128
71
60
72
61
73
44
0
VERTEX
8
OBJECT__24
10
0
20
0
30
0
70
128
71
58
72
59
73
47
0
VERTEX
8
OBJECT__24
10
0
20
0
30
0
70
128
71
51
72
57
73
55
0
VERTEX
8
OBJECT__24
10
0
20
0
30
0
70
128
71
51
72
53
73
49
0
VERTEX
8
OBJECT__24
10
0
20
0
30
0
70
128
71
48
72
54
73
47
0
VERTEX
8
OBJECT__24
10
0
20
0
30
0
70
128
71
46
72
48
73
44
0
VERTEX
8
OBJECT__24
10
0
20
0
30
0
70
128
71
43
72
45
73
41
0
VERTEX
8
OBJECT__24
10
0
20
0
30
0
70
128
71
39
72
42
73
38
0
VERTEX
8
OBJECT__24
10
0
20
0
30
0
70
128
71
35
72
40
73
33
0
VERTEX
8
OBJECT__24
10
0
20
0
30
0
70
128
71
31
72
37
73
32
0
VERTEX
8
OBJECT__24
10
0
20
0
30
0
70
128
71
28
72
30
73
27
0
VERTEX
8
OBJECT__24
10
0
20
0
30
0
70
128
71
25
72
29
73
26
0
VERTEX
8
OBJECT__24
10
0
20
0
30
0
70
128
71
22
72
24
73
23
0
VERTEX
8
OBJECT__24
10
0
20
0
30
0
70
128
71
15
72
115
73
19
0
VERTEX
8
OBJECT__24
10
0
20
0
30
0
70
128
71
18
72
115
73
15
0
VERTEX
8
OBJECT__24
10
0
20
0
30
0
70
128
71
13
72
17
73
14
0
VERTEX
8
OBJECT__24
10
0
20
0
30
0
70
128
71
10
72
12
73
11
0
VERTEX
8
OBJECT__24
10
0
20
0
30
0
70
128
71
7
72
8
73
1
0
VERTEX
8
OBJECT__24
10
0
20
0
30
0
70
128
71
3
72
6
73
1
0
SEQEND
8
OBJECT__24
0
POLYLINE
8
OBJECT__25
66
1
70
64
71
9
72
7
62
253
0
VERTEX
8
OBJECT__25
10
151.807007
20
-9.431000
30
-18.524000
70
192
0
VERTEX
8
OBJECT__25
10
152.324997
20
-9.430000
30
-19.211000
70
192
0
VERTEX
8
OBJECT__25
10
152.378998
20
-9.757000
30
-19.211000
70
192
0
VERTEX
8
OBJECT__25
10
152.134995
20
-10.370000
30
-18.496000
70
192
0
VERTEX
8
OBJECT__25
10
151.891006
20
-9.928000
30
-18.507999
70
192
0
VERTEX
8
OBJECT__25
10
152.382004
20
-9.774000
30
-19.211000
70
192
0
VERTEX
8
OBJECT__25
10
152.580002
20
-10.013000
30
-19.211000
70
192
0
VERTEX
8
OBJECT__25
10
152.813004
20
-10.294000
30
-19.211000
70
192
0
VERTEX
8
OBJECT__25
10
152.559998
20
-10.735000
30
-18.487000
70
192
0
VERTEX
8
OBJECT__25
10
0
20
0
30
0
70
128
71
1
72
2
73
3
0
VERTEX
8
OBJECT__25
10
0
20
0
30
0
70
128
71
4
72
5
73
6
0
VERTEX
8
OBJECT__25
10
0
20
0
30
0
70
128
71
5
72
3
73
6
0
VERTEX
8
OBJECT__25
10
0
20
0
30
0
70
128
71
4
72
7
73
8
0
VERTEX
8
OBJECT__25
10
0
20
0
30
0
70
128
71
8
72
9
73
4
0
VERTEX
8
OBJECT__25
10
0
20
0
30
0
70
128
71
6
72
7
73
4
0
VERTEX
8
OBJECT__25
10
0
20
0
30
0
70
128
71
3
72
5
73
1
0
SEQEND
8
OBJECT__25
0
POLYLINE
8
OBJECT__26
66
1
70
64
71
24
72
22
62
253
0
VERTEX
8
OBJECT__26
10
188.854004
20
-9.990000
30
-19.211000
70
192
0
VERTEX
8
OBJECT__26
10
188.737000
20
-10.292000
30
-19.211000
70
192
0
VERTEX
8
OBJECT__26
10
188.481995
20
-10.506000
30
-19.211000
70
192
0
VERTEX
8
OBJECT__26
10
179.904999
20
-15.420000
30
-19.211000
70
192
0
VERTEX
8
OBJECT__26
10
188.966003
20
-8.246000
30
-19.211000
70
192
0
VERTEX
8
OBJECT__26
10
188.977005
20
-9.646000
30
-19.211000
70
192
0
VERTEX
8
OBJECT__26
10
188.869003
20
-3.094000
30
-19.211000
70
192
0
VERTEX
8
OBJECT__26
10
152.378998
20
-9.757000
30
-19.211000
70
192
0
VERTEX
8
OBJECT__26
10
152.324997
20
-9.430000
30
-19.211000
70
192
0
VERTEX
8
OBJECT__26
10
152.580002
20
-10.013000
30
-19.211000
70
192
0
VERTEX
8
OBJECT__26
10
152.382004
20
-9.774000
30
-19.211000
70
192
0
VERTEX
8
OBJECT__26
10
170.610001
20
-20.332001
30
-19.211000
70
192
0
VERTEX
8
OBJECT__26
10
170.272995
20
-20.333000
30
-19.211000
70
192
0
VERTEX
8
OBJECT__26
10
182.408005
20
-13.986000
30
-19.211000
70
192
0
VERTEX
8
OBJECT__26
10
161.535995
20
-15.325000
30
-19.211000
70
192
0
VERTEX
8
OBJECT__26
10
152.813004
20
-10.294000
30
-19.211000
70
192
0
VERTEX
8
OBJECT__26
10
164.195007
20
-16.858999
30
-19.211000
70
192
0
VERTEX
8
OBJECT__26
10
188.748993
20
-10.282000
30
-19.211000
70
192
0
VERTEX
8
OBJECT__26
10
188.964005
20
-9.681000
30
-19.211000
70
192
0
VERTEX
8
OBJECT__26
10
170.968002
20
-20.332001
30
-19.211000
70
192
0
VERTEX
8
OBJECT__26
10
152.464996
20
-3.228000
30
-19.211000
70
192
0
VERTEX
8
OBJECT__26
10
152.531998
20
-0.284000
30
-19.211000
70
192
0
VERTEX
8
OBJECT__26
10
171.326004
20
-20.332001
30
-19.211000
70
192
0
VERTEX
8
OBJECT__26
10
188.817001
20
-0.334000
30
-19.211000
70
192
0
VERTEX
8
OBJECT__26
10
0
20
0
30
0
70
128
71
1
72
2
73
3
0
VERTEX
8
OBJECT__26
10
0
20
0
30
0
70
128
71
4
72
5
73
6
0
VERTEX
8
OBJECT__26
10
0
20
0
30
0
70
128
71
7
72
8
73
9
0
VERTEX
8
OBJECT__26
10
0
20
0
30
0
70
128
71
7
72
10
73
11
0
VERTEX
8
OBJECT__26
10
0
20
0
30
0
70
128
71
7
72
12
73
13
0
VERTEX
8
OBJECT__26
10
0
20
0
30
0
70
128
71
3
72
14
73
1
0
VERTEX
8
OBJECT__26
10
0
20
0
30
0
70
128
71
4
72
7
73
5
0
VERTEX
8
OBJECT__26
10
0
20
0
30
0
70
128
71
11
72
8
73
7
0
VERTEX
8
OBJECT__26
10
0
20
0
30
0
70
128
71
7
72
15
73
16
0
VERTEX
8
OBJECT__26
10
0
20
0
30
0
70
128
71
13
72
17
73
7
0
VERTEX
8
OBJECT__26
10
0
20
0
30
0
70
128
71
1
72
18
73
2
0
VERTEX
8
OBJECT__26
10
0
20
0
30
0
70
128
71
6
72
19
73
4
0
VERTEX
8
OBJECT__26
10
0
20
0
30
0
70
128
71
16
72
10
73
7
0
VERTEX
8
OBJECT__26
10
0
20
0
30
0
70
128
71
7
72
20
73
12
0
VERTEX
8
OBJECT__26
10
0
20
0
30
0
70
128
71
20
72
7
73
4
0
VERTEX
8
OBJECT__26
10
0
20
0
30
0
70
128
71
19
72
1
73
4
0
VERTEX
8
OBJECT__26
10
0
20
0
30
0
70
128
71
17
72
15
73
7
0
VERTEX
8
OBJECT__26
10
0
20
0
30
0
70
128
71
14
72
4
73
1
0
VERTEX
8
OBJECT__26
10
0
20
0
30
0
70
128
71
7
72
21
73
22
0
VERTEX
8
OBJECT__26
10
0
20
0
30
0
70
128
71
4
72
23
73
20
0
VERTEX
8
OBJECT__26
10
0
20
0
30
0
70
128
71
9
72
21
73
7
0
VERTEX
8
OBJECT__26
10
0
20
0
30
0
70
128
71
22
72
24
73
7
0
SEQEND
8
OBJECT__26
0
POLYLINE
8
OBJECT__27
66
1
70
64
71
11
72
9
62
253
0
VERTEX
8
OBJECT__27
10
188.843002
20
9.788000
30
-19.184000
70
192
0
VERTEX
8
OBJECT__27
10
189.542999
20
9.784000
30
-18.466999
70
192
0
VERTEX
8
OBJECT__27
10
189.526001
20
3.343000
30
-18.483999
70
192
0
VERTEX
8
OBJECT__27
10
189.509003
20
-3.098000
30
-18.500999
70
192
0
VERTEX
8
OBJECT__27
10
189.492004
20
-9.649000
30
-18.518000
70
192
0
VERTEX
8
OBJECT__27
10
188.966003
20
-8.246000
30
-19.211000
70
192
0
VERTEX
8
OBJECT__27
10
188.977005
20
-9.646000
30
-19.211000
70
192
0
VERTEX
8
OBJECT__27
10
188.869003
20
-3.094000
30
-19.211000
70
192
0
VERTEX
8
OBJECT__27
10
188.817001
20
-0.334000
30
-19.211000
70
192
0
VERTEX
8
OBJECT__27
10
188.826004
20
3.347000
30
-19.201000
70
192
0
VERTEX
8
OBJECT__27
10
189.516998
20
0.064000
30
-18.492001
70
192
0
VERTEX
8
OBJECT__27
10
0
20
0
30
0
70
128
71
1
72
2
73
3
0
VERTEX
8
OBJECT__27
10
0
20
0
30
0
70
128
71
4
72
5
73
6
0
VERTEX
8
OBJECT__27
10
0
20
0
30
0
70
128
71
5
72
7
73
6
0
VERTEX
8
OBJECT__27
10
0
20
0
30
0
70
128
71
4
72
8
73
9
0
VERTEX
8
OBJECT__27
10
0
20
0
30
0
70
128
71
10
72
3
73
11
0
VERTEX
8
OBJECT__27
10
0
20
0
30
0
70
128
71
11
72
9
73
10
0
VERTEX
8
OBJECT__27
10
0
20
0
30
0
70
128
71
9
72
11
73
4
0
VERTEX
8
OBJECT__27
10
0
20
0
30
0
70
128
71
6
72
8
73
4
0
VERTEX
8
OBJECT__27
10
0
20
0
30
0
70
128
71
3
72
10
73
1
0
SEQEND
8
OBJECT__27
0
POLYLINE
8
OBJECT__28
66
1
70
64
71
10
72
8
62
253
0
VERTEX
8
OBJECT__28
10
189.459000
20
10.281000
30
-18.462000
70
192
0
VERTEX
8
OBJECT__28
10
189.542999
20
9.784000
30
-18.466999
70
192
0
VERTEX
8
OBJECT__28
10
188.843002
20
9.788000
30
-19.184000
70
192
0
VERTEX
8
OBJECT__28
10
189.216003
20
10.722000
30
-18.459999
70
192
0
VERTEX
8
OBJECT__28
10
188.798004
20
10.053000
30
-19.183001
70
192
0
VERTEX
8
OBJECT__28
10
188.669006
20
10.288000
30
-19.183001
70
192
0
VERTEX
8
OBJECT__28
10
188.468994
20
10.467000
30
-19.181999
70
192
0
VERTEX
8
OBJECT__28
10
188.841003
20
11.057000
30
-18.461000
70
192
0
VERTEX
8
OBJECT__28
10
188.440994
20
10.484000
30
-19.181999
70
192
0
VERTEX
8
OBJECT__28
10
188.789993
20
11.088000
30
-18.461000
70
192
0
VERTEX
8
OBJECT__28
10
0
20
0
30
0
70
128
71
1
72
2
73
3
0
VERTEX
8
OBJECT__28
10
0
20
0
30
0
70
128
71
4
72
1
73
5
0
VERTEX
8
OBJECT__28
10
0
20
0
30
0
70
128
71
4
72
6
73
7
0
VERTEX
8
OBJECT__28
10
0
20
0
30
0
70
128
71
8
72
7
73
9
0
VERTEX
8
OBJECT__28
10
0
20
0
30
0
70
128
71
9
72
10
73
8
0
VERTEX
8
OBJECT__28
10
0
20
0
30
0
70
128
71
7
72
8
73
4
0
VERTEX
8
OBJECT__28
10
0
20
0
30
0
70
128
71
5
72
6
73
4
0
VERTEX
8
OBJECT__28
10
0
20
0
30
0
70
128
71
3
72
5
73
1
0
SEQEND
8
OBJECT__28
0
POLYLINE
8
OBJECT__29
66
1
70
64
71
82
72
80
62
253
0
VERTEX
8
OBJECT__29
10
22.676001
20
16.202999
30
40.460999
70
192
0
VERTEX
8
OBJECT__29
10
22.674000
20
17.426001
30
39.757000
70
192
0
VERTEX
8
OBJECT__29
10
14.862000
20
19.253000
30
42.993999
70
192
0
VERTEX
8
OBJECT__29
10
32.235001
20
14.441000
30
37.403999
70
192
0
VERTEX
8
OBJECT__29
10
32.231998
20
15.692000
30
36.682999
70
192
0
VERTEX
8
OBJECT__29
10
23.021000
20
17.363001
30
39.645000
70
192
0
VERTEX
8
OBJECT__29
10
44.442001
20
12.684000
30
34.349998
70
192
0
VERTEX
8
OBJECT__29
10
44.835999
20
13.894000
30
33.522999
70
192
0
VERTEX
8
OBJECT__29
10
33.852001
20
15.461000
30
36.277000
70
192
0
VERTEX
8
OBJECT__29
10
33.422001
20
14.270000
30
37.106998
70
192
0
VERTEX
8
OBJECT__29
10
45.139999
20
12.583000
30
34.174999
70
192
0
VERTEX
8
OBJECT__29
10
45.139000
20
13.851000
30
33.446999
70
192
0
VERTEX
8
OBJECT__29
10
59.442001
20
11.006000
30
31.419001
70
192
0
VERTEX
8
OBJECT__29
10
59.439999
20
12.282000
30
30.688999
70
192
0
VERTEX
8
OBJECT__29
10
75.109001
20
9.740000
30
29.156000
70
192
0
VERTEX
8
OBJECT__29
10
75.107002
20
11.026000
30
28.420000
70
192
0
VERTEX
8
OBJECT__29
10
66.966003
20
11.679000
30
29.599001
70
192
0
VERTEX
8
OBJECT__29
10
66.630997
20
10.425000
30
30.379999
70
192
0
VERTEX
8
OBJECT__29
10
90.650002
20
8.892000
30
27.695999
70
192
0
VERTEX
8
OBJECT__29
10
90.654999
20
10.186000
30
26.951000
70
192
0
VERTEX
8
OBJECT__29
10
89.345001
20
10.256000
30
27.075001
70
192
0
VERTEX
8
OBJECT__29
10
89.068001
20
8.978000
30
27.844999
70
192
0
VERTEX
8
OBJECT__29
10
96.745003
20
9.949000
30
26.597000
70
192
0
VERTEX
8
OBJECT__29
10
96.736000
20
8.654000
30
27.341999
70
192
0
VERTEX
8
OBJECT__29
10
112.148003
20
8.230000
30
26.927999
70
192
0
VERTEX
8
OBJECT__29
10
116.209999
20
8.118000
30
26.819000
70
192
0
VERTEX
8
OBJECT__29
10
116.232002
20
9.408000
30
26.083000
70
192
0
VERTEX
8
OBJECT__29
10
112.331001
20
9.517000
30
26.186001
70
192
0
VERTEX
8
OBJECT__29
10
134.386002
20
7.902000
30
26.757999
70
192
0
VERTEX
8
OBJECT__29
10
137.600006
20
7.863000
30
26.747000
70
192
0
VERTEX
8
OBJECT__29
10
137.580002
20
9.144000
30
26.028999
70
192
0
VERTEX
8
OBJECT__29
10
134.569000
20
9.181000
30
26.037001
70
192
0
VERTEX
8
OBJECT__29
10
147.542007
20
8.029000
30
26.584999
70
192
0
VERTEX
8
OBJECT__29
10
147.496994
20
9.298000
30
25.886999
70
192
0
VERTEX
8
OBJECT__29
10
154.022003
20
8.189000
30
26.341000
70
192
0
VERTEX
8
OBJECT__29
10
154.811005
20
8.209000
30
26.311001
70
192
0
VERTEX
8
OBJECT__29
10
154.738998
20
9.470000
30
25.625999
70
192
0
VERTEX
8
OBJECT__29
10
153.990005
20
9.452000
30
25.653000
70
192
0
VERTEX
8
OBJECT__29
10
159.862000
20
8.353000
30
25.900000
70
192
0
VERTEX
8
OBJECT__29
10
159.720993
20
9.615000
30
25.219999
70
192
0
VERTEX
8
OBJECT__29
10
161.242996
20
9.659000
30
25.096001
70
192
0
VERTEX
8
OBJECT__29
10
161.363998
20
8.396000
30
25.777000
70
192
0
VERTEX
8
OBJECT__29
10
165.554993
20
8.522000
30
25.011999
70
192
0
VERTEX
8
OBJECT__29
10
165.311996
20
9.794000
30
24.340000
70
192
0
VERTEX
8
OBJECT__29
10
167.117004
20
9.854000
30
24.004000
70
192
0
VERTEX
8
OBJECT__29
10
167.332993
20
8.575000
30
24.687000
70
192
0
VERTEX
8
OBJECT__29
10
168.184006
20
8.601000
30
24.457001
70
192
0
VERTEX
8
OBJECT__29
10
167.949997
20
9.883000
30
23.775000
70
192
0
VERTEX
8
OBJECT__29
10
171.063004
20
8.691000
30
23.389000
70
192
0
VERTEX
8
OBJECT__29
10
170.725006
20
9.983000
30
22.731001
70
192
0
VERTEX
8
OBJECT__29
10
173.078003
20
8.754000
30
22.642000
70
192
0
VERTEX
8
OBJECT__29
10
172.723999
20
10.054000
30
21.979000
70
192
0
VERTEX
8
OBJECT__29
10
176.257004
20
8.859000
30
20.917999
70
192
0
VERTEX
8
OBJECT__29
10
175.815002
20
10.170000
30
20.287001
70
192
0
VERTEX
8
OBJECT__29
10
176.317001
20
8.861000
30
20.872000
70
192
0
VERTEX
8
OBJECT__29
10
179.947006
20
8.990000
30
18.158001
70
192
0
VERTEX
8
OBJECT__29
10
179.393005
20
10.312000
30
17.598000
70
192
0
VERTEX
8
OBJECT__29
10
180.828995
20
9.025000
30
17.208000
70
192
0
VERTEX
8
OBJECT__29
10
182.945007
20
9.108000
30
14.927000
70
192
0
VERTEX
8
OBJECT__29
10
182.289001
20
10.435000
30
14.475000
70
192
0
VERTEX
8
OBJECT__29
10
180.304001
20
10.351000
30
16.615000
70
192
0
VERTEX
8
OBJECT__29
10
184.339005
20
9.175000
30
12.621000
70
192
0
VERTEX
8
OBJECT__29
10
185.266998
20
9.220000
30
11.087000
70
192
0
VERTEX
8
OBJECT__29
10
184.539993
20
10.544000
30
10.780000
70
192
0
VERTEX
8
OBJECT__29
10
183.738007
20
10.505000
30
12.095000
70
192
0
VERTEX
8
OBJECT__29
10
186.692001
20
9.307000
30
7.370000
70
192
0
VERTEX
8
OBJECT__29
10
185.944000
20
10.623000
30
7.169000
70
192
0
VERTEX
8
OBJECT__29
10
188.048004
20
9.419000
30
1.415000
70
192
0
VERTEX
8
OBJECT__29
10
187.300003
20
10.724000
30
1.316000
70
192
0
VERTEX
8
OBJECT__29
10
186.031998
20
10.630000
30
6.791000
70
192
0
VERTEX
8
OBJECT__29
10
186.722000
20
9.310000
30
7.237000
70
192
0
VERTEX
8
OBJECT__29
10
189.052994
20
9.571000
30
-7.493000
70
192
0
VERTEX
8
OBJECT__29
10
188.307999
20
10.871000
30
-7.525000
70
192
0
VERTEX
8
OBJECT__29
10
187.332993
20
10.729000
30
1.032000
70
192
0
VERTEX
8
OBJECT__29
10
189.160995
20
9.618000
30
-9.914000
70
192
0
VERTEX
8
OBJECT__29
10
189.459000
20
10.281000
30
-18.462000
70
192
0
VERTEX
8
OBJECT__29
10
189.216003
20
10.722000
30
-18.459999
70
192
0
VERTEX
8
OBJECT__29
10
189.542999
20
9.784000
30
-18.466999
70
192
0
VERTEX
8
OBJECT__29
10
188.419998
20
10.922000
30
-10.061000
70
192
0
VERTEX
8
OBJECT__29
10
188.841003
20
11.057000
30
-18.461000
70
192
0
VERTEX
8
OBJECT__29
10
188.789993
20
11.088000
30
-18.461000
70
192
0
VERTEX
8
OBJECT__29
10
14.862000
20
18.073999
30
43.674000
70
192
0
VERTEX
8
OBJECT__29
10
0
20
0
30
0
70
128
71
1
72
2
73
3
0
VERTEX
8
OBJECT__29
10
0
20
0
30
0
70
128
71
4
72
5
73
6
0
VERTEX
8
OBJECT__29
10
0
20
0
30
0
70
128
71
6
72
1
73
4
0
VERTEX
8
OBJECT__29
10
0
20
0
30
0
70
128
71
7
72
8
73
9
0
VERTEX
8
OBJECT__29
10
0
20
0
30
0
70
128
71
9
72
10
73
7
0
VERTEX
8
OBJECT__29
10
0
20
0
30
0
70
128
71
11
72
12
73
8
0
VERTEX
8
OBJECT__29
10
0
20
0
30
0
70
128
71
5
72
4
73
10
0
VERTEX
8
OBJECT__29
10
0
20
0
30
0
70
128
71
10
72
9
73
5
0
VERTEX
8
OBJECT__29
10
0
20
0
30
0
70
128
71
11
72
13
73
14
0
VERTEX
8
OBJECT__29
10
0
20
0
30
0
70
128
71
15
72
16
73
17
0
VERTEX
8
OBJECT__29
10
0
20
0
30
0
70
128
71
14
72
13
73
18
0
VERTEX
8
OBJECT__29
10
0
20
0
30
0
70
128
71
18
72
17
73
14
0
VERTEX
8
OBJECT__29
10
0
20
0
30
0
70
128
71
19
72
20
73
21
0
VERTEX
8
OBJECT__29
10
0
20
0
30
0
70
128
71
16
72
15
73
22
0
VERTEX
8
OBJECT__29
10
0
20
0
30
0
70
128
71
22
72
21
73
16
0
VERTEX
8
OBJECT__29
10
0
20
0
30
0
70
128
71
23
72
20
73
19
0
VERTEX
8
OBJECT__29
10
0
20
0
30
0
70
128
71
23
72
24
73
25
0
VERTEX
8
OBJECT__29
10
0
20
0
30
0
70
128
71
26
72
27
73
28
0
VERTEX
8
OBJECT__29
10
0
20
0
30
0
70
128
71
28
72
25
73
26
0
VERTEX
8
OBJECT__29
10
0
20
0
30
0
70
128
71
27
72
26
73
29
0
VERTEX
8
OBJECT__29
10
0
20
0
30
0
70
128
71
30
72
31
73
32
0
VERTEX
8
OBJECT__29
10
0
20
0
30
0
70
128
71
32
72
29
73
30
0
VERTEX
8
OBJECT__29
10
0
20
0
30
0
70
128
71
30
72
33
73
34
0
VERTEX
8
OBJECT__29
10
0
20
0
30
0
70
128
71
34
72
33
73
35
0
VERTEX
8
OBJECT__29
10
0
20
0
30
0
70
128
71
36
72
37
73
38
0
VERTEX
8
OBJECT__29
10
0
20
0
30
0
70
128
71
38
72
35
73
36
0
VERTEX
8
OBJECT__29
10
0
20
0
30
0
70
128
71
36
72
39
73
40
0
VERTEX
8
OBJECT__29
10
0
20
0
30
0
70
128
71
41
72
40
73
39
0
VERTEX
8
OBJECT__29
10
0
20
0
30
0
70
128
71
39
72
42
73
41
0
VERTEX
8
OBJECT__29
10
0
20
0
30
0
70
128
71
42
72
43
73
44
0
VERTEX
8
OBJECT__29
10
0
20
0
30
0
70
128
71
45
72
44
73
43
0
VERTEX
8
OBJECT__29
10
0
20
0
30
0
70
128
71
43
72
46
73
45
0
VERTEX
8
OBJECT__29
10
0
20
0
30
0
70
128
71
47
72
48
73
45
0
VERTEX
8
OBJECT__29
10
0
20
0
30
0
70
128
71
49
72
50
73
48
0
VERTEX
8
OBJECT__29
10
0
20
0
30
0
70
128
71
49
72
51
73
52
0
VERTEX
8
OBJECT__29
10
0
20
0
30
0
70
128
71
52
72
50
73
49
0
VERTEX
8
OBJECT__29
10
0
20
0
30
0
70
128
71
53
72
54
73
52
0
VERTEX
8
OBJECT__29
10
0
20
0
30
0
70
128
71
55
72
56
73
57
0
VERTEX
8
OBJECT__29
10
0
20
0
30
0
70
128
71
54
72
53
73
55
0
VERTEX
8
OBJECT__29
10
0
20
0
30
0
70
128
71
57
72
56
73
58
0
VERTEX
8
OBJECT__29
10
0
20
0
30
0
70
128
71
59
72
60
73
61
0
VERTEX
8
OBJECT__29
10
0
20
0
30
0
70
128
71
61
72
58
73
59
0
VERTEX
8
OBJECT__29
10
0
20
0
30
0
70
128
71
60
72
59
73
62
0
VERTEX
8
OBJECT__29
10
0
20
0
30
0
70
128
71
63
72
64
73
65
0
VERTEX
8
OBJECT__29
10
0
20
0
30
0
70
128
71
65
72
62
73
63
0
VERTEX
8
OBJECT__29
10
0
20
0
30
0
70
128
71
63
72
66
73
67
0
VERTEX
8
OBJECT__29
10
0
20
0
30
0
70
128
71
68
72
69
73
70
0
VERTEX
8
OBJECT__29
10
0
20
0
30
0
70
128
71
70
72
71
73
68
0
VERTEX
8
OBJECT__29
10
0
20
0
30
0
70
128
71
67
72
66
73
71
0
VERTEX
8
OBJECT__29
10
0
20
0
30
0
70
128
71
72
72
73
73
74
0
VERTEX
8
OBJECT__29
10
0
20
0
30
0
70
128
71
74
72
68
73
72
0
VERTEX
8
OBJECT__29
10
0
20
0
30
0
70
128
71
73
72
72
73
75
0
VERTEX
8
OBJECT__29
10
0
20
0
30
0
70
128
71
75
72
76
73
77
0
VERTEX
8
OBJECT__29
10
0
20
0
30
0
70
128
71
75
72
78
73
76
0
VERTEX
8
OBJECT__29
10
0
20
0
30
0
70
128
71
77
72
79
73
75
0
VERTEX
8
OBJECT__29
10
0
20
0
30
0
70
128
71
77
72
80
73
79
0
VERTEX
8
OBJECT__29
10
0
20
0
30
0
70
128
71
80
72
81
73
79
0
VERTEX
8
OBJECT__29
10
0
20
0
30
0
70
128
71
75
72
79
73
73
0
VERTEX
8
OBJECT__29
10
0
20
0
30
0
70
128
71
74
72
69
73
68
0
VERTEX
8
OBJECT__29
10
0
20
0
30
0
70
128
71
70
72
67
73
71
0
VERTEX
8
OBJECT__29
10
0
20
0
30
0
70
128
71
67
72
64
73
63
0
VERTEX
8
OBJECT__29
10
0
20
0
30
0
70
128
71
62
72
65
73
60
0
VERTEX
8
OBJECT__29
10
0
20
0
30
0
70
128
71
58
72
61
73
57
0
VERTEX
8
OBJECT__29
10
0
20
0
30
0
70
128
71
57
72
54
73
55
0
VERTEX
8
OBJECT__29
10
0
20
0
30
0
70
128
71
52
72
51
73
53
0
VERTEX
8
OBJECT__29
10
0
20
0
30
0
70
128
71
48
72
47
73
49
0
VERTEX
8
OBJECT__29
10
0
20
0
30
0
70
128
71
45
72
46
73
47
0
VERTEX
8
OBJECT__29
10
0
20
0
30
0
70
128
71
44
72
41
73
42
0
VERTEX
8
OBJECT__29
10
0
20
0
30
0
70
128
71
40
72
37
73
36
0
VERTEX
8
OBJECT__29
10
0
20
0
30
0
70
128
71
35
72
38
73
34
0
VERTEX
8
OBJECT__29
10
0
20
0
30
0
70
128
71
34
72
31
73
30
0
VERTEX
8
OBJECT__29
10
0
20
0
30
0
70
128
71
29
72
32
73
27
0
VERTEX
8
OBJECT__29
10
0
20
0
30
0
70
128
71
25
72
28
73
23
0
VERTEX
8
OBJECT__29
10
0
20
0
30
0
70
128
71
19
72
24
73
23
0
VERTEX
8
OBJECT__29
10
0
20
0
30
0
70
128
71
21
72
22
73
19
0
VERTEX
8
OBJECT__29
10
0
20
0
30
0
70
128
71
17
72
18
73
15
0
VERTEX
8
OBJECT__29
10
0
20
0
30
0
70
128
71
14
72
12
73
11
0
VERTEX
8
OBJECT__29
10
0
20
0
30
0
70
128
71
7
72
11
73
8
0
VERTEX
8
OBJECT__29
10
0
20
0
30
0
70
128
71
6
72
2
73
1
0
VERTEX
8
OBJECT__29
10
0
20
0
30
0
70
128
71
3
72
82
73
1
0
SEQEND
8
OBJECT__29
0
POLYLINE
8
OBJECT__30
66
1
70
64
71
7
72
5
62
253
0
VERTEX
8
OBJECT__30
10
188.440994
20
10.484000
30
-19.181999
70
192
0
VERTEX
8
OBJECT__30
10
179.869003
20
15.406000
30
-19.169001
70
192
0
VERTEX
8
OBJECT__30
10
180.229996
20
16.004000
30
-18.454000
70
192
0
VERTEX
8
OBJECT__30
10
180.218002
20
16.011000
30
-18.454000
70
192
0
VERTEX
8
OBJECT__30
10
171.300003
20
20.333000
30
-19.156000
70
192
0
VERTEX
8
OBJECT__30
10
171.649002
20
20.938000
30
-18.448999
70
192
0
VERTEX
8
OBJECT__30
10
188.789993
20
11.088000
30
-18.461000
70
192
0
VERTEX
8
OBJECT__30
10
0
20
0
30
0
70
128
71
1
72
2
73
3
0
VERTEX
8
OBJECT__30
10
0
20
0
30
0
70
128
71
2
72
4
73
3
0
VERTEX
8
OBJECT__30
10
0
20
0
30
0
70
128
71
2
72
5
73
6
0
VERTEX
8
OBJECT__30
10
0
20
0
30
0
70
128
71
6
72
4
73
2
0
VERTEX
8
OBJECT__30
10
0
20
0
30
0
70
128
71
3
72
7
73
1
0
SEQEND
8
OBJECT__30
0
POLYLINE
8
OBJECT__31
66
1
70
64
71
118
72
134
62
253
0
VERTEX
8
OBJECT__31
10
23.039000
20
25.290001
30
25.875000
70
192
0
VERTEX
8
OBJECT__31
10
23.021000
20
17.363001
30
39.645000
70
192
0
VERTEX
8
OBJECT__31
10
32.231998
20
15.692000
30
36.682999
70
192
0
VERTEX
8
OBJECT__31
10
33.856998
20
22.408001
30
24.157000
70
192
0
VERTEX
8
OBJECT__31
10
33.852001
20
15.461000
30
36.277000
70
192
0
VERTEX
8
OBJECT__31
10
44.835999
20
13.894000
30
33.522999
70
192
0
VERTEX
8
OBJECT__31
10
44.841000
20
20.104000
30
22.819000
70
192
0
VERTEX
8
OBJECT__31
10
45.139000
20
13.851000
30
33.446999
70
192
0
VERTEX
8
OBJECT__31
10
59.439999
20
12.282000
30
30.688999
70
192
0
VERTEX
8
OBJECT__31
10
66.977997
20
16.652000
30
20.952999
70
192
0
VERTEX
8
OBJECT__31
10
89.369003
20
14.403000
30
19.882000
70
192
0
VERTEX
8
OBJECT__31
10
75.107002
20
11.026000
30
28.420000
70
192
0
VERTEX
8
OBJECT__31
10
66.966003
20
11.679000
30
29.599001
70
192
0
VERTEX
8
OBJECT__31
10
112.158997
20
13.400000
30
19.514999
70
192
0
VERTEX
8
OBJECT__31
10
96.745003
20
9.949000
30
26.597000
70
192
0
VERTEX
8
OBJECT__31
10
90.654999
20
10.186000
30
26.951000
70
192
0
VERTEX
8
OBJECT__31
10
89.345001
20
10.256000
30
27.075001
70
192
0
VERTEX
8
OBJECT__31
10
134.662994
20
13.100000
30
19.497000
70
192
0
VERTEX
8
OBJECT__31
10
116.232002
20
9.408000
30
26.083000
70
192
0
VERTEX
8
OBJECT__31
10
112.331001
20
9.517000
30
26.186001
70
192
0
VERTEX
8
OBJECT__31
10
137.580002
20
9.144000
30
26.028999
70
192
0
VERTEX
8
OBJECT__31
10
147.496994
20
9.298000
30
25.886999
70
192
0
VERTEX
8
OBJECT__31
10
134.569000
20
9.181000
30
26.037001
70
192
0
VERTEX
8
OBJECT__31
10
151.666000
20
13.621000
30
19.202000
70
192
0
VERTEX
8
OBJECT__31
10
153.990005
20
9.452000
30
25.653000
70
192
0
VERTEX
8
OBJECT__31
10
154.738998
20
9.470000
30
25.625999
70
192
0
VERTEX
8
OBJECT__31
10
156.490005
20
13.864000
30
18.829000
70
192
0
VERTEX
8
OBJECT__31
10
161.195999
20
14.131000
30
18.049999
70
192
0
VERTEX
8
OBJECT__31
10
159.720993
20
9.615000
30
25.219999
70
192
0
VERTEX
8
OBJECT__31
10
161.242996
20
9.659000
30
25.096001
70
192
0
VERTEX
8
OBJECT__31
10
165.751007
20
14.402000
30
16.596001
70
192
0
VERTEX
8
OBJECT__31
10
167.117004
20
9.854000
30
24.004000
70
192
0
VERTEX
8
OBJECT__31
10
167.949997
20
9.883000
30
23.775000
70
192
0
VERTEX
8
OBJECT__31
10
165.311996
20
9.794000
30
24.340000
70
192
0
VERTEX
8
OBJECT__31
10
170.037003
20
14.665000
30
14.296000
70
192
0
VERTEX
8
OBJECT__31
10
170.725006
20
9.983000
30
22.731001
70
192
0
VERTEX
8
OBJECT__31
10
172.723999
20
10.054000
30
21.979000
70
192
0
VERTEX
8
OBJECT__31
10
173.751999
20
14.920000
30
11.187000
70
192
0
VERTEX
8
OBJECT__31
10
175.815002
20
10.170000
30
20.287001
70
192
0
VERTEX
8
OBJECT__31
10
179.393005
20
10.312000
30
17.598000
70
192
0
VERTEX
8
OBJECT__31
10
180.304001
20
10.351000
30
16.615000
70
192
0
VERTEX
8
OBJECT__31
10
182.289001
20
10.435000
30
14.475000
70
192
0
VERTEX
8
OBJECT__31
10
176.567001
20
15.169000
30
7.333000
70
192
0
VERTEX
8
OBJECT__31
10
184.539993
20
10.544000
30
10.780000
70
192
0
VERTEX
8
OBJECT__31
10
185.944000
20
10.623000
30
7.169000
70
192
0
VERTEX
8
OBJECT__31
10
183.738007
20
10.505000
30
12.095000
70
192
0
VERTEX
8
OBJECT__31
10
178.302994
20
15.411000
30
2.854000
70
192
0
VERTEX
8
OBJECT__31
10
187.300003
20
10.724000
30
1.316000
70
192
0
VERTEX
8
OBJECT__31
10
179.229996
20
15.625000
30
-1.952000
70
192
0
VERTEX
8
OBJECT__31
10
186.031998
20
10.630000
30
6.791000
70
192
0
VERTEX
8
OBJECT__31
10
187.332993
20
10.729000
30
1.032000
70
192
0
VERTEX
8
OBJECT__31
10
188.307999
20
10.871000
30
-7.525000
70
192
0
VERTEX
8
OBJECT__31
10
179.994003
20
15.901000
30
-11.370000
70
192
0
VERTEX
8
OBJECT__31
10
188.789993
20
11.088000
30
-18.461000
70
192
0
VERTEX
8
OBJECT__31
10
180.229996
20
16.004000
30
-18.454000
70
192
0
VERTEX
8
OBJECT__31
10
171.634003
20
20.936001
30
-17.648001
70
192
0
VERTEX
8
OBJECT__31
10
171.464996
20
20.804001
30
-12.685000
70
192
0
VERTEX
8
OBJECT__31
10
180.218002
20
16.011000
30
-18.454000
70
192
0
VERTEX
8
OBJECT__31
10
171.649002
20
20.938000
30
-18.448999
70
192
0
VERTEX
8
OBJECT__31
10
171.268997
20
20.649000
30
-6.900000
70
192
0
VERTEX
8
OBJECT__31
10
170.625000
20
20.257000
30
-1.613000
70
192
0
VERTEX
8
OBJECT__31
10
170.492996
20
20.214001
30
-1.112000
70
192
0
VERTEX
8
OBJECT__31
10
171.031998
20
20.504999
30
-4.950000
70
192
0
VERTEX
8
OBJECT__31
10
170.154999
20
20.103001
30
0.162000
70
192
0
VERTEX
8
OBJECT__31
10
169.134995
20
19.888000
30
2.421000
70
192
0
VERTEX
8
OBJECT__31
10
168.705994
20
19.798000
30
3.372000
70
192
0
VERTEX
8
OBJECT__31
10
167.766006
20
19.653999
30
4.737000
70
192
0
VERTEX
8
OBJECT__31
10
166.977005
20
19.556000
30
5.562000
70
192
0
VERTEX
8
OBJECT__31
10
165.238998
20
19.339001
30
7.379000
70
192
0
VERTEX
8
OBJECT__31
10
163.345993
20
19.132000
30
8.812000
70
192
0
VERTEX
8
OBJECT__31
10
164.091995
20
19.214001
30
8.247000
70
192
0
VERTEX
8
OBJECT__31
10
160.666000
20
18.850000
30
10.245000
70
192
0
VERTEX
8
OBJECT__31
10
159.639008
20
18.743000
30
10.793000
70
192
0
VERTEX
8
OBJECT__31
10
155.378006
20
18.292999
30
12.080000
70
192
0
VERTEX
8
OBJECT__31
10
150.669998
20
17.851000
30
12.719000
70
192
0
VERTEX
8
OBJECT__31
10
157.035995
20
18.468000
30
11.579000
70
192
0
VERTEX
8
OBJECT__31
10
145.505005
20
17.479000
30
12.951000
70
192
0
VERTEX
8
OBJECT__31
10
139.852997
20
17.194000
30
12.982000
70
192
0
VERTEX
8
OBJECT__31
10
135.626999
20
17.065001
30
12.983000
70
192
0
VERTEX
8
OBJECT__31
10
149.363998
20
17.757000
30
12.778000
70
192
0
VERTEX
8
OBJECT__31
10
134.757004
20
17.068001
30
12.982000
70
192
0
VERTEX
8
OBJECT__31
10
120.304001
20
17.118000
30
12.957000
70
192
0
VERTEX
8
OBJECT__31
10
115.383003
20
17.211000
30
12.935000
70
192
0
VERTEX
8
OBJECT__31
10
111.989998
20
17.349001
30
12.909000
70
192
0
VERTEX
8
OBJECT__31
10
97.036003
20
17.952999
30
12.792000
70
192
0
VERTEX
8
OBJECT__31
10
82.252998
20
19.365000
30
12.614000
70
192
0
VERTEX
8
OBJECT__31
10
67.264999
20
21.636000
30
12.401000
70
192
0
VERTEX
8
OBJECT__31
10
89.406998
20
18.681999
30
12.700000
70
192
0
VERTEX
8
OBJECT__31
10
67.010002
20
21.686001
30
12.397000
70
192
0
VERTEX
8
OBJECT__31
10
51.887001
20
24.664000
30
12.193000
70
192
0
VERTEX
8
OBJECT__31
10
44.875000
20
26.420000
30
12.135000
70
192
0
VERTEX
8
OBJECT__31
10
38.313999
20
28.063999
30
12.082000
70
192
0
VERTEX
8
OBJECT__31
10
33.948002
20
29.360001
30
12.074000
70
192
0
VERTEX
8
OBJECT__31
10
23.955000
20
32.867001
30
12.105000
70
192
0
VERTEX
8
OBJECT__31
10
12.664000
20
29.084999
30
28.115000
70
192
0
VERTEX
8
OBJECT__31
10
23.080000
20
33.269001
30
12.108000
70
192
0
VERTEX
8
OBJECT__31
10
15.534000
20
36.731998
30
12.139000
70
192
0
VERTEX
8
OBJECT__31
10
4.753000
20
36.047001
30
24.966999
70
192
0
VERTEX
8
OBJECT__31
10
3.960000
20
34.544998
30
28.535000
70
192
0
VERTEX
8
OBJECT__31
10
5.424000
20
36.638000
30
23.132000
70
192
0
VERTEX
8
OBJECT__31
10
12.689000
20
37.355999
30
13.796000
70
192
0
VERTEX
8
OBJECT__31
10
12.533000
20
37.389999
30
13.886000
70
192
0
VERTEX
8
OBJECT__31
10
10.836000
20
37.602001
30
15.285000
70
192
0
VERTEX
8
OBJECT__31
10
8.328000
20
37.596001
30
18.066999
70
192
0
VERTEX
8
OBJECT__31
10
7.189000
20
37.400002
30
19.719999
70
192
0
VERTEX
8
OBJECT__31
10
9.513000
20
23.230000
30
41.571999
70
192
0
VERTEX
8
OBJECT__31
10
11.331000
20
21.632000
30
42.373001
70
192
0
VERTEX
8
OBJECT__31
10
7.253000
20
25.698000
30
39.874001
70
192
0
VERTEX
8
OBJECT__31
10
4.672000
20
29.832001
30
35.808998
70
192
0
VERTEX
8
OBJECT__31
10
6.071000
20
27.313000
30
38.477001
70
192
0
VERTEX
8
OBJECT__31
10
3.815000
20
33.431999
30
30.636999
70
192
0
VERTEX
8
OBJECT__31
10
4.135000
20
31.290001
30
33.945000
70
192
0
VERTEX
8
OBJECT__31
10
3.815000
20
33.433998
30
30.632999
70
192
0
VERTEX
8
OBJECT__31
10
14.185000
20
19.643999
30
42.953999
70
192
0
VERTEX
8
OBJECT__31
10
14.862000
20
19.253000
30
42.993999
70
192
0
VERTEX
8
OBJECT__31
10
12.655000
20
20.709999
30
42.643002
70
192
0
VERTEX
8
OBJECT__31
10
22.674000
20
17.426001
30
39.757000
70
192
0
VERTEX
8
OBJECT__31
10
188.419998
20
10.922000
30
-10.061000
70
192
0
VERTEX
8
OBJECT__31
10
0
20
0
30
0
70
128
71
1
72
2
73
3
0
VERTEX
8
OBJECT__31
10
0
20
0
30
0
70
128
71
3
72
4
73
1
0
VERTEX
8
OBJECT__31
10
0
20
0
30
0
70
128
71
4
72
5
73
6
0
VERTEX
8
OBJECT__31
10
0
20
0
30
0
70
128
71
7
72
8
73
9
0
VERTEX
8
OBJECT__31
10
0
20
0
30
0
70
128
71
9
72
10
73
7
0
VERTEX
8
OBJECT__31
10
0
20
0
30
0
70
128
71
7
72
6
73
8
0
VERTEX
8
OBJECT__31
10
0
20
0
30
0
70
128
71
11
72
10
73
12
0
VERTEX
8
OBJECT__31
10
0
20
0
30
0
70
128
71
10
72
13
73
12
0
VERTEX
8
OBJECT__31
10
0
20
0
30
0
70
128
71
14
72
11
73
15
0
VERTEX
8
OBJECT__31
10
0
20
0
30
0
70
128
71
11
72
16
73
15
0
VERTEX
8
OBJECT__31
10
0
20
0
30
0
70
128
71
11
72
17
73
16
0
VERTEX
8
OBJECT__31
10
0
20
0
30
0
70
128
71
18
72
14
73
19
0
VERTEX
8
OBJECT__31
10
0
20
0
30
0
70
128
71
14
72
20
73
19
0
VERTEX
8
OBJECT__31
10
0
20
0
30
0
70
128
71
18
72
21
73
22
0
VERTEX
8
OBJECT__31
10
0
20
0
30
0
70
128
71
18
72
23
73
21
0
VERTEX
8
OBJECT__31
10
0
20
0
30
0
70
128
71
22
72
24
73
18
0
VERTEX
8
OBJECT__31
10
0
20
0
30
0
70
128
71
24
72
25
73
26
0
VERTEX
8
OBJECT__31
10
0
20
0
30
0
70
128
71
26
72
27
73
24
0
VERTEX
8
OBJECT__31
10
0
20
0
30
0
70
128
71
28
72
27
73
29
0
VERTEX
8
OBJECT__31
10
0
20
0
30
0
70
128
71
29
72
30
73
28
0
VERTEX
8
OBJECT__31
10
0
20
0
30
0
70
128
71
31
72
32
73
33
0
VERTEX
8
OBJECT__31
10
0
20
0
30
0
70
128
71
31
72
28
73
34
0
VERTEX
8
OBJECT__31
10
0
20
0
30
0
70
128
71
34
72
32
73
31
0
VERTEX
8
OBJECT__31
10
0
20
0
30
0
70
128
71
35
72
31
73
36
0
VERTEX
8
OBJECT__31
10
0
20
0
30
0
70
128
71
36
72
37
73
35
0
VERTEX
8
OBJECT__31
10
0
20
0
30
0
70
128
71
38
72
35
73
39
0
VERTEX
8
OBJECT__31
10
0
20
0
30
0
70
128
71
39
72
40
73
38
0
VERTEX
8
OBJECT__31
10
0
20
0
30
0
70
128
71
38
72
41
73
42
0
VERTEX
8
OBJECT__31
10
0
20
0
30
0
70
128
71
42
72
43
73
38
0
VERTEX
8
OBJECT__31
10
0
20
0
30
0
70
128
71
43
72
44
73
45
0
VERTEX
8
OBJECT__31
10
0
20
0
30
0
70
128
71
43
72
46
73
44
0
VERTEX
8
OBJECT__31
10
0
20
0
30
0
70
128
71
45
72
47
73
43
0
VERTEX
8
OBJECT__31
10
0
20
0
30
0
70
128
71
48
72
49
73
47
0
VERTEX
8
OBJECT__31
10
0
20
0
30
0
70
128
71
47
72
50
73
48
0
VERTEX
8
OBJECT__31
10
0
20
0
30
0
70
128
71
49
72
51
73
52
0
VERTEX
8
OBJECT__31
10
0
20
0
30
0
70
128
71
52
72
53
73
49
0
VERTEX
8
OBJECT__31
10
0
20
0
30
0
70
128
71
54
72
55
73
53
0
VERTEX
8
OBJECT__31
10
0
20
0
30
0
70
128
71
55
72
56
73
57
0
VERTEX
8
OBJECT__31
10
0
20
0
30
0
70
128
71
56
72
55
73
58
0
VERTEX
8
OBJECT__31
10
0
20
0
30
0
70
128
71
58
72
59
73
56
0
VERTEX
8
OBJECT__31
10
0
20
0
30
0
70
128
71
53
72
57
73
60
0
VERTEX
8
OBJECT__31
10
0
20
0
30
0
70
128
71
60
72
49
73
53
0
VERTEX
8
OBJECT__31
10
0
20
0
30
0
70
128
71
49
72
61
73
62
0
VERTEX
8
OBJECT__31
10
0
20
0
30
0
70
128
71
49
72
63
73
61
0
VERTEX
8
OBJECT__31
10
0
20
0
30
0
70
128
71
47
72
64
73
65
0
VERTEX
8
OBJECT__31
10
0
20
0
30
0
70
128
71
47
72
62
73
64
0
VERTEX
8
OBJECT__31
10
0
20
0
30
0
70
128
71
43
72
66
73
67
0
VERTEX
8
OBJECT__31
10
0
20
0
30
0
70
128
71
67
72
38
73
43
0
VERTEX
8
OBJECT__31
10
0
20
0
30
0
70
128
71
43
72
65
73
66
0
VERTEX
8
OBJECT__31
10
0
20
0
30
0
70
128
71
38
72
68
73
69
0
VERTEX
8
OBJECT__31
10
0
20
0
30
0
70
128
71
69
72
35
73
38
0
VERTEX
8
OBJECT__31
10
0
20
0
30
0
70
128
71
31
72
35
73
70
0
VERTEX
8
OBJECT__31
10
0
20
0
30
0
70
128
71
35
72
71
73
70
0
VERTEX
8
OBJECT__31
10
0
20
0
30
0
70
128
71
31
72
72
73
73
0
VERTEX
8
OBJECT__31
10
0
20
0
30
0
70
128
71
73
72
28
73
31
0
VERTEX
8
OBJECT__31
10
0
20
0
30
0
70
128
71
74
72
75
73
24
0
VERTEX
8
OBJECT__31
10
0
20
0
30
0
70
128
71
24
72
27
73
74
0
VERTEX
8
OBJECT__31
10
0
20
0
30
0
70
128
71
27
72
28
73
76
0
VERTEX
8
OBJECT__31
10
0
20
0
30
0
70
128
71
76
72
74
73
27
0
VERTEX
8
OBJECT__31
10
0
20
0
30
0
70
128
71
18
72
24
73
77
0
VERTEX
8
OBJECT__31
10
0
20
0
30
0
70
128
71
77
72
78
73
18
0
VERTEX
8
OBJECT__31
10
0
20
0
30
0
70
128
71
78
72
79
73
18
0
VERTEX
8
OBJECT__31
10
0
20
0
30
0
70
128
71
24
72
80
73
77
0
VERTEX
8
OBJECT__31
10
0
20
0
30
0
70
128
71
18
72
81
73
82
0
VERTEX
8
OBJECT__31
10
0
20
0
30
0
70
128
71
82
72
14
73
18
0
VERTEX
8
OBJECT__31
10
0
20
0
30
0
70
128
71
82
72
83
73
14
0
VERTEX
8
OBJECT__31
10
0
20
0
30
0
70
128
71
14
72
84
73
85
0
VERTEX
8
OBJECT__31
10
0
20
0
30
0
70
128
71
85
72
11
73
14
0
VERTEX
8
OBJECT__31
10
0
20
0
30
0
70
128
71
10
72
11
73
86
0
VERTEX
8
OBJECT__31
10
0
20
0
30
0
70
128
71
86
72
87
73
10
0
VERTEX
8
OBJECT__31
10
0
20
0
30
0
70
128
71
11
72
88
73
86
0
VERTEX
8
OBJECT__31
10
0
20
0
30
0
70
128
71
10
72
89
73
90
0
VERTEX
8
OBJECT__31
10
0
20
0
30
0
70
128
71
90
72
7
73
10
0
VERTEX
8
OBJECT__31
10
0
20
0
30
0
70
128
71
7
72
91
73
92
0
VERTEX
8
OBJECT__31
10
0
20
0
30
0
70
128
71
92
72
4
73
7
0
VERTEX
8
OBJECT__31
10
0
20
0
30
0
70
128
71
1
72
4
73
93
0
VERTEX
8
OBJECT__31
10
0
20
0
30
0
70
128
71
93
72
94
73
1
0
VERTEX
8
OBJECT__31
10
0
20
0
30
0
70
128
71
95
72
1
73
96
0
VERTEX
8
OBJECT__31
10
0
20
0
30
0
70
128
71
96
72
97
73
95
0
VERTEX
8
OBJECT__31
10
0
20
0
30
0
70
128
71
95
72
98
73
99
0
VERTEX
8
OBJECT__31
10
0
20
0
30
0
70
128
71
95
72
100
73
98
0
VERTEX
8
OBJECT__31
10
0
20
0
30
0
70
128
71
95
72
101
73
102
0
VERTEX
8
OBJECT__31
10
0
20
0
30
0
70
128
71
102
72
103
73
95
0
VERTEX
8
OBJECT__31
10
0
20
0
30
0
70
128
71
103
72
104
73
95
0
VERTEX
8
OBJECT__31
10
0
20
0
30
0
70
128
71
104
72
105
73
95
0
VERTEX
8
OBJECT__31
10
0
20
0
30
0
70
128
71
105
72
100
73
95
0
VERTEX
8
OBJECT__31
10
0
20
0
30
0
70
128
71
95
72
106
73
107
0
VERTEX
8
OBJECT__31
10
0
20
0
30
0
70
128
71
95
72
108
73
106
0
VERTEX
8
OBJECT__31
10
0
20
0
30
0
70
128
71
95
72
109
73
110
0
VERTEX
8
OBJECT__31
10
0
20
0
30
0
70
128
71
110
72
108
73
95
0
VERTEX
8
OBJECT__31
10
0
20
0
30
0
70
128
71
95
72
111
73
112
0
VERTEX
8
OBJECT__31
10
0
20
0
30
0
70
128
71
112
72
109
73
95
0
VERTEX
8
OBJECT__31
10
0
20
0
30
0
70
128
71
95
72
113
73
111
0
VERTEX
8
OBJECT__31
10
0
20
0
30
0
70
128
71
1
72
114
73
115
0
VERTEX
8
OBJECT__31
10
0
20
0
30
0
70
128
71
1
72
95
73
116
0
VERTEX
8
OBJECT__31
10
0
20
0
30
0
70
128
71
116
72
114
73
1
0
VERTEX
8
OBJECT__31
10
0
20
0
30
0
70
128
71
115
72
117
73
1
0
VERTEX
8
OBJECT__31
10
0
20
0
30
0
70
128
71
117
72
2
73
1
0
VERTEX
8
OBJECT__31
10
0
20
0
30
0
70
128
71
107
72
116
73
95
0
VERTEX
8
OBJECT__31
10
0
20
0
30
0
70
128
71
99
72
113
73
95
0
VERTEX
8
OBJECT__31
10
0
20
0
30
0
70
128
71
97
72
101
73
95
0
VERTEX
8
OBJECT__31
10
0
20
0
30
0
70
128
71
94
72
96
73
1
0
VERTEX
8
OBJECT__31
10
0
20
0
30
0
70
128
71
92
72
93
73
4
0
VERTEX
8
OBJECT__31
10
0
20
0
30
0
70
128
71
90
72
91
73
7
0
VERTEX
8
OBJECT__31
10
0
20
0
30
0
70
128
71
87
72
89
73
10
0
VERTEX
8
OBJECT__31
10
0
20
0
30
0
70
128
71
85
72
88
73
11
0
VERTEX
8
OBJECT__31
10
0
20
0
30
0
70
128
71
83
72
84
73
14
0
VERTEX
8
OBJECT__31
10
0
20
0
30
0
70
128
71
79
72
81
73
18
0
VERTEX
8
OBJECT__31
10
0
20
0
30
0
70
128
71
75
72
80
73
24
0
VERTEX
8
OBJECT__31
10
0
20
0
30
0
70
128
71
73
72
76
73
28
0
VERTEX
8
OBJECT__31
10
0
20
0
30
0
70
128
71
70
72
72
73
31
0
VERTEX
8
OBJECT__31
10
0
20
0
30
0
70
128
71
69
72
71
73
35
0
VERTEX
8
OBJECT__31
10
0
20
0
30
0
70
128
71
67
72
68
73
38
0
VERTEX
8
OBJECT__31
10
0
20
0
30
0
70
128
71
65
72
43
73
47
0
VERTEX
8
OBJECT__31
10
0
20
0
30
0
70
128
71
62
72
47
73
49
0
VERTEX
8
OBJECT__31
10
0
20
0
30
0
70
128
71
60
72
63
73
49
0
VERTEX
8
OBJECT__31
10
0
20
0
30
0
70
128
71
57
72
53
73
55
0
VERTEX
8
OBJECT__31
10
0
20
0
30
0
70
128
71
53
72
118
73
54
0
VERTEX
8
OBJECT__31
10
0
20
0
30
0
70
128
71
52
72
118
73
53
0
VERTEX
8
OBJECT__31
10
0
20
0
30
0
70
128
71
48
72
51
73
49
0
VERTEX
8
OBJECT__31
10
0
20
0
30
0
70
128
71
45
72
50
73
47
0
VERTEX
8
OBJECT__31
10
0
20
0
30
0
70
128
71
42
72
46
73
43
0
VERTEX
8
OBJECT__31
10
0
20
0
30
0
70
128
71
40
72
41
73
38
0
VERTEX
8
OBJECT__31
10
0
20
0
30
0
70
128
71
37
72
39
73
35
0
VERTEX
8
OBJECT__31
10
0
20
0
30
0
70
128
71
33
72
36
73
31
0
VERTEX
8
OBJECT__31
10
0
20
0
30
0
70
128
71
30
72
34
73
28
0
VERTEX
8
OBJECT__31
10
0
20
0
30
0
70
128
71
26
72
29
73
27
0
VERTEX
8
OBJECT__31
10
0
20
0
30
0
70
128
71
22
72
25
73
24
0
VERTEX
8
OBJECT__31
10
0
20
0
30
0
70
128
71
19
72
23
73
18
0
VERTEX
8
OBJECT__31
10
0
20
0
30
0
70
128
71
15
72
20
73
14
0
VERTEX
8
OBJECT__31
10
0
20
0
30
0
70
128
71
12
72
17
73
11
0
VERTEX
8
OBJECT__31
10
0
20
0
30
0
70
128
71
9
72
13
73
10
0
VERTEX
8
OBJECT__31
10
0
20
0
30
0
70
128
71
6
72
7
73
4
0
VERTEX
8
OBJECT__31
10
0
20
0
30
0
70
128
71
3
72
5
73
4
0
SEQEND
8
OBJECT__31
0
POLYLINE
8
OBJECT__32
66
1
70
64
71
8
72
6
62
253
0
VERTEX
8
OBJECT__32
10
171.649002
20
20.938000
30
-18.448999
70
192
0
VERTEX
8
OBJECT__32
10
171.300003
20
20.333000
30
-19.156000
70
192
0
VERTEX
8
OBJECT__32
10
171.048004
20
20.426001
30
-19.156000
70
192
0
VERTEX
8
OBJECT__32
10
171.175995
20
21.113001
30
-18.452999
70
192
0
VERTEX
8
OBJECT__32
10
170.779007
20
20.431000
30
-19.156000
70
192
0
VERTEX
8
OBJECT__32
10
170.673004
20
21.121000
30
-18.458000
70
192
0
VERTEX
8
OBJECT__32
10
170.509995
20
20.337999
30
-19.156000
70
192
0
VERTEX
8
OBJECT__32
10
170.167999
20
20.947001
30
-18.462999
70
192
0
VERTEX
8
OBJECT__32
10
0
20
0
30
0
70
128
71
1
72
2
73
3
0
VERTEX
8
OBJECT__32
10
0
20
0
30
0
70
128
71
4
72
3
73
5
0
VERTEX
8
OBJECT__32
10
0
20
0
30
0
70
128
71
6
72
5
73
7
0
VERTEX
8
OBJECT__32
10
0
20
0
30
0
70
128
71
7
72
8
73
6
0
VERTEX
8
OBJECT__32
10
0
20
0
30
0
70
128
71
5
72
6
73
4
0
VERTEX
8
OBJECT__32
10
0
20
0
30
0
70
128
71
3
72
4
73
1
0
SEQEND
8
OBJECT__32
0
POLYLINE
8
OBJECT__33
66
1
70
64
71
21
72
19
62
253
0
VERTEX
8
OBJECT__33
10
152.964996
20
10.458000
30
-19.181999
70
192
0
VERTEX
8
OBJECT__33
10
152.561005
20
9.796000
30
-19.184000
70
192
0
VERTEX
8
OBJECT__33
10
152.617004
20
10.059000
30
-19.183001
70
192
0
VERTEX
8
OBJECT__33
10
152.559998
20
9.763000
30
-19.184000
70
192
0
VERTEX
8
OBJECT__33
10
188.468994
20
10.467000
30
-19.181999
70
192
0
VERTEX
8
OBJECT__33
10
188.669006
20
10.288000
30
-19.183001
70
192
0
VERTEX
8
OBJECT__33
10
188.798004
20
10.053000
30
-19.183001
70
192
0
VERTEX
8
OBJECT__33
10
170.509995
20
20.337999
30
-19.156000
70
192
0
VERTEX
8
OBJECT__33
10
170.779007
20
20.431000
30
-19.156000
70
192
0
VERTEX
8
OBJECT__33
10
171.048004
20
20.426001
30
-19.156000
70
192
0
VERTEX
8
OBJECT__33
10
152.757004
20
10.288000
30
-19.183001
70
192
0
VERTEX
8
OBJECT__33
10
188.843002
20
9.788000
30
-19.184000
70
192
0
VERTEX
8
OBJECT__33
10
188.440994
20
10.484000
30
-19.181999
70
192
0
VERTEX
8
OBJECT__33
10
171.300003
20
20.333000
30
-19.156000
70
192
0
VERTEX
8
OBJECT__33
10
165.072998
20
17.291000
30
-19.164000
70
192
0
VERTEX
8
OBJECT__33
10
179.869003
20
15.406000
30
-19.169001
70
192
0
VERTEX
8
OBJECT__33
10
152.541000
20
2.974000
30
-19.202000
70
192
0
VERTEX
8
OBJECT__33
10
159.639999
20
14.235000
30
-19.172001
70
192
0
VERTEX
8
OBJECT__33
10
152.531998
20
-0.284000
30
-19.211000
70
192
0
VERTEX
8
OBJECT__33
10
188.826004
20
3.347000
30
-19.201000
70
192
0
VERTEX
8
OBJECT__33
10
188.817001
20
-0.334000
30
-19.211000
70
192
0
VERTEX
8
OBJECT__33
10
0
20
0
30
0
70
128
71
1
72
2
73
3
0
VERTEX
8
OBJECT__33
10
0
20
0
30
0
70
128
71
1
72
4
73
2
0
VERTEX
8
OBJECT__33
10
0
20
0
30
0
70
128
71
5
72
6
73
7
0
VERTEX
8
OBJECT__33
10
0
20
0
30
0
70
128
71
8
72
9
73
10
0
VERTEX
8
OBJECT__33
10
0
20
0
30
0
70
128
71
3
72
11
73
1
0
VERTEX
8
OBJECT__33
10
0
20
0
30
0
70
128
71
12
72
13
73
5
0
VERTEX
8
OBJECT__33
10
0
20
0
30
0
70
128
71
14
72
15
73
8
0
VERTEX
8
OBJECT__33
10
0
20
0
30
0
70
128
71
16
72
17
73
18
0
VERTEX
8
OBJECT__33
10
0
20
0
30
0
70
128
71
18
72
17
73
4
0
VERTEX
8
OBJECT__33
10
0
20
0
30
0
70
128
71
7
72
12
73
5
0
VERTEX
8
OBJECT__33
10
0
20
0
30
0
70
128
71
19
72
16
73
13
0
VERTEX
8
OBJECT__33
10
0
20
0
30
0
70
128
71
10
72
14
73
8
0
VERTEX
8
OBJECT__33
10
0
20
0
30
0
70
128
71
1
72
18
73
4
0
VERTEX
8
OBJECT__33
10
0
20
0
30
0
70
128
71
13
72
20
73
19
0
VERTEX
8
OBJECT__33
10
0
20
0
30
0
70
128
71
18
72
15
73
16
0
VERTEX
8
OBJECT__33
10
0
20
0
30
0
70
128
71
12
72
20
73
13
0
VERTEX
8
OBJECT__33
10
0
20
0
30
0
70
128
71
16
72
19
73
17
0
VERTEX
8
OBJECT__33
10
0
20
0
30
0
70
128
71
14
72
16
73
15
0
VERTEX
8
OBJECT__33
10
0
20
0
30
0
70
128
71
20
72
21
73
19
0
SEQEND
8
OBJECT__33
0
POLYLINE
8
OBJECT__34
66
1
70
64
71
10
72
8
62
253
0
VERTEX
8
OBJECT__34
10
152.541000
20
2.974000
30
-19.202000
70
192
0
VERTEX
8
OBJECT__34
10
151.841003
20
2.974000
30
-18.490999
70
192
0
VERTEX
8
OBJECT__34
10
151.860001
20
9.763000
30
-18.473000
70
192
0
VERTEX
8
OBJECT__34
10
152.531998
20
-0.284000
30
-19.211000
70
192
0
VERTEX
8
OBJECT__34
10
151.834000
20
0.165000
30
-18.497999
70
192
0
VERTEX
8
OBJECT__34
10
151.824005
20
-3.228000
30
-18.507000
70
192
0
VERTEX
8
OBJECT__34
10
152.464996
20
-3.228000
30
-19.211000
70
192
0
VERTEX
8
OBJECT__34
10
152.324997
20
-9.430000
30
-19.211000
70
192
0
VERTEX
8
OBJECT__34
10
151.807007
20
-9.431000
30
-18.524000
70
192
0
VERTEX
8
OBJECT__34
10
152.559998
20
9.763000
30
-19.184000
70
192
0
VERTEX
8
OBJECT__34
10
0
20
0
30
0
70
128
71
1
72
2
73
3
0
VERTEX
8
OBJECT__34
10
0
20
0
30
0
70
128
71
1
72
4
73
5
0
VERTEX
8
OBJECT__34
10
0
20
0
30
0
70
128
71
6
72
5
73
4
0
VERTEX
8
OBJECT__34
10
0
20
0
30
0
70
128
71
4
72
7
73
6
0
VERTEX
8
OBJECT__34
10
0
20
0
30
0
70
128
71
6
72
7
73
8
0
VERTEX
8
OBJECT__34
10
0
20
0
30
0
70
128
71
8
72
9
73
6
0
VERTEX
8
OBJECT__34
10
0
20
0
30
0
70
128
71
5
72
2
73
1
0
VERTEX
8
OBJECT__34
10
0
20
0
30
0
70
128
71
3
72
10
73
1
0
SEQEND
8
OBJECT__34
0
POLYLINE
8
OBJECT__35
66
1
70
64
71
104
72
116
62
253
0
VERTEX
8
OBJECT__35
10
22.389000
20
0.243000
30
-17.705000
70
192
0
VERTEX
8
OBJECT__35
10
23.112000
20
16.106001
30
-17.466999
70
192
0
VERTEX
8
OBJECT__35
10
32.880001
20
14.332000
30
-14.504000
70
192
0
VERTEX
8
OBJECT__35
10
33.173000
20
0.231000
30
-14.416000
70
192
0
VERTEX
8
OBJECT__35
10
22.445000
20
16.264000
30
-17.731001
70
192
0
VERTEX
8
OBJECT__35
10
33.213001
20
14.285000
30
-14.425000
70
192
0
VERTEX
8
OBJECT__35
10
44.152000
20
12.744000
30
-11.835000
70
192
0
VERTEX
8
OBJECT__35
10
44.108002
20
0.216000
30
-11.800000
70
192
0
VERTEX
8
OBJECT__35
10
45.666000
20
12.530000
30
-11.477000
70
192
0
VERTEX
8
OBJECT__35
10
62.313000
20
10.718000
30
-8.500000
70
192
0
VERTEX
8
OBJECT__35
10
66.285004
20
0.192000
30
-7.909000
70
192
0
VERTEX
8
OBJECT__35
10
66.322998
20
10.381000
30
-7.972000
70
192
0
VERTEX
8
OBJECT__35
10
81.031998
20
9.148000
30
-6.033000
70
192
0
VERTEX
8
OBJECT__35
10
88.647003
20
0.182000
30
-5.206000
70
192
0
VERTEX
8
OBJECT__35
10
110.667000
20
0.135000
30
-3.282000
70
192
0
VERTEX
8
OBJECT__35
10
96.577003
20
8.330000
30
-4.427000
70
192
0
VERTEX
8
OBJECT__35
10
108.478996
20
8.047000
30
-3.436000
70
192
0
VERTEX
8
OBJECT__35
10
88.676003
20
8.746000
30
-5.244000
70
192
0
VERTEX
8
OBJECT__35
10
134.162994
20
0.096000
30
-2.396000
70
192
0
VERTEX
8
OBJECT__35
10
124.841003
20
7.970000
30
-2.558000
70
192
0
VERTEX
8
OBJECT__35
10
132.322006
20
7.996000
30
-2.395000
70
192
0
VERTEX
8
OBJECT__35
10
110.690002
20
8.037000
30
-3.317000
70
192
0
VERTEX
8
OBJECT__35
10
134.184006
20
8.011000
30
-2.422000
70
192
0
VERTEX
8
OBJECT__35
10
137.636002
20
8.039000
30
-2.473000
70
192
0
VERTEX
8
OBJECT__35
10
139.188995
20
0.089000
30
-2.556000
70
192
0
VERTEX
8
OBJECT__35
10
139.205994
20
8.061000
30
-2.608000
70
192
0
VERTEX
8
OBJECT__35
10
142.069000
20
8.102000
30
-2.854000
70
192
0
VERTEX
8
OBJECT__35
10
143.031998
20
0.086000
30
-3.031000
70
192
0
VERTEX
8
OBJECT__35
10
146.195007
20
0.123000
30
-4.068000
70
192
0
VERTEX
8
OBJECT__35
10
143.917007
20
8.174000
30
-3.233000
70
192
0
VERTEX
8
OBJECT__35
10
143.048004
20
8.140000
30
-3.055000
70
192
0
VERTEX
8
OBJECT__35
10
146.427994
20
8.395000
30
-4.176000
70
192
0
VERTEX
8
OBJECT__35
10
147.257996
20
8.489000
30
-4.676000
70
192
0
VERTEX
8
OBJECT__35
10
148.938004
20
0.107000
30
-6.179000
70
192
0
VERTEX
8
OBJECT__35
10
146.207001
20
8.375000
30
-4.093000
70
192
0
VERTEX
8
OBJECT__35
10
149.164993
20
8.690000
30
-6.409000
70
192
0
VERTEX
8
OBJECT__35
10
149.852997
20
8.755000
30
-7.269000
70
192
0
VERTEX
8
OBJECT__35
10
148.938995
20
8.666000
30
-6.203000
70
192
0
VERTEX
8
OBJECT__35
10
150.938004
20
0.038000
30
-9.048000
70
192
0
VERTEX
8
OBJECT__35
10
151.744995
20
0.072000
30
-11.629000
70
192
0
VERTEX
8
OBJECT__35
10
151.175003
20
8.921000
30
-9.490000
70
192
0
VERTEX
8
OBJECT__35
10
151.535004
20
9.020000
30
-10.461000
70
192
0
VERTEX
8
OBJECT__35
10
150.925003
20
8.890000
30
-9.070000
70
192
0
VERTEX
8
OBJECT__35
10
151.858002
20
9.276000
30
-12.829000
70
192
0
VERTEX
8
OBJECT__35
10
151.893005
20
9.470000
30
-14.993000
70
192
0
VERTEX
8
OBJECT__35
10
151.695999
20
9.147000
30
-11.638000
70
192
0
VERTEX
8
OBJECT__35
10
151.841003
20
2.974000
30
-18.490999
70
192
0
VERTEX
8
OBJECT__35
10
151.860001
20
9.763000
30
-18.473000
70
192
0
VERTEX
8
OBJECT__35
10
151.834000
20
-9.107000
30
-13.755000
70
192
0
VERTEX
8
OBJECT__35
10
151.757996
20
-9.011000
30
-11.985000
70
192
0
VERTEX
8
OBJECT__35
10
151.824005
20
-3.228000
30
-18.507000
70
192
0
VERTEX
8
OBJECT__35
10
151.834000
20
0.165000
30
-18.497999
70
192
0
VERTEX
8
OBJECT__35
10
151.807007
20
-9.431000
30
-18.524000
70
192
0
VERTEX
8
OBJECT__35
10
151.227005
20
-8.858000
30
-9.722000
70
192
0
VERTEX
8
OBJECT__35
10
151.677994
20
-8.988000
30
-11.640000
70
192
0
VERTEX
8
OBJECT__35
10
150.975998
20
-8.807000
30
-9.170000
70
192
0
VERTEX
8
OBJECT__35
10
149.434998
20
-8.528000
30
-6.785000
70
192
0
VERTEX
8
OBJECT__35
10
148.677994
20
-8.410000
30
-5.926000
70
192
0
VERTEX
8
OBJECT__35
10
146.735992
20
-8.173000
30
-4.373000
70
192
0
VERTEX
8
OBJECT__35
10
148.906998
20
-8.445000
30
-6.186000
70
192
0
VERTEX
8
OBJECT__35
10
145.975006
20
-8.108000
30
-3.972000
70
192
0
VERTEX
8
OBJECT__35
10
143.304001
20
-7.965000
30
-3.095000
70
192
0
VERTEX
8
OBJECT__35
10
146.169006
20
-8.124000
30
-4.074000
70
192
0
VERTEX
8
OBJECT__35
10
142.059998
20
-7.928000
30
-2.859000
70
192
0
VERTEX
8
OBJECT__35
10
143.009003
20
-7.956000
30
-3.039000
70
192
0
VERTEX
8
OBJECT__35
10
137.356995
20
-7.845000
30
-2.463000
70
192
0
VERTEX
8
OBJECT__35
10
139.162994
20
-7.877000
30
-2.615000
70
192
0
VERTEX
8
OBJECT__35
10
124.598000
20
-7.748000
30
-2.565000
70
192
0
VERTEX
8
OBJECT__35
10
134.141998
20
-7.813000
30
-2.427000
70
192
0
VERTEX
8
OBJECT__35
10
131.662003
20
-7.787000
30
-2.399000
70
192
0
VERTEX
8
OBJECT__35
10
107.817001
20
-7.765000
30
-3.481000
70
192
0
VERTEX
8
OBJECT__35
10
95.915001
20
-8.005000
30
-4.485000
70
192
0
VERTEX
8
OBJECT__35
10
110.648003
20
-7.762000
30
-3.326000
70
192
0
VERTEX
8
OBJECT__35
10
80.439003
20
-8.803000
30
-6.096000
70
192
0
VERTEX
8
OBJECT__35
10
88.630997
20
-8.380000
30
-5.243000
70
192
0
VERTEX
8
OBJECT__35
10
62.091000
20
-10.336000
30
-8.526000
70
192
0
VERTEX
8
OBJECT__35
10
66.268997
20
-9.987000
30
-7.972000
70
192
0
VERTEX
8
OBJECT__35
10
45.416000
20
-12.115000
30
-11.516000
70
192
0
VERTEX
8
OBJECT__35
10
44.084999
20
-12.299000
30
-11.832000
70
192
0
VERTEX
8
OBJECT__35
10
31.176001
20
-14.117000
30
-14.948000
70
192
0
VERTEX
8
OBJECT__35
10
33.139999
20
-13.813000
30
-14.429000
70
192
0
VERTEX
8
OBJECT__35
10
32.665001
20
-13.878000
30
-14.542000
70
192
0
VERTEX
8
OBJECT__35
10
12.050000
20
0.258000
30
-22.079000
70
192
0
VERTEX
8
OBJECT__35
10
21.875999
20
-15.846000
30
-17.872999
70
192
0
VERTEX
8
OBJECT__35
10
13.924000
20
-17.778000
30
-21.139999
70
192
0
VERTEX
8
OBJECT__35
10
22.354000
20
-15.757000
30
-17.722000
70
192
0
VERTEX
8
OBJECT__35
10
3.808000
20
-4.784000
30
-26.733000
70
192
0
VERTEX
8
OBJECT__35
10
3.323000
20
-0.836000
30
-27.037001
70
192
0
VERTEX
8
OBJECT__35
10
4.377000
20
-6.913000
30
-26.382000
70
192
0
VERTEX
8
OBJECT__35
10
5.900000
20
-10.468000
30
-25.462000
70
192
0
VERTEX
8
OBJECT__35
10
12.016000
20
-16.792000
30
-22.089001
70
192
0
VERTEX
8
OBJECT__35
10
11.026000
20
-16.280001
30
-22.582001
70
192
0
VERTEX
8
OBJECT__35
10
9.318000
20
-14.913000
30
-23.500000
70
192
0
VERTEX
8
OBJECT__35
10
6.964000
20
-12.188000
30
-24.834999
70
192
0
VERTEX
8
OBJECT__35
10
7.879000
20
13.275000
30
-24.347000
70
192
0
VERTEX
8
OBJECT__35
10
10.348000
20
15.678000
30
-22.985001
70
192
0
VERTEX
8
OBJECT__35
10
6.470000
20
11.321000
30
-25.160000
70
192
0
VERTEX
8
OBJECT__35
10
4.775000
20
7.913000
30
-26.165001
70
192
0
VERTEX
8
OBJECT__35
10
3.347000
20
0.278000
30
-27.024000
70
192
0
VERTEX
8
OBJECT__35
10
3.376000
20
1.661000
30
-27.007999
70
192
0
VERTEX
8
OBJECT__35
10
4.026000
20
5.579000
30
-26.615999
70
192
0
VERTEX
8
OBJECT__35
10
12.382000
20
16.993000
30
-21.934000
70
192
0
VERTEX
8
OBJECT__35
10
15.018000
20
18.028000
30
-20.677999
70
192
0
VERTEX
8
OBJECT__35
10
12.097000
20
16.809000
30
-22.080999
70
192
0
VERTEX
8
OBJECT__35
10
0
20
0
30
0
70
128
71
1
72
2
73
3
0
VERTEX
8
OBJECT__35
10
0
20
0
30
0
70
128
71
3
72
4
73
1
0
VERTEX
8
OBJECT__35
10
0
20
0
30
0
70
128
71
1
72
5
73
2
0
VERTEX
8
OBJECT__35
10
0
20
0
30
0
70
128
71
4
72
6
73
7
0
VERTEX
8
OBJECT__35
10
0
20
0
30
0
70
128
71
8
72
9
73
10
0
VERTEX
8
OBJECT__35
10
0
20
0
30
0
70
128
71
10
72
11
73
8
0
VERTEX
8
OBJECT__35
10
0
20
0
30
0
70
128
71
8
72
7
73
9
0
VERTEX
8
OBJECT__35
10
0
20
0
30
0
70
128
71
11
72
12
73
13
0
VERTEX
8
OBJECT__35
10
0
20
0
30
0
70
128
71
13
72
14
73
11
0
VERTEX
8
OBJECT__35
10
0
20
0
30
0
70
128
71
15
72
14
73
16
0
VERTEX
8
OBJECT__35
10
0
20
0
30
0
70
128
71
16
72
17
73
15
0
VERTEX
8
OBJECT__35
10
0
20
0
30
0
70
128
71
14
72
18
73
16
0
VERTEX
8
OBJECT__35
10
0
20
0
30
0
70
128
71
19
72
20
73
21
0
VERTEX
8
OBJECT__35
10
0
20
0
30
0
70
128
71
15
72
22
73
20
0
VERTEX
8
OBJECT__35
10
0
20
0
30
0
70
128
71
20
72
19
73
15
0
VERTEX
8
OBJECT__35
10
0
20
0
30
0
70
128
71
19
72
23
73
24
0
VERTEX
8
OBJECT__35
10
0
20
0
30
0
70
128
71
24
72
25
73
19
0
VERTEX
8
OBJECT__35
10
0
20
0
30
0
70
128
71
25
72
26
73
27
0
VERTEX
8
OBJECT__35
10
0
20
0
30
0
70
128
71
27
72
28
73
25
0
VERTEX
8
OBJECT__35
10
0
20
0
30
0
70
128
71
29
72
28
73
30
0
VERTEX
8
OBJECT__35
10
0
20
0
30
0
70
128
71
28
72
31
73
30
0
VERTEX
8
OBJECT__35
10
0
20
0
30
0
70
128
71
29
72
32
73
33
0
VERTEX
8
OBJECT__35
10
0
20
0
30
0
70
128
71
33
72
34
73
29
0
VERTEX
8
OBJECT__35
10
0
20
0
30
0
70
128
71
29
72
35
73
32
0
VERTEX
8
OBJECT__35
10
0
20
0
30
0
70
128
71
34
72
36
73
37
0
VERTEX
8
OBJECT__35
10
0
20
0
30
0
70
128
71
34
72
38
73
36
0
VERTEX
8
OBJECT__35
10
0
20
0
30
0
70
128
71
37
72
39
73
34
0
VERTEX
8
OBJECT__35
10
0
20
0
30
0
70
128
71
40
72
39
73
41
0
VERTEX
8
OBJECT__35
10
0
20
0
30
0
70
128
71
41
72
42
73
40
0
VERTEX
8
OBJECT__35
10
0
20
0
30
0
70
128
71
39
72
43
73
41
0
VERTEX
8
OBJECT__35
10
0
20
0
30
0
70
128
71
40
72
44
73
45
0
VERTEX
8
OBJECT__35
10
0
20
0
30
0
70
128
71
40
72
46
73
44
0
VERTEX
8
OBJECT__35
10
0
20
0
30
0
70
128
71
45
72
47
73
40
0
VERTEX
8
OBJECT__35
10
0
20
0
30
0
70
128
71
45
72
48
73
47
0
VERTEX
8
OBJECT__35
10
0
20
0
30
0
70
128
71
40
72
49
73
50
0
VERTEX
8
OBJECT__35
10
0
20
0
30
0
70
128
71
49
72
40
73
51
0
VERTEX
8
OBJECT__35
10
0
20
0
30
0
70
128
71
40
72
52
73
51
0
VERTEX
8
OBJECT__35
10
0
20
0
30
0
70
128
71
51
72
53
73
49
0
VERTEX
8
OBJECT__35
10
0
20
0
30
0
70
128
71
39
72
40
73
54
0
VERTEX
8
OBJECT__35
10
0
20
0
30
0
70
128
71
40
72
55
73
54
0
VERTEX
8
OBJECT__35
10
0
20
0
30
0
70
128
71
39
72
56
73
57
0
VERTEX
8
OBJECT__35
10
0
20
0
30
0
70
128
71
57
72
34
73
39
0
VERTEX
8
OBJECT__35
10
0
20
0
30
0
70
128
71
34
72
58
73
59
0
VERTEX
8
OBJECT__35
10
0
20
0
30
0
70
128
71
34
72
60
73
58
0
VERTEX
8
OBJECT__35
10
0
20
0
30
0
70
128
71
59
72
29
73
34
0
VERTEX
8
OBJECT__35
10
0
20
0
30
0
70
128
71
29
72
61
73
62
0
VERTEX
8
OBJECT__35
10
0
20
0
30
0
70
128
71
62
72
28
73
29
0
VERTEX
8
OBJECT__35
10
0
20
0
30
0
70
128
71
29
72
63
73
61
0
VERTEX
8
OBJECT__35
10
0
20
0
30
0
70
128
71
25
72
28
73
64
0
VERTEX
8
OBJECT__35
10
0
20
0
30
0
70
128
71
28
72
65
73
64
0
VERTEX
8
OBJECT__35
10
0
20
0
30
0
70
128
71
19
72
25
73
66
0
VERTEX
8
OBJECT__35
10
0
20
0
30
0
70
128
71
25
72
67
73
66
0
VERTEX
8
OBJECT__35
10
0
20
0
30
0
70
128
71
15
72
19
73
68
0
VERTEX
8
OBJECT__35
10
0
20
0
30
0
70
128
71
19
72
69
73
70
0
VERTEX
8
OBJECT__35
10
0
20
0
30
0
70
128
71
70
72
68
73
19
0
VERTEX
8
OBJECT__35
10
0
20
0
30
0
70
128
71
15
72
71
73
72
0
VERTEX
8
OBJECT__35
10
0
20
0
30
0
70
128
71
15
72
73
73
71
0
VERTEX
8
OBJECT__35
10
0
20
0
30
0
70
128
71
72
72
14
73
15
0
VERTEX
8
OBJECT__35
10
0
20
0
30
0
70
128
71
11
72
14
73
74
0
VERTEX
8
OBJECT__35
10
0
20
0
30
0
70
128
71
14
72
75
73
74
0
VERTEX
8
OBJECT__35
10
0
20
0
30
0
70
128
71
8
72
11
73
76
0
VERTEX
8
OBJECT__35
10
0
20
0
30
0
70
128
71
11
72
77
73
76
0
VERTEX
8
OBJECT__35
10
0
20
0
30
0
70
128
71
76
72
78
73
8
0
VERTEX
8
OBJECT__35
10
0
20
0
30
0
70
128
71
4
72
8
73
79
0
VERTEX
8
OBJECT__35
10
0
20
0
30
0
70
128
71
1
72
4
73
80
0
VERTEX
8
OBJECT__35
10
0
20
0
30
0
70
128
71
4
72
81
73
82
0
VERTEX
8
OBJECT__35
10
0
20
0
30
0
70
128
71
82
72
80
73
4
0
VERTEX
8
OBJECT__35
10
0
20
0
30
0
70
128
71
83
72
1
73
84
0
VERTEX
8
OBJECT__35
10
0
20
0
30
0
70
128
71
84
72
85
73
83
0
VERTEX
8
OBJECT__35
10
0
20
0
30
0
70
128
71
1
72
86
73
84
0
VERTEX
8
OBJECT__35
10
0
20
0
30
0
70
128
71
83
72
87
73
88
0
VERTEX
8
OBJECT__35
10
0
20
0
30
0
70
128
71
83
72
89
73
87
0
VERTEX
8
OBJECT__35
10
0
20
0
30
0
70
128
71
83
72
90
73
89
0
VERTEX
8
OBJECT__35
10
0
20
0
30
0
70
128
71
83
72
91
73
92
0
VERTEX
8
OBJECT__35
10
0
20
0
30
0
70
128
71
92
72
93
73
83
0
VERTEX
8
OBJECT__35
10
0
20
0
30
0
70
128
71
93
72
94
73
83
0
VERTEX
8
OBJECT__35
10
0
20
0
30
0
70
128
71
94
72
90
73
83
0
VERTEX
8
OBJECT__35
10
0
20
0
30
0
70
128
71
83
72
95
73
96
0
VERTEX
8
OBJECT__35
10
0
20
0
30
0
70
128
71
83
72
97
73
95
0
VERTEX
8
OBJECT__35
10
0
20
0
30
0
70
128
71
83
72
98
73
97
0
VERTEX
8
OBJECT__35
10
0
20
0
30
0
70
128
71
83
72
99
73
100
0
VERTEX
8
OBJECT__35
10
0
20
0
30
0
70
128
71
100
72
101
73
83
0
VERTEX
8
OBJECT__35
10
0
20
0
30
0
70
128
71
101
72
98
73
83
0
VERTEX
8
OBJECT__35
10
0
20
0
30
0
70
128
71
1
72
102
73
103
0
VERTEX
8
OBJECT__35
10
0
20
0
30
0
70
128
71
1
72
83
73
104
0
VERTEX
8
OBJECT__35
10
0
20
0
30
0
70
128
71
104
72
102
73
1
0
VERTEX
8
OBJECT__35
10
0
20
0
30
0
70
128
71
103
72
5
73
1
0
VERTEX
8
OBJECT__35
10
0
20
0
30
0
70
128
71
96
72
104
73
83
0
VERTEX
8
OBJECT__35
10
0
20
0
30
0
70
128
71
88
72
99
73
83
0
VERTEX
8
OBJECT__35
10
0
20
0
30
0
70
128
71
85
72
91
73
83
0
VERTEX
8
OBJECT__35
10
0
20
0
30
0
70
128
71
80
72
86
73
1
0
VERTEX
8
OBJECT__35
10
0
20
0
30
0
70
128
71
79
72
81
73
4
0
VERTEX
8
OBJECT__35
10
0
20
0
30
0
70
128
71
78
72
79
73
8
0
VERTEX
8
OBJECT__35
10
0
20
0
30
0
70
128
71
74
72
77
73
11
0
VERTEX
8
OBJECT__35
10
0
20
0
30
0
70
128
71
72
72
75
73
14
0
VERTEX
8
OBJECT__35
10
0
20
0
30
0
70
128
71
68
72
73
73
15
0
VERTEX
8
OBJECT__35
10
0
20
0
30
0
70
128
71
66
72
69
73
19
0
VERTEX
8
OBJECT__35
10
0
20
0
30
0
70
128
71
64
72
67
73
25
0
VERTEX
8
OBJECT__35
10
0
20
0
30
0
70
128
71
62
72
65
73
28
0
VERTEX
8
OBJECT__35
10
0
20
0
30
0
70
128
71
59
72
63
73
29
0
VERTEX
8
OBJECT__35
10
0
20
0
30
0
70
128
71
57
72
60
73
34
0
VERTEX
8
OBJECT__35
10
0
20
0
30
0
70
128
71
54
72
56
73
39
0
VERTEX
8
OBJECT__35
10
0
20
0
30
0
70
128
71
50
72
55
73
40
0
VERTEX
8
OBJECT__35
10
0
20
0
30
0
70
128
71
47
72
52
73
40
0
VERTEX
8
OBJECT__35
10
0
20
0
30
0
70
128
71
42
72
46
73
40
0
VERTEX
8
OBJECT__35
10
0
20
0
30
0
70
128
71
37
72
43
73
39
0
VERTEX
8
OBJECT__35
10
0
20
0
30
0
70
128
71
33
72
38
73
34
0
VERTEX
8
OBJECT__35
10
0
20
0
30
0
70
128
71
30
72
35
73
29
0
VERTEX
8
OBJECT__35
10
0
20
0
30
0
70
128
71
27
72
31
73
28
0
VERTEX
8
OBJECT__35
10
0
20
0
30
0
70
128
71
24
72
26
73
25
0
VERTEX
8
OBJECT__35
10
0
20
0
30
0
70
128
71
21
72
23
73
19
0
VERTEX
8
OBJECT__35
10
0
20
0
30
0
70
128
71
17
72
22
73
15
0
VERTEX
8
OBJECT__35
10
0
20
0
30
0
70
128
71
13
72
18
73
14
0
VERTEX
8
OBJECT__35
10
0
20
0
30
0
70
128
71
10
72
12
73
11
0
VERTEX
8
OBJECT__35
10
0
20
0
30
0
70
128
71
7
72
8
73
4
0
VERTEX
8
OBJECT__35
10
0
20
0
30
0
70
128
71
3
72
6
73
4
0
SEQEND
8
OBJECT__35
0
POLYLINE
8
OBJECT__36
66
1
70
64
71
10
72
8
62
253
0
VERTEX
8
OBJECT__36
10
152.619995
20
11.063000
30
-18.427000
70
192
0
VERTEX
8
OBJECT__36
10
152.964996
20
10.458000
30
-19.181999
70
192
0
VERTEX
8
OBJECT__36
10
152.757004
20
10.288000
30
-19.183001
70
192
0
VERTEX
8
OBJECT__36
10
152.229996
20
10.745000
30
-18.436001
70
192
0
VERTEX
8
OBJECT__36
10
152.617004
20
10.059000
30
-19.183001
70
192
0
VERTEX
8
OBJECT__36
10
151.968002
20
10.316000
30
-18.452000
70
192
0
VERTEX
8
OBJECT__36
10
152.561005
20
9.796000
30
-19.184000
70
192
0
VERTEX
8
OBJECT__36
10
151.862000
20
9.824000
30
-18.469999
70
192
0
VERTEX
8
OBJECT__36
10
152.559998
20
9.763000
30
-19.184000
70
192
0
VERTEX
8
OBJECT__36
10
151.860001
20
9.763000
30
-18.473000
70
192
0
VERTEX
8
OBJECT__36
10
0
20
0
30
0
70
128
71
1
72
2
73
3
0
VERTEX
8
OBJECT__36
10
0
20
0
30
0
70
128
71
4
72
3
73
5
0
VERTEX
8
OBJECT__36
10
0
20
0
30
0
70
128
71
6
72
5
73
7
0
VERTEX
8
OBJECT__36
10
0
20
0
30
0
70
128
71
8
72
7
73
9
0
VERTEX
8
OBJECT__36
10
0
20
0
30
0
70
128
71
9
72
10
73
8
0
VERTEX
8
OBJECT__36
10
0
20
0
30
0
70
128
71
7
72
8
73
6
0
VERTEX
8
OBJECT__36
10
0
20
0
30
0
70
128
71
5
72
6
73
4
0
VERTEX
8
OBJECT__36
10
0
20
0
30
0
70
128
71
3
72
4
73
1
0
SEQEND
8
OBJECT__36
0
POLYLINE
8
OBJECT__37
66
1
70
64
71
9
72
7
62
253
0
VERTEX
8
OBJECT__37
10
165.072998
20
17.291000
30
-19.164000
70
192
0
VERTEX
8
OBJECT__37
10
164.729996
20
17.899000
30
-18.455999
70
192
0
VERTEX
8
OBJECT__37
10
170.167999
20
20.947001
30
-18.462999
70
192
0
VERTEX
8
OBJECT__37
10
159.639999
20
14.235000
30
-19.172001
70
192
0
VERTEX
8
OBJECT__37
10
161.378006
20
16.014000
30
-18.450001
70
192
0
VERTEX
8
OBJECT__37
10
159.296005
20
14.843000
30
-18.445999
70
192
0
VERTEX
8
OBJECT__37
10
152.964996
20
10.458000
30
-19.181999
70
192
0
VERTEX
8
OBJECT__37
10
152.619995
20
11.063000
30
-18.427000
70
192
0
VERTEX
8
OBJECT__37
10
170.509995
20
20.337999
30
-19.156000
70
192
0
VERTEX
8
OBJECT__37
10
0
20
0
30
0
70
128
71
1
72
2
73
3
0
VERTEX
8
OBJECT__37
10
0
20
0
30
0
70
128
71
1
72
4
73
5
0
VERTEX
8
OBJECT__37
10
0
20
0
30
0
70
128
71
4
72
6
73
5
0
VERTEX
8
OBJECT__37
10
0
20
0
30
0
70
128
71
7
72
8
73
6
0
VERTEX
8
OBJECT__37
10
0
20
0
30
0
70
128
71
6
72
4
73
7
0
VERTEX
8
OBJECT__37
10
0
20
0
30
0
70
128
71
5
72
2
73
1
0
VERTEX
8
OBJECT__37
10
0
20
0
30
0
70
128
71
3
72
9
73
1
0
SEQEND
8
OBJECT__37
0
POLYLINE
8
OBJECT__38
66
1
70
64
71
116
72
133
62
253
0
VERTEX
8
OBJECT__38
10
22.989000
20
25.305000
30
-3.060000
70
192
0
VERTEX
8
OBJECT__38
10
23.945999
20
32.868999
30
10.686000
70
192
0
VERTEX
8
OBJECT__38
10
33.945999
20
29.360001
30
10.624000
70
192
0
VERTEX
8
OBJECT__38
10
23.025999
20
33.292000
30
10.696000
70
192
0
VERTEX
8
OBJECT__38
10
44.731998
20
20.132999
30
-0.149000
70
192
0
VERTEX
8
OBJECT__38
10
33.785000
20
22.424999
30
-1.463000
70
192
0
VERTEX
8
OBJECT__38
10
38.318001
20
28.063999
30
10.624000
70
192
0
VERTEX
8
OBJECT__38
10
66.889999
20
16.645000
30
1.914000
70
192
0
VERTEX
8
OBJECT__38
10
51.903999
20
24.667999
30
10.716000
70
192
0
VERTEX
8
OBJECT__38
10
44.782001
20
26.448000
30
10.668000
70
192
0
VERTEX
8
OBJECT__38
10
67.288002
20
21.646999
30
10.921000
70
192
0
VERTEX
8
OBJECT__38
10
82.275002
20
19.379999
30
11.139000
70
192
0
VERTEX
8
OBJECT__38
10
66.886002
20
21.726000
30
10.916000
70
192
0
VERTEX
8
OBJECT__38
10
89.244003
20
14.270000
30
3.410000
70
192
0
VERTEX
8
OBJECT__38
10
111.530998
20
13.311000
30
4.458000
70
192
0
VERTEX
8
OBJECT__38
10
97.051003
20
17.965000
30
11.309000
70
192
0
VERTEX
8
OBJECT__38
10
89.247002
20
18.712000
30
11.219000
70
192
0
VERTEX
8
OBJECT__38
10
122.945000
20
13.178000
30
4.786000
70
192
0
VERTEX
8
OBJECT__38
10
115.389999
20
17.218000
30
11.418000
70
192
0
VERTEX
8
OBJECT__38
10
111.749001
20
17.365999
30
11.396000
70
192
0
VERTEX
8
OBJECT__38
10
134.520996
20
17.077000
30
11.440000
70
192
0
VERTEX
8
OBJECT__38
10
134.643005
20
13.187000
30
4.905000
70
192
0
VERTEX
8
OBJECT__38
10
120.308998
20
17.124001
30
11.433000
70
192
0
VERTEX
8
OBJECT__38
10
140.442001
20
13.324000
30
4.808000
70
192
0
VERTEX
8
OBJECT__38
10
135.623993
20
17.073000
30
11.441000
70
192
0
VERTEX
8
OBJECT__38
10
145.468002
20
17.511999
30
11.387000
70
192
0
VERTEX
8
OBJECT__38
10
146.085999
20
13.612000
30
4.481000
70
192
0
VERTEX
8
OBJECT__38
10
139.845993
20
17.209000
30
11.430000
70
192
0
VERTEX
8
OBJECT__38
10
148.475998
20
17.745001
30
11.259000
70
192
0
VERTEX
8
OBJECT__38
10
151.425003
20
14.095000
30
3.441000
70
192
0
VERTEX
8
OBJECT__38
10
150.537994
20
17.906000
30
11.171000
70
192
0
VERTEX
8
OBJECT__38
10
155.069000
20
18.358999
30
10.606000
70
192
0
VERTEX
8
OBJECT__38
10
153.934006
20
14.354000
30
2.353000
70
192
0
VERTEX
8
OBJECT__38
10
155.860001
20
18.445999
30
10.381000
70
192
0
VERTEX
8
OBJECT__38
10
159.089996
20
18.799000
30
9.463000
70
192
0
VERTEX
8
OBJECT__38
10
156.276001
20
14.587000
30
0.759000
70
192
0
VERTEX
8
OBJECT__38
10
159.434998
20
18.836000
30
9.284000
70
192
0
VERTEX
8
OBJECT__38
10
162.574005
20
19.174999
30
7.661000
70
192
0
VERTEX
8
OBJECT__38
10
158.287994
20
14.805000
30
-1.232000
70
192
0
VERTEX
8
OBJECT__38
10
162.817993
20
19.202000
30
7.479000
70
192
0
VERTEX
8
OBJECT__38
10
164.348999
20
19.374001
30
6.342000
70
192
0
VERTEX
8
OBJECT__38
10
159.791000
20
15.024000
30
-3.476000
70
192
0
VERTEX
8
OBJECT__38
10
166.686005
20
19.676001
30
3.915000
70
192
0
VERTEX
8
OBJECT__38
10
167.531998
20
19.812000
30
2.671000
70
192
0
VERTEX
8
OBJECT__38
10
165.677002
20
19.546000
30
4.963000
70
192
0
VERTEX
8
OBJECT__38
10
168.794998
20
20.098000
30
-0.254000
70
192
0
VERTEX
8
OBJECT__38
10
169.082993
20
20.204000
30
-1.430000
70
192
0
VERTEX
8
OBJECT__38
10
167.828995
20
19.879000
30
1.982000
70
192
0
VERTEX
8
OBJECT__38
10
169.552002
20
20.493000
30
-5.102000
70
192
0
VERTEX
8
OBJECT__38
10
161.076004
20
15.484000
30
-8.373000
70
192
0
VERTEX
8
OBJECT__38
10
160.669006
20
15.257000
30
-5.857000
70
192
0
VERTEX
8
OBJECT__38
10
169.199997
20
20.246000
30
-1.905000
70
192
0
VERTEX
8
OBJECT__38
10
169.759995
20
20.638000
30
-6.985000
70
192
0
VERTEX
8
OBJECT__38
10
169.960999
20
20.796000
30
-12.526000
70
192
0
VERTEX
8
OBJECT__38
10
170.149002
20
20.944000
30
-17.679001
70
192
0
VERTEX
8
OBJECT__38
10
164.729996
20
17.899000
30
-18.455999
70
192
0
VERTEX
8
OBJECT__38
10
161.320999
20
15.836000
30
-13.905000
70
192
0
VERTEX
8
OBJECT__38
10
170.167999
20
20.947001
30
-18.462999
70
192
0
VERTEX
8
OBJECT__38
10
152.578995
20
10.552000
30
-12.685000
70
192
0
VERTEX
8
OBJECT__38
10
152.625000
20
10.750000
30
-14.883000
70
192
0
VERTEX
8
OBJECT__38
10
159.296005
20
14.843000
30
-18.445999
70
192
0
VERTEX
8
OBJECT__38
10
161.378006
20
16.014000
30
-18.450001
70
192
0
VERTEX
8
OBJECT__38
10
152.619995
20
11.063000
30
-18.427000
70
192
0
VERTEX
8
OBJECT__38
10
151.878998
20
10.248000
30
-9.072000
70
192
0
VERTEX
8
OBJECT__38
10
152.253998
20
10.328000
30
-10.133000
70
192
0
VERTEX
8
OBJECT__38
10
152.449005
20
10.462000
30
-11.663000
70
192
0
VERTEX
8
OBJECT__38
10
151.776001
20
10.237000
30
-8.899000
70
192
0
VERTEX
8
OBJECT__38
10
150.899002
20
10.140000
30
-7.420000
70
192
0
VERTEX
8
OBJECT__38
10
150.483002
20
10.094000
30
-6.719000
70
192
0
VERTEX
8
OBJECT__38
10
149.744003
20
10.027000
30
-5.807000
70
192
0
VERTEX
8
OBJECT__38
10
147.628006
20
9.818000
30
-3.941000
70
192
0
VERTEX
8
OBJECT__38
10
149.807999
20
10.033000
30
-5.886000
70
192
0
VERTEX
8
OBJECT__38
10
146.705994
20
9.717000
30
-3.412000
70
192
0
VERTEX
8
OBJECT__38
10
144.046005
20
9.478000
30
-2.477000
70
192
0
VERTEX
8
OBJECT__38
10
146.970001
20
9.746000
30
-3.563000
70
192
0
VERTEX
8
OBJECT__38
10
143.671005
20
9.462000
30
-2.405000
70
192
0
VERTEX
8
OBJECT__38
10
142.154007
20
9.397000
30
-2.115000
70
192
0
VERTEX
8
OBJECT__38
10
137.653000
20
9.329000
30
-1.738000
70
192
0
VERTEX
8
OBJECT__38
10
139.757004
20
9.361000
30
-1.914000
70
192
0
VERTEX
8
OBJECT__38
10
132.311005
20
9.288000
30
-1.657000
70
192
0
VERTEX
8
OBJECT__38
10
124.814003
20
9.263000
30
-1.819000
70
192
0
VERTEX
8
OBJECT__38
10
134.764999
20
9.307000
30
-1.694000
70
192
0
VERTEX
8
OBJECT__38
10
122.941002
20
9.273000
30
-1.918000
70
192
0
VERTEX
8
OBJECT__38
10
111.317001
20
9.333000
30
-2.533000
70
192
0
VERTEX
8
OBJECT__38
10
108.442001
20
9.348000
30
-2.685000
70
192
0
VERTEX
8
OBJECT__38
10
96.551003
20
9.636000
30
-3.663000
70
192
0
VERTEX
8
OBJECT__38
10
81.035004
20
10.452000
30
-5.266000
70
192
0
VERTEX
8
OBJECT__38
10
89.260002
20
10.019000
30
-4.416000
70
192
0
VERTEX
8
OBJECT__38
10
62.321999
20
12.007000
30
-7.748000
70
192
0
VERTEX
8
OBJECT__38
10
66.907997
20
11.626000
30
-7.140000
70
192
0
VERTEX
8
OBJECT__38
10
45.669998
20
13.803000
30
-10.741000
70
192
0
VERTEX
8
OBJECT__38
10
44.714001
20
13.936000
30
-10.968000
70
192
0
VERTEX
8
OBJECT__38
10
32.884998
20
15.587000
30
-13.780000
70
192
0
VERTEX
8
OBJECT__38
10
33.773998
20
15.462000
30
-13.568000
70
192
0
VERTEX
8
OBJECT__38
10
12.628000
20
29.101000
30
-5.181000
70
192
0
VERTEX
8
OBJECT__38
10
23.117001
20
17.332001
30
-16.757999
70
192
0
VERTEX
8
OBJECT__38
10
15.023000
20
19.209999
30
-19.993999
70
192
0
VERTEX
8
OBJECT__38
10
4.587000
20
30.033001
30
-12.590000
70
192
0
VERTEX
8
OBJECT__38
10
3.899000
20
32.334000
30
-9.454000
70
192
0
VERTEX
8
OBJECT__38
10
5.209000
20
28.747000
30
-14.058000
70
192
0
VERTEX
8
OBJECT__38
10
12.613000
20
20.743999
30
-19.672001
70
192
0
VERTEX
8
OBJECT__38
10
12.082000
20
21.082001
30
-19.601000
70
192
0
VERTEX
8
OBJECT__38
10
10.408000
20
22.429001
30
-19.024000
70
192
0
VERTEX
8
OBJECT__38
10
7.970000
20
24.857000
30
-17.534000
70
192
0
VERTEX
8
OBJECT__38
10
6.882000
20
26.183001
30
-16.500000
70
192
0
VERTEX
8
OBJECT__38
10
9.898000
20
37.652000
30
6.749000
70
192
0
VERTEX
8
OBJECT__38
10
11.771000
20
37.500999
30
8.476000
70
192
0
VERTEX
8
OBJECT__38
10
7.581000
20
37.486000
30
3.856000
70
192
0
VERTEX
8
OBJECT__38
10
6.336000
20
37.125999
30
1.777000
70
192
0
VERTEX
8
OBJECT__38
10
4.845000
20
36.146999
30
-1.705000
70
192
0
VERTEX
8
OBJECT__38
10
3.819000
20
33.568001
30
-7.418000
70
192
0
VERTEX
8
OBJECT__38
10
4.245000
20
35.304001
30
-3.894000
70
192
0
VERTEX
8
OBJECT__38
10
3.828000
20
33.428001
30
-7.650000
70
192
0
VERTEX
8
OBJECT__38
10
14.664000
20
36.953999
30
10.362000
70
192
0
VERTEX
8
OBJECT__38
10
15.527000
20
36.734001
30
10.771000
70
192
0
VERTEX
8
OBJECT__38
10
12.660000
20
37.333000
30
9.056000
70
192
0
VERTEX
8
OBJECT__38
10
0
20
0
30
0
70
128
71
1
72
2
73
3
0
VERTEX
8
OBJECT__38
10
0
20
0
30
0
70
128
71
1
72
4
73
2
0
VERTEX
8
OBJECT__38
10
0
20
0
30
0
70
128
71
5
72
6
73
7
0
VERTEX
8
OBJECT__38
10
0
20
0
30
0
70
128
71
6
72
3
73
7
0
VERTEX
8
OBJECT__38
10
0
20
0
30
0
70
128
71
8
72
5
73
9
0
VERTEX
8
OBJECT__38
10
0
20
0
30
0
70
128
71
5
72
10
73
9
0
VERTEX
8
OBJECT__38
10
0
20
0
30
0
70
128
71
8
72
11
73
12
0
VERTEX
8
OBJECT__38
10
0
20
0
30
0
70
128
71
8
72
13
73
11
0
VERTEX
8
OBJECT__38
10
0
20
0
30
0
70
128
71
12
72
14
73
8
0
VERTEX
8
OBJECT__38
10
0
20
0
30
0
70
128
71
15
72
14
73
16
0
VERTEX
8
OBJECT__38
10
0
20
0
30
0
70
128
71
14
72
17
73
16
0
VERTEX
8
OBJECT__38
10
0
20
0
30
0
70
128
71
18
72
15
73
19
0
VERTEX
8
OBJECT__38
10
0
20
0
30
0
70
128
71
15
72
20
73
19
0
VERTEX
8
OBJECT__38
10
0
20
0
30
0
70
128
71
21
72
22
73
18
0
VERTEX
8
OBJECT__38
10
0
20
0
30
0
70
128
71
18
72
23
73
21
0
VERTEX
8
OBJECT__38
10
0
20
0
30
0
70
128
71
24
72
22
73
25
0
VERTEX
8
OBJECT__38
10
0
20
0
30
0
70
128
71
22
72
21
73
25
0
VERTEX
8
OBJECT__38
10
0
20
0
30
0
70
128
71
26
72
27
73
24
0
VERTEX
8
OBJECT__38
10
0
20
0
30
0
70
128
71
24
72
28
73
26
0
VERTEX
8
OBJECT__38
10
0
20
0
30
0
70
128
71
26
72
29
73
27
0
VERTEX
8
OBJECT__38
10
0
20
0
30
0
70
128
71
30
72
31
73
32
0
VERTEX
8
OBJECT__38
10
0
20
0
30
0
70
128
71
30
72
27
73
29
0
VERTEX
8
OBJECT__38
10
0
20
0
30
0
70
128
71
29
72
31
73
30
0
VERTEX
8
OBJECT__38
10
0
20
0
30
0
70
128
71
33
72
30
73
34
0
VERTEX
8
OBJECT__38
10
0
20
0
30
0
70
128
71
34
72
35
73
33
0
VERTEX
8
OBJECT__38
10
0
20
0
30
0
70
128
71
36
72
33
73
37
0
VERTEX
8
OBJECT__38
10
0
20
0
30
0
70
128
71
37
72
38
73
36
0
VERTEX
8
OBJECT__38
10
0
20
0
30
0
70
128
71
39
72
36
73
40
0
VERTEX
8
OBJECT__38
10
0
20
0
30
0
70
128
71
40
72
41
73
39
0
VERTEX
8
OBJECT__38
10
0
20
0
30
0
70
128
71
42
72
43
73
44
0
VERTEX
8
OBJECT__38
10
0
20
0
30
0
70
128
71
42
72
39
73
45
0
VERTEX
8
OBJECT__38
10
0
20
0
30
0
70
128
71
45
72
43
73
42
0
VERTEX
8
OBJECT__38
10
0
20
0
30
0
70
128
71
42
72
46
73
47
0
VERTEX
8
OBJECT__38
10
0
20
0
30
0
70
128
71
42
72
48
73
46
0
VERTEX
8
OBJECT__38
10
0
20
0
30
0
70
128
71
49
72
50
73
51
0
VERTEX
8
OBJECT__38
10
0
20
0
30
0
70
128
71
51
72
47
73
52
0
VERTEX
8
OBJECT__38
10
0
20
0
30
0
70
128
71
50
72
53
73
54
0
VERTEX
8
OBJECT__38
10
0
20
0
30
0
70
128
71
50
72
49
73
53
0
VERTEX
8
OBJECT__38
10
0
20
0
30
0
70
128
71
54
72
55
73
56
0
VERTEX
8
OBJECT__38
10
0
20
0
30
0
70
128
71
56
72
57
73
54
0
VERTEX
8
OBJECT__38
10
0
20
0
30
0
70
128
71
55
72
58
73
56
0
VERTEX
8
OBJECT__38
10
0
20
0
30
0
70
128
71
50
72
57
73
59
0
VERTEX
8
OBJECT__38
10
0
20
0
30
0
70
128
71
60
72
57
73
61
0
VERTEX
8
OBJECT__38
10
0
20
0
30
0
70
128
71
57
72
62
73
61
0
VERTEX
8
OBJECT__38
10
0
20
0
30
0
70
128
71
61
72
63
73
60
0
VERTEX
8
OBJECT__38
10
0
20
0
30
0
70
128
71
60
72
59
73
57
0
VERTEX
8
OBJECT__38
10
0
20
0
30
0
70
128
71
42
72
51
73
64
0
VERTEX
8
OBJECT__38
10
0
20
0
30
0
70
128
71
51
72
50
73
65
0
VERTEX
8
OBJECT__38
10
0
20
0
30
0
70
128
71
65
72
64
73
51
0
VERTEX
8
OBJECT__38
10
0
20
0
30
0
70
128
71
50
72
66
73
65
0
VERTEX
8
OBJECT__38
10
0
20
0
30
0
70
128
71
42
72
67
73
68
0
VERTEX
8
OBJECT__38
10
0
20
0
30
0
70
128
71
36
72
39
73
69
0
VERTEX
8
OBJECT__38
10
0
20
0
30
0
70
128
71
39
72
68
73
69
0
VERTEX
8
OBJECT__38
10
0
20
0
30
0
70
128
71
33
72
70
73
71
0
VERTEX
8
OBJECT__38
10
0
20
0
30
0
70
128
71
71
72
30
73
33
0
VERTEX
8
OBJECT__38
10
0
20
0
30
0
70
128
71
36
72
72
73
70
0
VERTEX
8
OBJECT__38
10
0
20
0
30
0
70
128
71
33
72
36
73
70
0
VERTEX
8
OBJECT__38
10
0
20
0
30
0
70
128
71
27
72
30
73
73
0
VERTEX
8
OBJECT__38
10
0
20
0
30
0
70
128
71
73
72
74
73
27
0
VERTEX
8
OBJECT__38
10
0
20
0
30
0
70
128
71
30
72
75
73
73
0
VERTEX
8
OBJECT__38
10
0
20
0
30
0
70
128
71
27
72
76
73
77
0
VERTEX
8
OBJECT__38
10
0
20
0
30
0
70
128
71
77
72
24
73
27
0
VERTEX
8
OBJECT__38
10
0
20
0
30
0
70
128
71
22
72
24
73
78
0
VERTEX
8
OBJECT__38
10
0
20
0
30
0
70
128
71
24
72
79
73
78
0
VERTEX
8
OBJECT__38
10
0
20
0
30
0
70
128
71
18
72
22
73
80
0
VERTEX
8
OBJECT__38
10
0
20
0
30
0
70
128
71
80
72
81
73
18
0
VERTEX
8
OBJECT__38
10
0
20
0
30
0
70
128
71
22
72
82
73
80
0
VERTEX
8
OBJECT__38
10
0
20
0
30
0
70
128
71
83
72
84
73
15
0
VERTEX
8
OBJECT__38
10
0
20
0
30
0
70
128
71
15
72
85
73
86
0
VERTEX
8
OBJECT__38
10
0
20
0
30
0
70
128
71
86
72
14
73
15
0
VERTEX
8
OBJECT__38
10
0
20
0
30
0
70
128
71
15
72
84
73
85
0
VERTEX
8
OBJECT__38
10
0
20
0
30
0
70
128
71
8
72
14
73
87
0
VERTEX
8
OBJECT__38
10
0
20
0
30
0
70
128
71
14
72
88
73
87
0
VERTEX
8
OBJECT__38
10
0
20
0
30
0
70
128
71
5
72
8
73
89
0
VERTEX
8
OBJECT__38
10
0
20
0
30
0
70
128
71
8
72
90
73
89
0
VERTEX
8
OBJECT__38
10
0
20
0
30
0
70
128
71
89
72
91
73
5
0
VERTEX
8
OBJECT__38
10
0
20
0
30
0
70
128
71
6
72
5
73
92
0
VERTEX
8
OBJECT__38
10
0
20
0
30
0
70
128
71
1
72
6
73
93
0
VERTEX
8
OBJECT__38
10
0
20
0
30
0
70
128
71
6
72
94
73
93
0
VERTEX
8
OBJECT__38
10
0
20
0
30
0
70
128
71
95
72
1
73
96
0
VERTEX
8
OBJECT__38
10
0
20
0
30
0
70
128
71
96
72
97
73
95
0
VERTEX
8
OBJECT__38
10
0
20
0
30
0
70
128
71
95
72
98
73
99
0
VERTEX
8
OBJECT__38
10
0
20
0
30
0
70
128
71
95
72
100
73
98
0
VERTEX
8
OBJECT__38
10
0
20
0
30
0
70
128
71
95
72
101
73
102
0
VERTEX
8
OBJECT__38
10
0
20
0
30
0
70
128
71
102
72
103
73
95
0
VERTEX
8
OBJECT__38
10
0
20
0
30
0
70
128
71
103
72
104
73
95
0
VERTEX
8
OBJECT__38
10
0
20
0
30
0
70
128
71
104
72
105
73
95
0
VERTEX
8
OBJECT__38
10
0
20
0
30
0
70
128
71
105
72
100
73
95
0
VERTEX
8
OBJECT__38
10
0
20
0
30
0
70
128
71
95
72
106
73
107
0
VERTEX
8
OBJECT__38
10
0
20
0
30
0
70
128
71
95
72
108
73
106
0
VERTEX
8
OBJECT__38
10
0
20
0
30
0
70
128
71
95
72
109
73
108
0
VERTEX
8
OBJECT__38
10
0
20
0
30
0
70
128
71
95
72
110
73
109
0
VERTEX
8
OBJECT__38
10
0
20
0
30
0
70
128
71
95
72
111
73
112
0
VERTEX
8
OBJECT__38
10
0
20
0
30
0
70
128
71
112
72
110
73
95
0
VERTEX
8
OBJECT__38
10
0
20
0
30
0
70
128
71
95
72
113
73
111
0
VERTEX
8
OBJECT__38
10
0
20
0
30
0
70
128
71
1
72
114
73
115
0
VERTEX
8
OBJECT__38
10
0
20
0
30
0
70
128
71
1
72
95
73
116
0
VERTEX
8
OBJECT__38
10
0
20
0
30
0
70
128
71
116
72
114
73
1
0
VERTEX
8
OBJECT__38
10
0
20
0
30
0
70
128
71
115
72
4
73
1
0
VERTEX
8
OBJECT__38
10
0
20
0
30
0
70
128
71
107
72
116
73
95
0
VERTEX
8
OBJECT__38
10
0
20
0
30
0
70
128
71
99
72
113
73
95
0
VERTEX
8
OBJECT__38
10
0
20
0
30
0
70
128
71
97
72
101
73
95
0
VERTEX
8
OBJECT__38
10
0
20
0
30
0
70
128
71
93
72
96
73
1
0
VERTEX
8
OBJECT__38
10
0
20
0
30
0
70
128
71
92
72
94
73
6
0
VERTEX
8
OBJECT__38
10
0
20
0
30
0
70
128
71
91
72
92
73
5
0
VERTEX
8
OBJECT__38
10
0
20
0
30
0
70
128
71
87
72
90
73
8
0
VERTEX
8
OBJECT__38
10
0
20
0
30
0
70
128
71
86
72
88
73
14
0
VERTEX
8
OBJECT__38
10
0
20
0
30
0
70
128
71
15
72
18
73
83
0
VERTEX
8
OBJECT__38
10
0
20
0
30
0
70
128
71
81
72
83
73
18
0
VERTEX
8
OBJECT__38
10
0
20
0
30
0
70
128
71
78
72
82
73
22
0
VERTEX
8
OBJECT__38
10
0
20
0
30
0
70
128
71
77
72
79
73
24
0
VERTEX
8
OBJECT__38
10
0
20
0
30
0
70
128
71
74
72
76
73
27
0
VERTEX
8
OBJECT__38
10
0
20
0
30
0
70
128
71
71
72
75
73
30
0
VERTEX
8
OBJECT__38
10
0
20
0
30
0
70
128
71
69
72
72
73
36
0
VERTEX
8
OBJECT__38
10
0
20
0
30
0
70
128
71
68
72
39
73
42
0
VERTEX
8
OBJECT__38
10
0
20
0
30
0
70
128
71
64
72
67
73
42
0
VERTEX
8
OBJECT__38
10
0
20
0
30
0
70
128
71
59
72
66
73
50
0
VERTEX
8
OBJECT__38
10
0
20
0
30
0
70
128
71
56
72
62
73
57
0
VERTEX
8
OBJECT__38
10
0
20
0
30
0
70
128
71
54
72
57
73
50
0
VERTEX
8
OBJECT__38
10
0
20
0
30
0
70
128
71
51
72
52
73
49
0
VERTEX
8
OBJECT__38
10
0
20
0
30
0
70
128
71
47
72
51
73
42
0
VERTEX
8
OBJECT__38
10
0
20
0
30
0
70
128
71
44
72
48
73
42
0
VERTEX
8
OBJECT__38
10
0
20
0
30
0
70
128
71
41
72
45
73
39
0
VERTEX
8
OBJECT__38
10
0
20
0
30
0
70
128
71
38
72
40
73
36
0
VERTEX
8
OBJECT__38
10
0
20
0
30
0
70
128
71
35
72
37
73
33
0
VERTEX
8
OBJECT__38
10
0
20
0
30
0
70
128
71
32
72
34
73
30
0
VERTEX
8
OBJECT__38
10
0
20
0
30
0
70
128
71
25
72
28
73
24
0
VERTEX
8
OBJECT__38
10
0
20
0
30
0
70
128
71
19
72
23
73
18
0
VERTEX
8
OBJECT__38
10
0
20
0
30
0
70
128
71
16
72
20
73
15
0
VERTEX
8
OBJECT__38
10
0
20
0
30
0
70
128
71
12
72
17
73
14
0
VERTEX
8
OBJECT__38
10
0
20
0
30
0
70
128
71
9
72
13
73
8
0
VERTEX
8
OBJECT__38
10
0
20
0
30
0
70
128
71
7
72
10
73
5
0
VERTEX
8
OBJECT__38
10
0
20
0
30
0
70
128
71
3
72
6
73
1
0
SEQEND
8
OBJECT__38
0
POLYLINE
8
OBJECT__39
66
1
70
64
71
82
72
80
62
253
0
VERTEX
8
OBJECT__39
10
15.534000
20
36.731998
30
12.139000
70
192
0
VERTEX
8
OBJECT__39
10
23.080000
20
33.269001
30
12.108000
70
192
0
VERTEX
8
OBJECT__39
10
23.025999
20
33.292000
30
10.696000
70
192
0
VERTEX
8
OBJECT__39
10
23.945999
20
32.868999
30
10.686000
70
192
0
VERTEX
8
OBJECT__39
10
23.955000
20
32.867001
30
12.105000
70
192
0
VERTEX
8
OBJECT__39
10
33.945999
20
29.360001
30
10.624000
70
192
0
VERTEX
8
OBJECT__39
10
38.318001
20
28.063999
30
10.624000
70
192
0
VERTEX
8
OBJECT__39
10
33.948002
20
29.360001
30
12.074000
70
192
0
VERTEX
8
OBJECT__39
10
38.313999
20
28.063999
30
12.082000
70
192
0
VERTEX
8
OBJECT__39
10
44.875000
20
26.420000
30
12.135000
70
192
0
VERTEX
8
OBJECT__39
10
44.782001
20
26.448000
30
10.668000
70
192
0
VERTEX
8
OBJECT__39
10
51.903999
20
24.667999
30
10.716000
70
192
0
VERTEX
8
OBJECT__39
10
51.887001
20
24.664000
30
12.193000
70
192
0
VERTEX
8
OBJECT__39
10
67.010002
20
21.686001
30
12.397000
70
192
0
VERTEX
8
OBJECT__39
10
66.886002
20
21.726000
30
10.916000
70
192
0
VERTEX
8
OBJECT__39
10
67.288002
20
21.646999
30
10.921000
70
192
0
VERTEX
8
OBJECT__39
10
67.264999
20
21.636000
30
12.401000
70
192
0
VERTEX
8
OBJECT__39
10
82.252998
20
19.365000
30
12.614000
70
192
0
VERTEX
8
OBJECT__39
10
82.275002
20
19.379999
30
11.139000
70
192
0
VERTEX
8
OBJECT__39
10
97.051003
20
17.965000
30
11.309000
70
192
0
VERTEX
8
OBJECT__39
10
89.247002
20
18.712000
30
11.219000
70
192
0
VERTEX
8
OBJECT__39
10
89.406998
20
18.681999
30
12.700000
70
192
0
VERTEX
8
OBJECT__39
10
115.389999
20
17.218000
30
11.418000
70
192
0
VERTEX
8
OBJECT__39
10
111.749001
20
17.365999
30
11.396000
70
192
0
VERTEX
8
OBJECT__39
10
111.989998
20
17.349001
30
12.909000
70
192
0
VERTEX
8
OBJECT__39
10
97.036003
20
17.952999
30
12.792000
70
192
0
VERTEX
8
OBJECT__39
10
120.304001
20
17.118000
30
12.957000
70
192
0
VERTEX
8
OBJECT__39
10
120.308998
20
17.124001
30
11.433000
70
192
0
VERTEX
8
OBJECT__39
10
135.623993
20
17.073000
30
11.441000
70
192
0
VERTEX
8
OBJECT__39
10
134.520996
20
17.077000
30
11.440000
70
192
0
VERTEX
8
OBJECT__39
10
134.757004
20
17.068001
30
12.982000
70
192
0
VERTEX
8
OBJECT__39
10
135.626999
20
17.065001
30
12.983000
70
192
0
VERTEX
8
OBJECT__39
10
139.852997
20
17.194000
30
12.982000
70
192
0
VERTEX
8
OBJECT__39
10
139.845993
20
17.209000
30
11.430000
70
192
0
VERTEX
8
OBJECT__39
10
145.505005
20
17.479000
30
12.951000
70
192
0
VERTEX
8
OBJECT__39
10
145.468002
20
17.511999
30
11.387000
70
192
0
VERTEX
8
OBJECT__39
10
149.363998
20
17.757000
30
12.778000
70
192
0
VERTEX
8
OBJECT__39
10
148.475998
20
17.745001
30
11.259000
70
192
0
VERTEX
8
OBJECT__39
10
150.537994
20
17.906000
30
11.171000
70
192
0
VERTEX
8
OBJECT__39
10
150.669998
20
17.851000
30
12.719000
70
192
0
VERTEX
8
OBJECT__39
10
155.378006
20
18.292999
30
12.080000
70
192
0
VERTEX
8
OBJECT__39
10
155.069000
20
18.358999
30
10.606000
70
192
0
VERTEX
8
OBJECT__39
10
159.089996
20
18.799000
30
9.463000
70
192
0
VERTEX
8
OBJECT__39
10
155.860001
20
18.445999
30
10.381000
70
192
0
VERTEX
8
OBJECT__39
10
157.035995
20
18.468000
30
11.579000
70
192
0
VERTEX
8
OBJECT__39
10
162.574005
20
19.174999
30
7.661000
70
192
0
VERTEX
8
OBJECT__39
10
159.434998
20
18.836000
30
9.284000
70
192
0
VERTEX
8
OBJECT__39
10
160.666000
20
18.850000
30
10.245000
70
192
0
VERTEX
8
OBJECT__39
10
159.639008
20
18.743000
30
10.793000
70
192
0
VERTEX
8
OBJECT__39
10
164.348999
20
19.374001
30
6.342000
70
192
0
VERTEX
8
OBJECT__39
10
162.817993
20
19.202000
30
7.479000
70
192
0
VERTEX
8
OBJECT__39
10
164.091995
20
19.214001
30
8.247000
70
192
0
VERTEX
8
OBJECT__39
10
163.345993
20
19.132000
30
8.812000
70
192
0
VERTEX
8
OBJECT__39
10
165.238998
20
19.339001
30
7.379000
70
192
0
VERTEX
8
OBJECT__39
10
166.977005
20
19.556000
30
5.562000
70
192
0
VERTEX
8
OBJECT__39
10
165.677002
20
19.546000
30
4.963000
70
192
0
VERTEX
8
OBJECT__39
10
166.686005
20
19.676001
30
3.915000
70
192
0
VERTEX
8
OBJECT__39
10
167.766006
20
19.653999
30
4.737000
70
192
0
VERTEX
8
OBJECT__39
10
168.705994
20
19.798000
30
3.372000
70
192
0
VERTEX
8
OBJECT__39
10
167.531998
20
19.812000
30
2.671000
70
192
0
VERTEX
8
OBJECT__39
10
169.134995
20
19.888000
30
2.421000
70
192
0
VERTEX
8
OBJECT__39
10
170.154999
20
20.103001
30
0.162000
70
192
0
VERTEX
8
OBJECT__39
10
168.794998
20
20.098000
30
-0.254000
70
192
0
VERTEX
8
OBJECT__39
10
167.828995
20
19.879000
30
1.982000
70
192
0
VERTEX
8
OBJECT__39
10
170.492996
20
20.214001
30
-1.112000
70
192
0
VERTEX
8
OBJECT__39
10
170.625000
20
20.257000
30
-1.613000
70
192
0
VERTEX
8
OBJECT__39
10
169.199997
20
20.246000
30
-1.905000
70
192
0
VERTEX
8
OBJECT__39
10
169.082993
20
20.204000
30
-1.430000
70
192
0
VERTEX
8
OBJECT__39
10
171.031998
20
20.504999
30
-4.950000
70
192
0
VERTEX
8
OBJECT__39
10
169.552002
20
20.493000
30
-5.102000
70
192
0
VERTEX
8
OBJECT__39
10
171.268997
20
20.649000
30
-6.900000
70
192
0
VERTEX
8
OBJECT__39
10
169.759995
20
20.638000
30
-6.985000
70
192
0
VERTEX
8
OBJECT__39
10
171.464996
20
20.804001
30
-12.685000
70
192
0
VERTEX
8
OBJECT__39
10
169.960999
20
20.796000
30
-12.526000
70
192
0
VERTEX
8
OBJECT__39
10
170.149002
20
20.944000
30
-17.679001
70
192
0
VERTEX
8
OBJECT__39
10
171.634003
20
20.936001
30
-17.648001
70
192
0
VERTEX
8
OBJECT__39
10
171.175995
20
21.113001
30
-18.452999
70
192
0
VERTEX
8
OBJECT__39
10
170.673004
20
21.121000
30
-18.458000
70
192
0
VERTEX
8
OBJECT__39
10
171.649002
20
20.938000
30
-18.448999
70
192
0
VERTEX
8
OBJECT__39
10
170.167999
20
20.947001
30
-18.462999
70
192
0
VERTEX
8
OBJECT__39
10
115.383003
20
17.211000
30
12.935000
70
192
0
VERTEX
8
OBJECT__39
10
15.527000
20
36.734001
30
10.771000
70
192
0
VERTEX
8
OBJECT__39
10
0
20
0
30
0
70
128
71
1
72
2
73
3
0
VERTEX
8
OBJECT__39
10
0
20
0
30
0
70
128
71
4
72
3
73
2
0
VERTEX
8
OBJECT__39
10
0
20
0
30
0
70
128
71
2
72
5
73
4
0
VERTEX
8
OBJECT__39
10
0
20
0
30
0
70
128
71
6
72
4
73
5
0
VERTEX
8
OBJECT__39
10
0
20
0
30
0
70
128
71
7
72
6
73
8
0
VERTEX
8
OBJECT__39
10
0
20
0
30
0
70
128
71
9
72
10
73
11
0
VERTEX
8
OBJECT__39
10
0
20
0
30
0
70
128
71
12
72
11
73
10
0
VERTEX
8
OBJECT__39
10
0
20
0
30
0
70
128
71
10
72
13
73
12
0
VERTEX
8
OBJECT__39
10
0
20
0
30
0
70
128
71
13
72
14
73
15
0
VERTEX
8
OBJECT__39
10
0
20
0
30
0
70
128
71
16
72
15
73
14
0
VERTEX
8
OBJECT__39
10
0
20
0
30
0
70
128
71
14
72
17
73
16
0
VERTEX
8
OBJECT__39
10
0
20
0
30
0
70
128
71
17
72
18
73
19
0
VERTEX
8
OBJECT__39
10
0
20
0
30
0
70
128
71
20
72
21
73
22
0
VERTEX
8
OBJECT__39
10
0
20
0
30
0
70
128
71
18
72
22
73
21
0
VERTEX
8
OBJECT__39
10
0
20
0
30
0
70
128
71
21
72
19
73
18
0
VERTEX
8
OBJECT__39
10
0
20
0
30
0
70
128
71
23
72
24
73
25
0
VERTEX
8
OBJECT__39
10
0
20
0
30
0
70
128
71
26
72
25
73
24
0
VERTEX
8
OBJECT__39
10
0
20
0
30
0
70
128
71
24
72
20
73
26
0
VERTEX
8
OBJECT__39
10
0
20
0
30
0
70
128
71
27
72
28
73
23
0
VERTEX
8
OBJECT__39
10
0
20
0
30
0
70
128
71
29
72
30
73
31
0
VERTEX
8
OBJECT__39
10
0
20
0
30
0
70
128
71
27
72
31
73
30
0
VERTEX
8
OBJECT__39
10
0
20
0
30
0
70
128
71
30
72
28
73
27
0
VERTEX
8
OBJECT__39
10
0
20
0
30
0
70
128
71
32
72
33
73
34
0
VERTEX
8
OBJECT__39
10
0
20
0
30
0
70
128
71
33
72
35
73
36
0
VERTEX
8
OBJECT__39
10
0
20
0
30
0
70
128
71
35
72
37
73
38
0
VERTEX
8
OBJECT__39
10
0
20
0
30
0
70
128
71
39
72
38
73
37
0
VERTEX
8
OBJECT__39
10
0
20
0
30
0
70
128
71
37
72
40
73
39
0
VERTEX
8
OBJECT__39
10
0
20
0
30
0
70
128
71
40
72
41
73
42
0
VERTEX
8
OBJECT__39
10
0
20
0
30
0
70
128
71
43
72
44
73
45
0
VERTEX
8
OBJECT__39
10
0
20
0
30
0
70
128
71
41
72
45
73
44
0
VERTEX
8
OBJECT__39
10
0
20
0
30
0
70
128
71
44
72
42
73
41
0
VERTEX
8
OBJECT__39
10
0
20
0
30
0
70
128
71
46
72
47
73
48
0
VERTEX
8
OBJECT__39
10
0
20
0
30
0
70
128
71
49
72
48
73
47
0
VERTEX
8
OBJECT__39
10
0
20
0
30
0
70
128
71
47
72
43
73
49
0
VERTEX
8
OBJECT__39
10
0
20
0
30
0
70
128
71
50
72
51
73
52
0
VERTEX
8
OBJECT__39
10
0
20
0
30
0
70
128
71
53
72
52
73
51
0
VERTEX
8
OBJECT__39
10
0
20
0
30
0
70
128
71
51
72
46
73
53
0
VERTEX
8
OBJECT__39
10
0
20
0
30
0
70
128
71
54
72
55
73
56
0
VERTEX
8
OBJECT__39
10
0
20
0
30
0
70
128
71
57
72
56
73
55
0
VERTEX
8
OBJECT__39
10
0
20
0
30
0
70
128
71
55
72
58
73
57
0
VERTEX
8
OBJECT__39
10
0
20
0
30
0
70
128
71
58
72
59
73
60
0
VERTEX
8
OBJECT__39
10
0
20
0
30
0
70
128
71
61
72
62
73
63
0
VERTEX
8
OBJECT__39
10
0
20
0
30
0
70
128
71
61
72
64
73
60
0
VERTEX
8
OBJECT__39
10
0
20
0
30
0
70
128
71
60
72
59
73
61
0
VERTEX
8
OBJECT__39
10
0
20
0
30
0
70
128
71
65
72
66
73
67
0
VERTEX
8
OBJECT__39
10
0
20
0
30
0
70
128
71
65
72
68
73
63
0
VERTEX
8
OBJECT__39
10
0
20
0
30
0
70
128
71
63
72
62
73
65
0
VERTEX
8
OBJECT__39
10
0
20
0
30
0
70
128
71
69
72
70
73
67
0
VERTEX
8
OBJECT__39
10
0
20
0
30
0
70
128
71
69
72
71
73
72
0
VERTEX
8
OBJECT__39
10
0
20
0
30
0
70
128
71
72
72
70
73
69
0
VERTEX
8
OBJECT__39
10
0
20
0
30
0
70
128
71
71
72
73
73
74
0
VERTEX
8
OBJECT__39
10
0
20
0
30
0
70
128
71
75
72
74
73
73
0
VERTEX
8
OBJECT__39
10
0
20
0
30
0
70
128
71
73
72
76
73
75
0
VERTEX
8
OBJECT__39
10
0
20
0
30
0
70
128
71
76
72
77
73
78
0
VERTEX
8
OBJECT__39
10
0
20
0
30
0
70
128
71
76
72
79
73
77
0
VERTEX
8
OBJECT__39
10
0
20
0
30
0
70
128
71
78
72
75
73
76
0
VERTEX
8
OBJECT__39
10
0
20
0
30
0
70
128
71
78
72
80
73
75
0
VERTEX
8
OBJECT__39
10
0
20
0
30
0
70
128
71
74
72
72
73
71
0
VERTEX
8
OBJECT__39
10
0
20
0
30
0
70
128
71
67
72
66
73
69
0
VERTEX
8
OBJECT__39
10
0
20
0
30
0
70
128
71
67
72
68
73
65
0
VERTEX
8
OBJECT__39
10
0
20
0
30
0
70
128
71
63
72
64
73
61
0
VERTEX
8
OBJECT__39
10
0
20
0
30
0
70
128
71
60
72
57
73
58
0
VERTEX
8
OBJECT__39
10
0
20
0
30
0
70
128
71
56
72
50
73
54
0
VERTEX
8
OBJECT__39
10
0
20
0
30
0
70
128
71
52
72
54
73
50
0
VERTEX
8
OBJECT__39
10
0
20
0
30
0
70
128
71
48
72
53
73
46
0
VERTEX
8
OBJECT__39
10
0
20
0
30
0
70
128
71
45
72
49
73
43
0
VERTEX
8
OBJECT__39
10
0
20
0
30
0
70
128
71
42
72
39
73
40
0
VERTEX
8
OBJECT__39
10
0
20
0
30
0
70
128
71
38
72
36
73
35
0
VERTEX
8
OBJECT__39
10
0
20
0
30
0
70
128
71
36
72
34
73
33
0
VERTEX
8
OBJECT__39
10
0
20
0
30
0
70
128
71
34
72
29
73
32
0
VERTEX
8
OBJECT__39
10
0
20
0
30
0
70
128
71
31
72
32
73
29
0
VERTEX
8
OBJECT__39
10
0
20
0
30
0
70
128
71
23
72
81
73
27
0
VERTEX
8
OBJECT__39
10
0
20
0
30
0
70
128
71
25
72
81
73
23
0
VERTEX
8
OBJECT__39
10
0
20
0
30
0
70
128
71
22
72
26
73
20
0
VERTEX
8
OBJECT__39
10
0
20
0
30
0
70
128
71
19
72
16
73
17
0
VERTEX
8
OBJECT__39
10
0
20
0
30
0
70
128
71
15
72
12
73
13
0
VERTEX
8
OBJECT__39
10
0
20
0
30
0
70
128
71
11
72
7
73
9
0
VERTEX
8
OBJECT__39
10
0
20
0
30
0
70
128
71
8
72
9
73
7
0
VERTEX
8
OBJECT__39
10
0
20
0
30
0
70
128
71
5
72
8
73
6
0
VERTEX
8
OBJECT__39
10
0
20
0
30
0
70
128
71
3
72
82
73
1
0
SEQEND
8
OBJECT__39
0
POLYLINE
8
OBJECT__40
66
1
70
64
71
43
72
41
62
253
0
VERTEX
8
OBJECT__40
10
15.302000
20
36.998001
30
11.455000
70
192
0
VERTEX
8
OBJECT__40
10
12.153000
20
37.700001
30
13.286000
70
192
0
VERTEX
8
OBJECT__40
10
12.689000
20
37.355999
30
13.796000
70
192
0
VERTEX
8
OBJECT__40
10
12.533000
20
37.389999
30
13.886000
70
192
0
VERTEX
8
OBJECT__40
10
10.375000
20
37.931000
30
14.749000
70
192
0
VERTEX
8
OBJECT__40
10
10.836000
20
37.602001
30
15.285000
70
192
0
VERTEX
8
OBJECT__40
10
8.328000
20
37.596001
30
18.066999
70
192
0
VERTEX
8
OBJECT__40
10
9.310000
20
37.933998
30
15.930000
70
192
0
VERTEX
8
OBJECT__40
10
7.715000
20
37.932999
30
17.709000
70
192
0
VERTEX
8
OBJECT__40
10
6.565000
20
37.742001
30
19.377001
70
192
0
VERTEX
8
OBJECT__40
10
7.189000
20
37.400002
30
19.719999
70
192
0
VERTEX
8
OBJECT__40
10
7.753000
20
37.938999
30
17.653999
70
192
0
VERTEX
8
OBJECT__40
10
4.729000
20
36.958000
30
22.931000
70
192
0
VERTEX
8
OBJECT__40
10
5.424000
20
36.638000
30
23.132000
70
192
0
VERTEX
8
OBJECT__40
10
4.071000
20
36.380001
30
24.733000
70
192
0
VERTEX
8
OBJECT__40
10
4.753000
20
36.047001
30
24.966999
70
192
0
VERTEX
8
OBJECT__40
10
3.208000
20
34.785000
30
28.556000
70
192
0
VERTEX
8
OBJECT__40
10
3.960000
20
34.544998
30
28.535000
70
192
0
VERTEX
8
OBJECT__40
10
3.058000
20
33.627998
30
30.742001
70
192
0
VERTEX
8
OBJECT__40
10
3.815000
20
33.433998
30
30.632999
70
192
0
VERTEX
8
OBJECT__40
10
3.815000
20
33.431999
30
30.636999
70
192
0
VERTEX
8
OBJECT__40
10
3.252000
20
32.326000
30
32.752998
70
192
0
VERTEX
8
OBJECT__40
10
4.135000
20
31.290001
30
33.945000
70
192
0
VERTEX
8
OBJECT__40
10
3.389000
20
31.399000
30
34.182999
70
192
0
VERTEX
8
OBJECT__40
10
3.947000
20
29.879999
30
36.120998
70
192
0
VERTEX
8
OBJECT__40
10
4.672000
20
29.832001
30
35.808998
70
192
0
VERTEX
8
OBJECT__40
10
5.401000
20
27.254000
30
38.893002
70
192
0
VERTEX
8
OBJECT__40
10
6.071000
20
27.313000
30
38.477001
70
192
0
VERTEX
8
OBJECT__40
10
7.253000
20
25.698000
30
39.874001
70
192
0
VERTEX
8
OBJECT__40
10
5.969000
20
26.476000
30
39.562000
70
192
0
VERTEX
8
OBJECT__40
10
9.513000
20
23.230000
30
41.571999
70
192
0
VERTEX
8
OBJECT__40
10
7.679000
20
24.422001
30
41.124001
70
192
0
VERTEX
8
OBJECT__40
10
6.633000
20
25.566999
30
40.344002
70
192
0
VERTEX
8
OBJECT__40
10
8.991000
20
22.986000
30
42.103001
70
192
0
VERTEX
8
OBJECT__40
10
10.894000
20
21.312000
30
42.931000
70
192
0
VERTEX
8
OBJECT__40
10
11.331000
20
21.632000
30
42.373001
70
192
0
VERTEX
8
OBJECT__40
10
13.889000
20
19.223000
30
43.527000
70
192
0
VERTEX
8
OBJECT__40
10
14.185000
20
19.643999
30
42.953999
70
192
0
VERTEX
8
OBJECT__40
10
12.655000
20
20.709999
30
42.643002
70
192
0
VERTEX
8
OBJECT__40
10
14.599000
20
18.811001
30
43.567001
70
192
0
VERTEX
8
OBJECT__40
10
14.862000
20
19.253000
30
42.993999
70
192
0
VERTEX
8
OBJECT__40
10
4.031000
20
36.345001
30
24.841999
70
192
0
VERTEX
8
OBJECT__40
10
15.534000
20
36.731998
30
12.139000
70
192
0
VERTEX
8
OBJECT__40
10
0
20
0
30
0
70
128
71
1
72
2
73
3
0
VERTEX
8
OBJECT__40
10
0
20
0
30
0
70
128
71
2
72
4
73
3
0
VERTEX
8
OBJECT__40
10
0
20
0
30
0
70
128
71
5
72
6
73
4
0
VERTEX
8
OBJECT__40
10
0
20
0
30
0
70
128
71
7
72
6
73
8
0
VERTEX
8
OBJECT__40
10
0
20
0
30
0
70
128
71
6
72
5
73
8
0
VERTEX
8
OBJECT__40
10
0
20
0
30
0
70
128
71
9
72
10
73
11
0
VERTEX
8
OBJECT__40
10
0
20
0
30
0
70
128
71
7
72
12
73
9
0
VERTEX
8
OBJECT__40
10
0
20
0
30
0
70
128
71
13
72
14
73
11
0
VERTEX
8
OBJECT__40
10
0
20
0
30
0
70
128
71
14
72
13
73
15
0
VERTEX
8
OBJECT__40
10
0
20
0
30
0
70
128
71
15
72
16
73
14
0
VERTEX
8
OBJECT__40
10
0
20
0
30
0
70
128
71
17
72
18
73
16
0
VERTEX
8
OBJECT__40
10
0
20
0
30
0
70
128
71
17
72
19
73
20
0
VERTEX
8
OBJECT__40
10
0
20
0
30
0
70
128
71
19
72
21
73
20
0
VERTEX
8
OBJECT__40
10
0
20
0
30
0
70
128
71
21
72
19
73
22
0
VERTEX
8
OBJECT__40
10
0
20
0
30
0
70
128
71
22
72
23
73
21
0
VERTEX
8
OBJECT__40
10
0
20
0
30
0
70
128
71
24
72
25
73
26
0
VERTEX
8
OBJECT__40
10
0
20
0
30
0
70
128
71
25
72
27
73
28
0
VERTEX
8
OBJECT__40
10
0
20
0
30
0
70
128
71
29
72
28
73
30
0
VERTEX
8
OBJECT__40
10
0
20
0
30
0
70
128
71
28
72
27
73
30
0
VERTEX
8
OBJECT__40
10
0
20
0
30
0
70
128
71
31
72
29
73
32
0
VERTEX
8
OBJECT__40
10
0
20
0
30
0
70
128
71
29
72
33
73
32
0
VERTEX
8
OBJECT__40
10
0
20
0
30
0
70
128
71
34
72
35
73
36
0
VERTEX
8
OBJECT__40
10
0
20
0
30
0
70
128
71
37
72
38
73
39
0
VERTEX
8
OBJECT__40
10
0
20
0
30
0
70
128
71
39
72
35
73
37
0
VERTEX
8
OBJECT__40
10
0
20
0
30
0
70
128
71
37
72
40
73
41
0
VERTEX
8
OBJECT__40
10
0
20
0
30
0
70
128
71
41
72
38
73
37
0
VERTEX
8
OBJECT__40
10
0
20
0
30
0
70
128
71
39
72
36
73
35
0
VERTEX
8
OBJECT__40
10
0
20
0
30
0
70
128
71
36
72
31
73
34
0
VERTEX
8
OBJECT__40
10
0
20
0
30
0
70
128
71
32
72
34
73
31
0
VERTEX
8
OBJECT__40
10
0
20
0
30
0
70
128
71
30
72
33
73
29
0
VERTEX
8
OBJECT__40
10
0
20
0
30
0
70
128
71
28
72
26
73
25
0
VERTEX
8
OBJECT__40
10
0
20
0
30
0
70
128
71
26
72
23
73
24
0
VERTEX
8
OBJECT__40
10
0
20
0
30
0
70
128
71
22
72
24
73
23
0
VERTEX
8
OBJECT__40
10
0
20
0
30
0
70
128
71
20
72
18
73
17
0
VERTEX
8
OBJECT__40
10
0
20
0
30
0
70
128
71
16
72
42
73
17
0
VERTEX
8
OBJECT__40
10
0
20
0
30
0
70
128
71
15
72
42
73
16
0
VERTEX
8
OBJECT__40
10
0
20
0
30
0
70
128
71
11
72
10
73
13
0
VERTEX
8
OBJECT__40
10
0
20
0
30
0
70
128
71
11
72
7
73
9
0
VERTEX
8
OBJECT__40
10
0
20
0
30
0
70
128
71
8
72
12
73
7
0
VERTEX
8
OBJECT__40
10
0
20
0
30
0
70
128
71
4
72
2
73
5
0
VERTEX
8
OBJECT__40
10
0
20
0
30
0
70
128
71
3
72
43
73
1
0
SEQEND
8
OBJECT__40
0
POLYLINE
8
OBJECT__41
66
1
70
64
71
3
72
1
62
253
0
VERTEX
8
OBJECT__41
10
15.302000
20
36.998001
30
11.455000
70
192
0
VERTEX
8
OBJECT__41
10
15.534000
20
36.731998
30
12.139000
70
192
0
VERTEX
8
OBJECT__41
10
15.527000
20
36.734001
30
10.771000
70
192
0
VERTEX
8
OBJECT__41
10
0
20
0
30
0
70
128
71
1
72
2
73
3
0
SEQEND
8
OBJECT__41
0
POLYLINE
8
OBJECT__42
66
1
70
64
71
74
72
72
62
253
0
VERTEX
8
OBJECT__42
10
15.023000
20
19.209999
30
-19.993999
70
192
0
VERTEX
8
OBJECT__42
10
23.117001
20
17.332001
30
-16.757999
70
192
0
VERTEX
8
OBJECT__42
10
22.445000
20
16.264000
30
-17.731001
70
192
0
VERTEX
8
OBJECT__42
10
23.112000
20
16.106001
30
-17.466999
70
192
0
VERTEX
8
OBJECT__42
10
32.880001
20
14.332000
30
-14.504000
70
192
0
VERTEX
8
OBJECT__42
10
45.666000
20
12.530000
30
-11.477000
70
192
0
VERTEX
8
OBJECT__42
10
44.152000
20
12.744000
30
-11.835000
70
192
0
VERTEX
8
OBJECT__42
10
44.714001
20
13.936000
30
-10.968000
70
192
0
VERTEX
8
OBJECT__42
10
33.213001
20
14.285000
30
-14.425000
70
192
0
VERTEX
8
OBJECT__42
10
33.773998
20
15.462000
30
-13.568000
70
192
0
VERTEX
8
OBJECT__42
10
32.884998
20
15.587000
30
-13.780000
70
192
0
VERTEX
8
OBJECT__42
10
45.669998
20
13.803000
30
-10.741000
70
192
0
VERTEX
8
OBJECT__42
10
62.321999
20
12.007000
30
-7.748000
70
192
0
VERTEX
8
OBJECT__42
10
62.313000
20
10.718000
30
-8.500000
70
192
0
VERTEX
8
OBJECT__42
10
81.031998
20
9.148000
30
-6.033000
70
192
0
VERTEX
8
OBJECT__42
10
66.322998
20
10.381000
30
-7.972000
70
192
0
VERTEX
8
OBJECT__42
10
66.907997
20
11.626000
30
-7.140000
70
192
0
VERTEX
8
OBJECT__42
10
81.035004
20
10.452000
30
-5.266000
70
192
0
VERTEX
8
OBJECT__42
10
89.260002
20
10.019000
30
-4.416000
70
192
0
VERTEX
8
OBJECT__42
10
88.676003
20
8.746000
30
-5.244000
70
192
0
VERTEX
8
OBJECT__42
10
96.577003
20
8.330000
30
-4.427000
70
192
0
VERTEX
8
OBJECT__42
10
96.551003
20
9.636000
30
-3.663000
70
192
0
VERTEX
8
OBJECT__42
10
108.442001
20
9.348000
30
-2.685000
70
192
0
VERTEX
8
OBJECT__42
10
110.690002
20
8.037000
30
-3.317000
70
192
0
VERTEX
8
OBJECT__42
10
111.317001
20
9.333000
30
-2.533000
70
192
0
VERTEX
8
OBJECT__42
10
122.941002
20
9.273000
30
-1.918000
70
192
0
VERTEX
8
OBJECT__42
10
124.841003
20
7.970000
30
-2.558000
70
192
0
VERTEX
8
OBJECT__42
10
108.478996
20
8.047000
30
-3.436000
70
192
0
VERTEX
8
OBJECT__42
10
124.814003
20
9.263000
30
-1.819000
70
192
0
VERTEX
8
OBJECT__42
10
132.311005
20
9.288000
30
-1.657000
70
192
0
VERTEX
8
OBJECT__42
10
132.322006
20
7.996000
30
-2.395000
70
192
0
VERTEX
8
OBJECT__42
10
137.636002
20
8.039000
30
-2.473000
70
192
0
VERTEX
8
OBJECT__42
10
134.184006
20
8.011000
30
-2.422000
70
192
0
VERTEX
8
OBJECT__42
10
134.764999
20
9.307000
30
-1.694000
70
192
0
VERTEX
8
OBJECT__42
10
142.069000
20
8.102000
30
-2.854000
70
192
0
VERTEX
8
OBJECT__42
10
139.205994
20
8.061000
30
-2.608000
70
192
0
VERTEX
8
OBJECT__42
10
139.757004
20
9.361000
30
-1.914000
70
192
0
VERTEX
8
OBJECT__42
10
137.653000
20
9.329000
30
-1.738000
70
192
0
VERTEX
8
OBJECT__42
10
142.154007
20
9.397000
30
-2.115000
70
192
0
VERTEX
8
OBJECT__42
10
143.671005
20
9.462000
30
-2.405000
70
192
0
VERTEX
8
OBJECT__42
10
143.048004
20
8.140000
30
-3.055000
70
192
0
VERTEX
8
OBJECT__42
10
143.917007
20
8.174000
30
-3.233000
70
192
0
VERTEX
8
OBJECT__42
10
144.046005
20
9.478000
30
-2.477000
70
192
0
VERTEX
8
OBJECT__42
10
146.705994
20
9.717000
30
-3.412000
70
192
0
VERTEX
8
OBJECT__42
10
146.207001
20
8.375000
30
-4.093000
70
192
0
VERTEX
8
OBJECT__42
10
146.427994
20
8.395000
30
-4.176000
70
192
0
VERTEX
8
OBJECT__42
10
147.257996
20
8.489000
30
-4.676000
70
192
0
VERTEX
8
OBJECT__42
10
146.970001
20
9.746000
30
-3.563000
70
192
0
VERTEX
8
OBJECT__42
10
147.628006
20
9.818000
30
-3.941000
70
192
0
VERTEX
8
OBJECT__42
10
149.744003
20
10.027000
30
-5.807000
70
192
0
VERTEX
8
OBJECT__42
10
148.938995
20
8.666000
30
-6.203000
70
192
0
VERTEX
8
OBJECT__42
10
149.164993
20
8.690000
30
-6.409000
70
192
0
VERTEX
8
OBJECT__42
10
149.852997
20
8.755000
30
-7.269000
70
192
0
VERTEX
8
OBJECT__42
10
149.807999
20
10.033000
30
-5.886000
70
192
0
VERTEX
8
OBJECT__42
10
150.925003
20
8.890000
30
-9.070000
70
192
0
VERTEX
8
OBJECT__42
10
150.899002
20
10.140000
30
-7.420000
70
192
0
VERTEX
8
OBJECT__42
10
150.483002
20
10.094000
30
-6.719000
70
192
0
VERTEX
8
OBJECT__42
10
151.776001
20
10.237000
30
-8.899000
70
192
0
VERTEX
8
OBJECT__42
10
151.175003
20
8.921000
30
-9.490000
70
192
0
VERTEX
8
OBJECT__42
10
151.878998
20
10.248000
30
-9.072000
70
192
0
VERTEX
8
OBJECT__42
10
152.253998
20
10.328000
30
-10.133000
70
192
0
VERTEX
8
OBJECT__42
10
151.535004
20
9.020000
30
-10.461000
70
192
0
VERTEX
8
OBJECT__42
10
152.449005
20
10.462000
30
-11.663000
70
192
0
VERTEX
8
OBJECT__42
10
151.695999
20
9.147000
30
-11.638000
70
192
0
VERTEX
8
OBJECT__42
10
151.858002
20
9.276000
30
-12.829000
70
192
0
VERTEX
8
OBJECT__42
10
152.578995
20
10.552000
30
-12.685000
70
192
0
VERTEX
8
OBJECT__42
10
152.625000
20
10.750000
30
-14.883000
70
192
0
VERTEX
8
OBJECT__42
10
151.893005
20
9.470000
30
-14.993000
70
192
0
VERTEX
8
OBJECT__42
10
152.229996
20
10.745000
30
-18.436001
70
192
0
VERTEX
8
OBJECT__42
10
151.968002
20
10.316000
30
-18.452000
70
192
0
VERTEX
8
OBJECT__42
10
152.619995
20
11.063000
30
-18.427000
70
192
0
VERTEX
8
OBJECT__42
10
151.862000
20
9.824000
30
-18.469999
70
192
0
VERTEX
8
OBJECT__42
10
151.860001
20
9.763000
30
-18.473000
70
192
0
VERTEX
8
OBJECT__42
10
15.018000
20
18.028000
30
-20.677999
70
192
0
VERTEX
8
OBJECT__42
10
0
20
0
30
0
70
128
71
1
72
2
73
3
0
VERTEX
8
OBJECT__42
10
0
20
0
30
0
70
128
71
2
72
4
73
3
0
VERTEX
8
OBJECT__42
10
0
20
0
30
0
70
128
71
5
72
4
73
2
0
VERTEX
8
OBJECT__42
10
0
20
0
30
0
70
128
71
6
72
7
73
8
0
VERTEX
8
OBJECT__42
10
0
20
0
30
0
70
128
71
7
72
9
73
10
0
VERTEX
8
OBJECT__42
10
0
20
0
30
0
70
128
71
10
72
8
73
7
0
VERTEX
8
OBJECT__42
10
0
20
0
30
0
70
128
71
9
72
11
73
10
0
VERTEX
8
OBJECT__42
10
0
20
0
30
0
70
128
71
8
72
12
73
6
0
VERTEX
8
OBJECT__42
10
0
20
0
30
0
70
128
71
12
72
13
73
14
0
VERTEX
8
OBJECT__42
10
0
20
0
30
0
70
128
71
15
72
16
73
17
0
VERTEX
8
OBJECT__42
10
0
20
0
30
0
70
128
71
13
72
17
73
16
0
VERTEX
8
OBJECT__42
10
0
20
0
30
0
70
128
71
16
72
14
73
13
0
VERTEX
8
OBJECT__42
10
0
20
0
30
0
70
128
71
18
72
19
73
20
0
VERTEX
8
OBJECT__42
10
0
20
0
30
0
70
128
71
21
72
20
73
19
0
VERTEX
8
OBJECT__42
10
0
20
0
30
0
70
128
71
19
72
22
73
21
0
VERTEX
8
OBJECT__42
10
0
20
0
30
0
70
128
71
21
72
22
73
23
0
VERTEX
8
OBJECT__42
10
0
20
0
30
0
70
128
71
24
72
25
73
26
0
VERTEX
8
OBJECT__42
10
0
20
0
30
0
70
128
71
26
72
27
73
24
0
VERTEX
8
OBJECT__42
10
0
20
0
30
0
70
128
71
23
72
25
73
24
0
VERTEX
8
OBJECT__42
10
0
20
0
30
0
70
128
71
24
72
28
73
23
0
VERTEX
8
OBJECT__42
10
0
20
0
30
0
70
128
71
29
72
30
73
31
0
VERTEX
8
OBJECT__42
10
0
20
0
30
0
70
128
71
32
72
33
73
34
0
VERTEX
8
OBJECT__42
10
0
20
0
30
0
70
128
71
30
72
34
73
33
0
VERTEX
8
OBJECT__42
10
0
20
0
30
0
70
128
71
33
72
31
73
30
0
VERTEX
8
OBJECT__42
10
0
20
0
30
0
70
128
71
35
72
36
73
37
0
VERTEX
8
OBJECT__42
10
0
20
0
30
0
70
128
71
38
72
37
73
36
0
VERTEX
8
OBJECT__42
10
0
20
0
30
0
70
128
71
36
72
32
73
38
0
VERTEX
8
OBJECT__42
10
0
20
0
30
0
70
128
71
39
72
40
73
41
0
VERTEX
8
OBJECT__42
10
0
20
0
30
0
70
128
71
42
72
41
73
40
0
VERTEX
8
OBJECT__42
10
0
20
0
30
0
70
128
71
40
72
43
73
42
0
VERTEX
8
OBJECT__42
10
0
20
0
30
0
70
128
71
43
72
44
73
45
0
VERTEX
8
OBJECT__42
10
0
20
0
30
0
70
128
71
44
72
46
73
45
0
VERTEX
8
OBJECT__42
10
0
20
0
30
0
70
128
71
47
72
46
73
48
0
VERTEX
8
OBJECT__42
10
0
20
0
30
0
70
128
71
46
72
44
73
48
0
VERTEX
8
OBJECT__42
10
0
20
0
30
0
70
128
71
49
72
50
73
51
0
VERTEX
8
OBJECT__42
10
0
20
0
30
0
70
128
71
50
72
52
73
51
0
VERTEX
8
OBJECT__42
10
0
20
0
30
0
70
128
71
53
72
52
73
54
0
VERTEX
8
OBJECT__42
10
0
20
0
30
0
70
128
71
52
72
50
73
54
0
VERTEX
8
OBJECT__42
10
0
20
0
30
0
70
128
71
55
72
53
73
56
0
VERTEX
8
OBJECT__42
10
0
20
0
30
0
70
128
71
53
72
57
73
56
0
VERTEX
8
OBJECT__42
10
0
20
0
30
0
70
128
71
58
72
59
73
55
0
VERTEX
8
OBJECT__42
10
0
20
0
30
0
70
128
71
56
72
58
73
55
0
VERTEX
8
OBJECT__42
10
0
20
0
30
0
70
128
71
60
72
61
73
62
0
VERTEX
8
OBJECT__42
10
0
20
0
30
0
70
128
71
61
72
63
73
64
0
VERTEX
8
OBJECT__42
10
0
20
0
30
0
70
128
71
65
72
64
73
63
0
VERTEX
8
OBJECT__42
10
0
20
0
30
0
70
128
71
63
72
66
73
65
0
VERTEX
8
OBJECT__42
10
0
20
0
30
0
70
128
71
67
72
68
73
65
0
VERTEX
8
OBJECT__42
10
0
20
0
30
0
70
128
71
67
72
69
73
70
0
VERTEX
8
OBJECT__42
10
0
20
0
30
0
70
128
71
67
72
71
73
69
0
VERTEX
8
OBJECT__42
10
0
20
0
30
0
70
128
71
70
72
68
73
67
0
VERTEX
8
OBJECT__42
10
0
20
0
30
0
70
128
71
70
72
72
73
68
0
VERTEX
8
OBJECT__42
10
0
20
0
30
0
70
128
71
72
72
73
73
68
0
VERTEX
8
OBJECT__42
10
0
20
0
30
0
70
128
71
65
72
66
73
67
0
VERTEX
8
OBJECT__42
10
0
20
0
30
0
70
128
71
64
72
62
73
61
0
VERTEX
8
OBJECT__42
10
0
20
0
30
0
70
128
71
62
72
59
73
60
0
VERTEX
8
OBJECT__42
10
0
20
0
30
0
70
128
71
58
72
60
73
59
0
VERTEX
8
OBJECT__42
10
0
20
0
30
0
70
128
71
54
72
57
73
53
0
VERTEX
8
OBJECT__42
10
0
20
0
30
0
70
128
71
51
72
47
73
49
0
VERTEX
8
OBJECT__42
10
0
20
0
30
0
70
128
71
48
72
49
73
47
0
VERTEX
8
OBJECT__42
10
0
20
0
30
0
70
128
71
45
72
42
73
43
0
VERTEX
8
OBJECT__42
10
0
20
0
30
0
70
128
71
41
72
35
73
39
0
VERTEX
8
OBJECT__42
10
0
20
0
30
0
70
128
71
37
72
39
73
35
0
VERTEX
8
OBJECT__42
10
0
20
0
30
0
70
128
71
34
72
38
73
32
0
VERTEX
8
OBJECT__42
10
0
20
0
30
0
70
128
71
31
72
27
73
29
0
VERTEX
8
OBJECT__42
10
0
20
0
30
0
70
128
71
26
72
29
73
27
0
VERTEX
8
OBJECT__42
10
0
20
0
30
0
70
128
71
23
72
28
73
21
0
VERTEX
8
OBJECT__42
10
0
20
0
30
0
70
128
71
20
72
15
73
18
0
VERTEX
8
OBJECT__42
10
0
20
0
30
0
70
128
71
17
72
18
73
15
0
VERTEX
8
OBJECT__42
10
0
20
0
30
0
70
128
71
14
72
6
73
12
0
VERTEX
8
OBJECT__42
10
0
20
0
30
0
70
128
71
9
72
5
73
11
0
VERTEX
8
OBJECT__42
10
0
20
0
30
0
70
128
71
2
72
11
73
5
0
VERTEX
8
OBJECT__42
10
0
20
0
30
0
70
128
71
3
72
74
73
1
0
SEQEND
8
OBJECT__42
0
POLYLINE
8
OBJECT__43
66
1
70
64
71
43
72
41
62
253
0
VERTEX
8
OBJECT__43
10
14.773000
20
18.764000
30
-20.565001
70
192
0
VERTEX
8
OBJECT__43
10
11.685000
20
20.732000
30
-20.164000
70
192
0
VERTEX
8
OBJECT__43
10
12.613000
20
20.743999
30
-19.672001
70
192
0
VERTEX
8
OBJECT__43
10
12.082000
20
21.082001
30
-19.601000
70
192
0
VERTEX
8
OBJECT__43
10
9.930000
20
22.146000
30
-19.569000
70
192
0
VERTEX
8
OBJECT__43
10
10.408000
20
22.429001
30
-19.024000
70
192
0
VERTEX
8
OBJECT__43
10
7.679000
20
24.389999
30
-18.207001
70
192
0
VERTEX
8
OBJECT__43
10
7.970000
20
24.857000
30
-17.534000
70
192
0
VERTEX
8
OBJECT__43
10
6.247000
20
26.073000
30
-16.954000
70
192
0
VERTEX
8
OBJECT__43
10
6.882000
20
26.183001
30
-16.500000
70
192
0
VERTEX
8
OBJECT__43
10
5.209000
20
28.747000
30
-14.058000
70
192
0
VERTEX
8
OBJECT__43
10
5.989000
20
26.469999
30
-16.577999
70
192
0
VERTEX
8
OBJECT__43
10
3.859000
20
30.089001
30
-12.892000
70
192
0
VERTEX
8
OBJECT__43
10
4.587000
20
30.033001
30
-12.590000
70
192
0
VERTEX
8
OBJECT__43
10
3.181000
20
32.362999
30
-9.798000
70
192
0
VERTEX
8
OBJECT__43
10
3.899000
20
32.334000
30
-9.454000
70
192
0
VERTEX
8
OBJECT__43
10
3.145000
20
32.486000
30
-9.631000
70
192
0
VERTEX
8
OBJECT__43
10
3.062000
20
33.770000
30
-7.514000
70
192
0
VERTEX
8
OBJECT__43
10
3.828000
20
33.428001
30
-7.650000
70
192
0
VERTEX
8
OBJECT__43
10
3.819000
20
33.568001
30
-7.418000
70
192
0
VERTEX
8
OBJECT__43
10
3.505000
20
35.574001
30
-3.847000
70
192
0
VERTEX
8
OBJECT__43
10
4.245000
20
35.304001
30
-3.894000
70
192
0
VERTEX
8
OBJECT__43
10
4.077000
20
36.377998
30
-1.753000
70
192
0
VERTEX
8
OBJECT__43
10
4.845000
20
36.146999
30
-1.705000
70
192
0
VERTEX
8
OBJECT__43
10
4.127000
20
36.448002
30
-1.568000
70
192
0
VERTEX
8
OBJECT__43
10
5.678000
20
37.459999
30
2.057000
70
192
0
VERTEX
8
OBJECT__43
10
6.336000
20
37.125999
30
1.777000
70
192
0
VERTEX
8
OBJECT__43
10
6.976000
20
37.827999
30
4.225000
70
192
0
VERTEX
8
OBJECT__43
10
7.581000
20
37.486000
30
3.856000
70
192
0
VERTEX
8
OBJECT__43
10
9.898000
20
37.652000
30
6.749000
70
192
0
VERTEX
8
OBJECT__43
10
7.715000
20
37.875999
30
5.146000
70
192
0
VERTEX
8
OBJECT__43
10
9.239000
20
37.977001
30
7.047000
70
192
0
VERTEX
8
OBJECT__43
10
9.397000
20
37.987000
30
7.243000
70
192
0
VERTEX
8
OBJECT__43
10
11.359000
20
37.819000
30
9.049000
70
192
0
VERTEX
8
OBJECT__43
10
11.771000
20
37.500999
30
8.476000
70
192
0
VERTEX
8
OBJECT__43
10
14.396000
20
37.230999
30
11.025000
70
192
0
VERTEX
8
OBJECT__43
10
14.664000
20
36.953999
30
10.362000
70
192
0
VERTEX
8
OBJECT__43
10
12.660000
20
37.333000
30
9.056000
70
192
0
VERTEX
8
OBJECT__43
10
15.302000
20
36.998001
30
11.455000
70
192
0
VERTEX
8
OBJECT__43
10
15.527000
20
36.734001
30
10.771000
70
192
0
VERTEX
8
OBJECT__43
10
4.506000
20
28.749001
30
-14.418000
70
192
0
VERTEX
8
OBJECT__43
10
7.381000
20
24.687000
30
-18.025999
70
192
0
VERTEX
8
OBJECT__43
10
15.023000
20
19.209999
30
-19.993999
70
192
0
VERTEX
8
OBJECT__43
10
0
20
0
30
0
70
128
71
1
72
2
73
3
0
VERTEX
8
OBJECT__43
10
0
20
0
30
0
70
128
71
2
72
4
73
3
0
VERTEX
8
OBJECT__43
10
0
20
0
30
0
70
128
71
5
72
6
73
4
0
VERTEX
8
OBJECT__43
10
0
20
0
30
0
70
128
71
6
72
5
73
7
0
VERTEX
8
OBJECT__43
10
0
20
0
30
0
70
128
71
7
72
8
73
6
0
VERTEX
8
OBJECT__43
10
0
20
0
30
0
70
128
71
9
72
10
73
8
0
VERTEX
8
OBJECT__43
10
0
20
0
30
0
70
128
71
11
72
10
73
12
0
VERTEX
8
OBJECT__43
10
0
20
0
30
0
70
128
71
10
72
9
73
12
0
VERTEX
8
OBJECT__43
10
0
20
0
30
0
70
128
71
13
72
14
73
11
0
VERTEX
8
OBJECT__43
10
0
20
0
30
0
70
128
71
14
72
13
73
15
0
VERTEX
8
OBJECT__43
10
0
20
0
30
0
70
128
71
15
72
16
73
14
0
VERTEX
8
OBJECT__43
10
0
20
0
30
0
70
128
71
17
72
18
73
19
0
VERTEX
8
OBJECT__43
10
0
20
0
30
0
70
128
71
18
72
20
73
19
0
VERTEX
8
OBJECT__43
10
0
20
0
30
0
70
128
71
18
72
21
73
22
0
VERTEX
8
OBJECT__43
10
0
20
0
30
0
70
128
71
22
72
21
73
23
0
VERTEX
8
OBJECT__43
10
0
20
0
30
0
70
128
71
23
72
24
73
22
0
VERTEX
8
OBJECT__43
10
0
20
0
30
0
70
128
71
25
72
26
73
27
0
VERTEX
8
OBJECT__43
10
0
20
0
30
0
70
128
71
26
72
28
73
29
0
VERTEX
8
OBJECT__43
10
0
20
0
30
0
70
128
71
30
72
29
73
31
0
VERTEX
8
OBJECT__43
10
0
20
0
30
0
70
128
71
29
72
28
73
31
0
VERTEX
8
OBJECT__43
10
0
20
0
30
0
70
128
71
31
72
32
73
30
0
VERTEX
8
OBJECT__43
10
0
20
0
30
0
70
128
71
33
72
34
73
35
0
VERTEX
8
OBJECT__43
10
0
20
0
30
0
70
128
71
36
72
37
73
38
0
VERTEX
8
OBJECT__43
10
0
20
0
30
0
70
128
71
38
72
34
73
36
0
VERTEX
8
OBJECT__43
10
0
20
0
30
0
70
128
71
36
72
39
73
40
0
VERTEX
8
OBJECT__43
10
0
20
0
30
0
70
128
71
40
72
37
73
36
0
VERTEX
8
OBJECT__43
10
0
20
0
30
0
70
128
71
38
72
35
73
34
0
VERTEX
8
OBJECT__43
10
0
20
0
30
0
70
128
71
35
72
30
73
33
0
VERTEX
8
OBJECT__43
10
0
20
0
30
0
70
128
71
32
72
33
73
30
0
VERTEX
8
OBJECT__43
10
0
20
0
30
0
70
128
71
29
72
27
73
26
0
VERTEX
8
OBJECT__43
10
0
20
0
30
0
70
128
71
27
72
24
73
25
0
VERTEX
8
OBJECT__43
10
0
20
0
30
0
70
128
71
23
72
25
73
24
0
VERTEX
8
OBJECT__43
10
0
20
0
30
0
70
128
71
22
72
20
73
18
0
VERTEX
8
OBJECT__43
10
0
20
0
30
0
70
128
71
19
72
16
73
17
0
VERTEX
8
OBJECT__43
10
0
20
0
30
0
70
128
71
15
72
17
73
16
0
VERTEX
8
OBJECT__43
10
0
20
0
30
0
70
128
71
11
72
41
73
13
0
VERTEX
8
OBJECT__43
10
0
20
0
30
0
70
128
71
12
72
41
73
11
0
VERTEX
8
OBJECT__43
10
0
20
0
30
0
70
128
71
8
72
42
73
9
0
VERTEX
8
OBJECT__43
10
0
20
0
30
0
70
128
71
7
72
42
73
8
0
VERTEX
8
OBJECT__43
10
0
20
0
30
0
70
128
71
4
72
2
73
5
0
VERTEX
8
OBJECT__43
10
0
20
0
30
0
70
128
71
3
72
43
73
1
0
SEQEND
8
OBJECT__43
0
POLYLINE
8
OBJECT__44
66
1
70
64
71
3
72
1
62
253
0
VERTEX
8
OBJECT__44
10
14.773000
20
18.764000
30
-20.565001
70
192
0
VERTEX
8
OBJECT__44
10
15.023000
20
19.209999
30
-19.993999
70
192
0
VERTEX
8
OBJECT__44
10
15.018000
20
18.028000
30
-20.677999
70
192
0
VERTEX
8
OBJECT__44
10
0
20
0
30
0
70
128
71
1
72
2
73
3
0
SEQEND
8
OBJECT__44
0
POLYLINE
8
OBJECT__45
66
1
70
64
71
75
72
73
62
253
0
VERTEX
8
OBJECT__45
10
21.878000
20
-17.066999
30
-17.166000
70
192
0
VERTEX
8
OBJECT__45
10
13.924000
20
-18.952000
30
-20.461000
70
192
0
VERTEX
8
OBJECT__45
10
13.924000
20
-17.778000
30
-21.139999
70
192
0
VERTEX
8
OBJECT__45
10
31.177999
20
-15.367000
30
-14.225000
70
192
0
VERTEX
8
OBJECT__45
10
22.024000
20
-17.040001
30
-17.120001
70
192
0
VERTEX
8
OBJECT__45
10
22.354000
20
-15.757000
30
-17.722000
70
192
0
VERTEX
8
OBJECT__45
10
21.875999
20
-15.846000
30
-17.872999
70
192
0
VERTEX
8
OBJECT__45
10
32.665001
20
-13.878000
30
-14.542000
70
192
0
VERTEX
8
OBJECT__45
10
32.666000
20
-15.132000
30
-13.817000
70
192
0
VERTEX
8
OBJECT__45
10
45.416000
20
-13.387000
30
-10.779000
70
192
0
VERTEX
8
OBJECT__45
10
43.903000
20
-13.594000
30
-11.139000
70
192
0
VERTEX
8
OBJECT__45
10
44.084999
20
-12.299000
30
-11.832000
70
192
0
VERTEX
8
OBJECT__45
10
32.880001
20
-15.102000
30
-13.766000
70
192
0
VERTEX
8
OBJECT__45
10
33.139999
20
-13.813000
30
-14.429000
70
192
0
VERTEX
8
OBJECT__45
10
45.416000
20
-12.115000
30
-11.516000
70
192
0
VERTEX
8
OBJECT__45
10
62.091000
20
-10.336000
30
-8.526000
70
192
0
VERTEX
8
OBJECT__45
10
80.440002
20
-10.104000
30
-5.330000
70
192
0
VERTEX
8
OBJECT__45
10
66.237999
20
-11.282000
30
-7.222000
70
192
0
VERTEX
8
OBJECT__45
10
66.268997
20
-9.987000
30
-7.972000
70
192
0
VERTEX
8
OBJECT__45
10
62.098000
20
-11.625000
30
-7.773000
70
192
0
VERTEX
8
OBJECT__45
10
80.439003
20
-8.803000
30
-6.096000
70
192
0
VERTEX
8
OBJECT__45
10
88.630997
20
-8.380000
30
-5.243000
70
192
0
VERTEX
8
OBJECT__45
10
95.915001
20
-8.005000
30
-4.485000
70
192
0
VERTEX
8
OBJECT__45
10
95.885002
20
-9.309000
30
-3.724000
70
192
0
VERTEX
8
OBJECT__45
10
88.753998
20
-9.676000
30
-4.465000
70
192
0
VERTEX
8
OBJECT__45
10
107.817001
20
-7.765000
30
-3.481000
70
192
0
VERTEX
8
OBJECT__45
10
107.775002
20
-9.065000
30
-2.731000
70
192
0
VERTEX
8
OBJECT__45
10
110.648003
20
-7.762000
30
-3.326000
70
192
0
VERTEX
8
OBJECT__45
10
124.598000
20
-7.748000
30
-2.565000
70
192
0
VERTEX
8
OBJECT__45
10
122.637001
20
-9.044000
30
-1.930000
70
192
0
VERTEX
8
OBJECT__45
10
124.567001
20
-9.041000
30
-1.826000
70
192
0
VERTEX
8
OBJECT__45
10
110.954002
20
-9.060000
30
-2.559000
70
192
0
VERTEX
8
OBJECT__45
10
131.662003
20
-7.787000
30
-2.399000
70
192
0
VERTEX
8
OBJECT__45
10
137.356995
20
-7.845000
30
-2.463000
70
192
0
VERTEX
8
OBJECT__45
10
137.367996
20
-9.135000
30
-1.729000
70
192
0
VERTEX
8
OBJECT__45
10
134.554993
20
-9.108000
30
-1.696000
70
192
0
VERTEX
8
OBJECT__45
10
131.645996
20
-9.079000
30
-1.661000
70
192
0
VERTEX
8
OBJECT__45
10
134.141998
20
-7.813000
30
-2.427000
70
192
0
VERTEX
8
OBJECT__45
10
142.059998
20
-7.928000
30
-2.859000
70
192
0
VERTEX
8
OBJECT__45
10
142.145004
20
-9.223000
30
-2.121000
70
192
0
VERTEX
8
OBJECT__45
10
139.606003
20
-9.176000
30
-1.913000
70
192
0
VERTEX
8
OBJECT__45
10
139.162994
20
-7.877000
30
-2.615000
70
192
0
VERTEX
8
OBJECT__45
10
143.009003
20
-7.956000
30
-3.039000
70
192
0
VERTEX
8
OBJECT__45
10
143.427994
20
-9.266000
30
-2.351000
70
192
0
VERTEX
8
OBJECT__45
10
143.304001
20
-7.965000
30
-3.095000
70
192
0
VERTEX
8
OBJECT__45
10
145.975006
20
-8.108000
30
-3.972000
70
192
0
VERTEX
8
OBJECT__45
10
146.889999
20
-9.485000
30
-3.546000
70
192
0
VERTEX
8
OBJECT__45
10
146.238998
20
-9.430000
30
-3.221000
70
192
0
VERTEX
8
OBJECT__45
10
146.169006
20
-8.124000
30
-4.074000
70
192
0
VERTEX
8
OBJECT__45
10
146.735992
20
-8.173000
30
-4.373000
70
192
0
VERTEX
8
OBJECT__45
10
147.063995
20
-9.500000
30
-3.633000
70
192
0
VERTEX
8
OBJECT__45
10
148.677994
20
-8.410000
30
-5.926000
70
192
0
VERTEX
8
OBJECT__45
10
149.742996
20
-9.828000
30
-5.882000
70
192
0
VERTEX
8
OBJECT__45
10
149.186005
20
-9.746000
30
-5.266000
70
192
0
VERTEX
8
OBJECT__45
10
148.906998
20
-8.445000
30
-6.186000
70
192
0
VERTEX
8
OBJECT__45
10
149.434998
20
-8.528000
30
-6.785000
70
192
0
VERTEX
8
OBJECT__45
10
150.001999
20
-9.866000
30
-6.169000
70
192
0
VERTEX
8
OBJECT__45
10
150.975998
20
-8.807000
30
-9.170000
70
192
0
VERTEX
8
OBJECT__45
10
150.830002
20
-10.004000
30
-7.435000
70
192
0
VERTEX
8
OBJECT__45
10
151.666000
20
-10.144000
30
-8.713000
70
192
0
VERTEX
8
OBJECT__45
10
151.227005
20
-8.858000
30
-9.722000
70
192
0
VERTEX
8
OBJECT__45
10
151.940994
20
-10.191000
30
-9.328000
70
192
0
VERTEX
8
OBJECT__45
10
151.748001
20
-10.158000
30
-8.897000
70
192
0
VERTEX
8
OBJECT__45
10
151.677994
20
-8.988000
30
-11.640000
70
192
0
VERTEX
8
OBJECT__45
10
152.453003
20
-10.299000
30
-11.688000
70
192
0
VERTEX
8
OBJECT__45
10
152.151001
20
-10.235000
30
-10.297000
70
192
0
VERTEX
8
OBJECT__45
10
151.757996
20
-9.011000
30
-11.985000
70
192
0
VERTEX
8
OBJECT__45
10
152.490005
20
-10.307000
30
-11.859000
70
192
0
VERTEX
8
OBJECT__45
10
152.557007
20
-10.393000
30
-13.669000
70
192
0
VERTEX
8
OBJECT__45
10
151.834000
20
-9.107000
30
-13.755000
70
192
0
VERTEX
8
OBJECT__45
10
151.891006
20
-9.928000
30
-18.507999
70
192
0
VERTEX
8
OBJECT__45
10
152.134995
20
-10.370000
30
-18.496000
70
192
0
VERTEX
8
OBJECT__45
10
151.807007
20
-9.431000
30
-18.524000
70
192
0
VERTEX
8
OBJECT__45
10
152.559998
20
-10.735000
30
-18.487000
70
192
0
VERTEX
8
OBJECT__45
10
31.176001
20
-14.117000
30
-14.948000
70
192
0
VERTEX
8
OBJECT__45
10
0
20
0
30
0
70
128
71
1
72
2
73
3
0
VERTEX
8
OBJECT__45
10
0
20
0
30
0
70
128
71
4
72
5
73
6
0
VERTEX
8
OBJECT__45
10
0
20
0
30
0
70
128
71
7
72
6
73
5
0
VERTEX
8
OBJECT__45
10
0
20
0
30
0
70
128
71
5
72
1
73
7
0
VERTEX
8
OBJECT__45
10
0
20
0
30
0
70
128
71
8
72
9
73
4
0
VERTEX
8
OBJECT__45
10
0
20
0
30
0
70
128
71
10
72
11
73
12
0
VERTEX
8
OBJECT__45
10
0
20
0
30
0
70
128
71
11
72
13
73
14
0
VERTEX
8
OBJECT__45
10
0
20
0
30
0
70
128
71
8
72
14
73
13
0
VERTEX
8
OBJECT__45
10
0
20
0
30
0
70
128
71
13
72
9
73
8
0
VERTEX
8
OBJECT__45
10
0
20
0
30
0
70
128
71
14
72
12
73
11
0
VERTEX
8
OBJECT__45
10
0
20
0
30
0
70
128
71
10
72
15
73
16
0
VERTEX
8
OBJECT__45
10
0
20
0
30
0
70
128
71
17
72
18
73
19
0
VERTEX
8
OBJECT__45
10
0
20
0
30
0
70
128
71
16
72
19
73
18
0
VERTEX
8
OBJECT__45
10
0
20
0
30
0
70
128
71
18
72
20
73
16
0
VERTEX
8
OBJECT__45
10
0
20
0
30
0
70
128
71
17
72
21
73
22
0
VERTEX
8
OBJECT__45
10
0
20
0
30
0
70
128
71
23
72
24
73
25
0
VERTEX
8
OBJECT__45
10
0
20
0
30
0
70
128
71
25
72
22
73
23
0
VERTEX
8
OBJECT__45
10
0
20
0
30
0
70
128
71
26
72
27
73
24
0
VERTEX
8
OBJECT__45
10
0
20
0
30
0
70
128
71
27
72
26
73
28
0
VERTEX
8
OBJECT__45
10
0
20
0
30
0
70
128
71
28
72
29
73
30
0
VERTEX
8
OBJECT__45
10
0
20
0
30
0
70
128
71
29
72
31
73
30
0
VERTEX
8
OBJECT__45
10
0
20
0
30
0
70
128
71
30
72
32
73
28
0
VERTEX
8
OBJECT__45
10
0
20
0
30
0
70
128
71
31
72
29
73
33
0
VERTEX
8
OBJECT__45
10
0
20
0
30
0
70
128
71
34
72
35
73
36
0
VERTEX
8
OBJECT__45
10
0
20
0
30
0
70
128
71
37
72
33
73
38
0
VERTEX
8
OBJECT__45
10
0
20
0
30
0
70
128
71
38
72
36
73
37
0
VERTEX
8
OBJECT__45
10
0
20
0
30
0
70
128
71
39
72
40
73
41
0
VERTEX
8
OBJECT__45
10
0
20
0
30
0
70
128
71
35
72
34
73
42
0
VERTEX
8
OBJECT__45
10
0
20
0
30
0
70
128
71
42
72
41
73
35
0
VERTEX
8
OBJECT__45
10
0
20
0
30
0
70
128
71
40
72
39
73
43
0
VERTEX
8
OBJECT__45
10
0
20
0
30
0
70
128
71
43
72
44
73
40
0
VERTEX
8
OBJECT__45
10
0
20
0
30
0
70
128
71
44
72
45
73
46
0
VERTEX
8
OBJECT__45
10
0
20
0
30
0
70
128
71
47
72
48
73
49
0
VERTEX
8
OBJECT__45
10
0
20
0
30
0
70
128
71
50
72
51
73
47
0
VERTEX
8
OBJECT__45
10
0
20
0
30
0
70
128
71
48
72
46
73
49
0
VERTEX
8
OBJECT__45
10
0
20
0
30
0
70
128
71
51
72
50
73
52
0
VERTEX
8
OBJECT__45
10
0
20
0
30
0
70
128
71
53
72
54
73
55
0
VERTEX
8
OBJECT__45
10
0
20
0
30
0
70
128
71
56
72
57
73
53
0
VERTEX
8
OBJECT__45
10
0
20
0
30
0
70
128
71
54
72
52
73
55
0
VERTEX
8
OBJECT__45
10
0
20
0
30
0
70
128
71
56
72
58
73
59
0
VERTEX
8
OBJECT__45
10
0
20
0
30
0
70
128
71
58
72
60
73
59
0
VERTEX
8
OBJECT__45
10
0
20
0
30
0
70
128
71
61
72
62
73
63
0
VERTEX
8
OBJECT__45
10
0
20
0
30
0
70
128
71
63
72
58
73
61
0
VERTEX
8
OBJECT__45
10
0
20
0
30
0
70
128
71
64
72
65
73
66
0
VERTEX
8
OBJECT__45
10
0
20
0
30
0
70
128
71
66
72
61
73
64
0
VERTEX
8
OBJECT__45
10
0
20
0
30
0
70
128
71
64
72
67
73
65
0
VERTEX
8
OBJECT__45
10
0
20
0
30
0
70
128
71
67
72
68
73
65
0
VERTEX
8
OBJECT__45
10
0
20
0
30
0
70
128
71
69
72
68
73
67
0
VERTEX
8
OBJECT__45
10
0
20
0
30
0
70
128
71
69
72
70
73
71
0
VERTEX
8
OBJECT__45
10
0
20
0
30
0
70
128
71
71
72
72
73
69
0
VERTEX
8
OBJECT__45
10
0
20
0
30
0
70
128
71
70
72
73
73
71
0
VERTEX
8
OBJECT__45
10
0
20
0
30
0
70
128
71
72
72
74
73
69
0
VERTEX
8
OBJECT__45
10
0
20
0
30
0
70
128
71
67
72
70
73
69
0
VERTEX
8
OBJECT__45
10
0
20
0
30
0
70
128
71
66
72
62
73
61
0
VERTEX
8
OBJECT__45
10
0
20
0
30
0
70
128
71
63
72
60
73
58
0
VERTEX
8
OBJECT__45
10
0
20
0
30
0
70
128
71
59
72
57
73
56
0
VERTEX
8
OBJECT__45
10
0
20
0
30
0
70
128
71
55
72
56
73
53
0
VERTEX
8
OBJECT__45
10
0
20
0
30
0
70
128
71
52
72
54
73
51
0
VERTEX
8
OBJECT__45
10
0
20
0
30
0
70
128
71
49
72
50
73
47
0
VERTEX
8
OBJECT__45
10
0
20
0
30
0
70
128
71
46
72
48
73
44
0
VERTEX
8
OBJECT__45
10
0
20
0
30
0
70
128
71
43
72
45
73
44
0
VERTEX
8
OBJECT__45
10
0
20
0
30
0
70
128
71
41
72
42
73
39
0
VERTEX
8
OBJECT__45
10
0
20
0
30
0
70
128
71
36
72
38
73
34
0
VERTEX
8
OBJECT__45
10
0
20
0
30
0
70
128
71
33
72
37
73
31
0
VERTEX
8
OBJECT__45
10
0
20
0
30
0
70
128
71
28
72
32
73
27
0
VERTEX
8
OBJECT__45
10
0
20
0
30
0
70
128
71
24
72
23
73
26
0
VERTEX
8
OBJECT__45
10
0
20
0
30
0
70
128
71
22
72
25
73
17
0
VERTEX
8
OBJECT__45
10
0
20
0
30
0
70
128
71
19
72
21
73
17
0
VERTEX
8
OBJECT__45
10
0
20
0
30
0
70
128
71
16
72
20
73
10
0
VERTEX
8
OBJECT__45
10
0
20
0
30
0
70
128
71
12
72
15
73
10
0
VERTEX
8
OBJECT__45
10
0
20
0
30
0
70
128
71
4
72
75
73
8
0
VERTEX
8
OBJECT__45
10
0
20
0
30
0
70
128
71
6
72
75
73
4
0
VERTEX
8
OBJECT__45
10
0
20
0
30
0
70
128
71
3
72
7
73
1
0
SEQEND
8
OBJECT__45
0
POLYLINE
8
OBJECT__46
66
1
70
64
71
42
72
40
62
253
0
VERTEX
8
OBJECT__46
10
13.625000
20
-18.497999
30
-21.052999
70
192
0
VERTEX
8
OBJECT__46
10
10.582000
20
-16.936001
30
-22.577000
70
192
0
VERTEX
8
OBJECT__46
10
12.016000
20
-16.792000
30
-22.089001
70
192
0
VERTEX
8
OBJECT__46
10
11.026000
20
-16.280001
30
-22.582001
70
192
0
VERTEX
8
OBJECT__46
10
8.794000
20
-15.512000
30
-23.544001
70
192
0
VERTEX
8
OBJECT__46
10
9.318000
20
-14.913000
30
-23.500000
70
192
0
VERTEX
8
OBJECT__46
10
6.964000
20
-12.188000
30
-24.834999
70
192
0
VERTEX
8
OBJECT__46
10
7.577000
20
-14.109000
30
-24.240000
70
192
0
VERTEX
8
OBJECT__46
10
8.519000
20
-15.196000
30
-23.701000
70
192
0
VERTEX
8
OBJECT__46
10
5.228000
20
-10.887000
30
-25.608000
70
192
0
VERTEX
8
OBJECT__46
10
5.900000
20
-10.468000
30
-25.462000
70
192
0
VERTEX
8
OBJECT__46
10
3.645000
20
-7.189000
30
-26.573000
70
192
0
VERTEX
8
OBJECT__46
10
4.377000
20
-6.913000
30
-26.382000
70
192
0
VERTEX
8
OBJECT__46
10
3.808000
20
-4.784000
30
-26.733000
70
192
0
VERTEX
8
OBJECT__46
10
3.522000
20
-6.729000
30
-26.650000
70
192
0
VERTEX
8
OBJECT__46
10
2.551000
20
-0.867000
30
-27.259001
70
192
0
VERTEX
8
OBJECT__46
10
3.323000
20
-0.836000
30
-27.037001
70
192
0
VERTEX
8
OBJECT__46
10
2.606000
20
1.730000
30
-27.229000
70
192
0
VERTEX
8
OBJECT__46
10
3.376000
20
1.661000
30
-27.007999
70
192
0
VERTEX
8
OBJECT__46
10
3.347000
20
0.278000
30
-27.024000
70
192
0
VERTEX
8
OBJECT__46
10
4.026000
20
5.579000
30
-26.615999
70
192
0
VERTEX
8
OBJECT__46
10
2.692000
20
2.249000
30
-27.177000
70
192
0
VERTEX
8
OBJECT__46
10
3.280000
20
5.806000
30
-26.819000
70
192
0
VERTEX
8
OBJECT__46
10
4.058000
20
8.234000
30
-26.346001
70
192
0
VERTEX
8
OBJECT__46
10
4.775000
20
7.913000
30
-26.165001
70
192
0
VERTEX
8
OBJECT__46
10
5.467000
20
11.066000
30
-25.503000
70
192
0
VERTEX
8
OBJECT__46
10
6.470000
20
11.321000
30
-25.160000
70
192
0
VERTEX
8
OBJECT__46
10
5.822000
20
11.779000
30
-25.291000
70
192
0
VERTEX
8
OBJECT__46
10
7.290000
20
13.812000
30
-24.437000
70
192
0
VERTEX
8
OBJECT__46
10
7.879000
20
13.275000
30
-24.347000
70
192
0
VERTEX
8
OBJECT__46
10
10.348000
20
15.678000
30
-22.985001
70
192
0
VERTEX
8
OBJECT__46
10
7.652000
20
14.162000
30
-24.236000
70
192
0
VERTEX
8
OBJECT__46
10
9.871000
20
16.313999
30
-23.002001
70
192
0
VERTEX
8
OBJECT__46
10
12.004000
20
17.684000
30
-21.892000
70
192
0
VERTEX
8
OBJECT__46
10
12.097000
20
16.809000
30
-22.080999
70
192
0
VERTEX
8
OBJECT__46
10
12.382000
20
16.993000
30
-21.934000
70
192
0
VERTEX
8
OBJECT__46
10
14.333000
20
18.591999
30
-20.775999
70
192
0
VERTEX
8
OBJECT__46
10
15.018000
20
18.028000
30
-20.677999
70
192
0
VERTEX
8
OBJECT__46
10
14.773000
20
18.764000
30
-20.565001
70
192
0
VERTEX
8
OBJECT__46
10
3.054000
20
-4.974000
30
-26.941000
70
192
0
VERTEX
8
OBJECT__46
10
6.336000
20
-12.677000
30
-24.950001
70
192
0
VERTEX
8
OBJECT__46
10
13.924000
20
-17.778000
30
-21.139999
70
192
0
VERTEX
8
OBJECT__46
10
0
20
0
30
0
70
128
71
1
72
2
73
3
0
VERTEX
8
OBJECT__46
10
0
20
0
30
0
70
128
71
2
72
4
73
3
0
VERTEX
8
OBJECT__46
10
0
20
0
30
0
70
128
71
5
72
6
73
4
0
VERTEX
8
OBJECT__46
10
0
20
0
30
0
70
128
71
7
72
6
73
8
0
VERTEX
8
OBJECT__46
10
0
20
0
30
0
70
128
71
6
72
5
73
9
0
VERTEX
8
OBJECT__46
10
0
20
0
30
0
70
128
71
9
72
8
73
6
0
VERTEX
8
OBJECT__46
10
0
20
0
30
0
70
128
71
10
72
11
73
7
0
VERTEX
8
OBJECT__46
10
0
20
0
30
0
70
128
71
12
72
13
73
11
0
VERTEX
8
OBJECT__46
10
0
20
0
30
0
70
128
71
14
72
13
73
15
0
VERTEX
8
OBJECT__46
10
0
20
0
30
0
70
128
71
13
72
12
73
15
0
VERTEX
8
OBJECT__46
10
0
20
0
30
0
70
128
71
16
72
17
73
14
0
VERTEX
8
OBJECT__46
10
0
20
0
30
0
70
128
71
18
72
19
73
20
0
VERTEX
8
OBJECT__46
10
0
20
0
30
0
70
128
71
20
72
16
73
18
0
VERTEX
8
OBJECT__46
10
0
20
0
30
0
70
128
71
21
72
19
73
22
0
VERTEX
8
OBJECT__46
10
0
20
0
30
0
70
128
71
19
72
18
73
22
0
VERTEX
8
OBJECT__46
10
0
20
0
30
0
70
128
71
23
72
24
73
25
0
VERTEX
8
OBJECT__46
10
0
20
0
30
0
70
128
71
25
72
24
73
26
0
VERTEX
8
OBJECT__46
10
0
20
0
30
0
70
128
71
26
72
27
73
25
0
VERTEX
8
OBJECT__46
10
0
20
0
30
0
70
128
71
28
72
29
73
30
0
VERTEX
8
OBJECT__46
10
0
20
0
30
0
70
128
71
31
72
30
73
32
0
VERTEX
8
OBJECT__46
10
0
20
0
30
0
70
128
71
30
72
29
73
32
0
VERTEX
8
OBJECT__46
10
0
20
0
30
0
70
128
71
33
72
34
73
35
0
VERTEX
8
OBJECT__46
10
0
20
0
30
0
70
128
71
34
72
36
73
35
0
VERTEX
8
OBJECT__46
10
0
20
0
30
0
70
128
71
36
72
34
73
37
0
VERTEX
8
OBJECT__46
10
0
20
0
30
0
70
128
71
37
72
38
73
36
0
VERTEX
8
OBJECT__46
10
0
20
0
30
0
70
128
71
37
72
39
73
38
0
VERTEX
8
OBJECT__46
10
0
20
0
30
0
70
128
71
35
72
31
73
33
0
VERTEX
8
OBJECT__46
10
0
20
0
30
0
70
128
71
32
72
33
73
31
0
VERTEX
8
OBJECT__46
10
0
20
0
30
0
70
128
71
30
72
27
73
28
0
VERTEX
8
OBJECT__46
10
0
20
0
30
0
70
128
71
26
72
28
73
27
0
VERTEX
8
OBJECT__46
10
0
20
0
30
0
70
128
71
25
72
21
73
23
0
VERTEX
8
OBJECT__46
10
0
20
0
30
0
70
128
71
22
72
23
73
21
0
VERTEX
8
OBJECT__46
10
0
20
0
30
0
70
128
71
20
72
17
73
16
0
VERTEX
8
OBJECT__46
10
0
20
0
30
0
70
128
71
14
72
40
73
16
0
VERTEX
8
OBJECT__46
10
0
20
0
30
0
70
128
71
15
72
40
73
14
0
VERTEX
8
OBJECT__46
10
0
20
0
30
0
70
128
71
11
72
10
73
12
0
VERTEX
8
OBJECT__46
10
0
20
0
30
0
70
128
71
7
72
41
73
10
0
VERTEX
8
OBJECT__46
10
0
20
0
30
0
70
128
71
8
72
41
73
7
0
VERTEX
8
OBJECT__46
10
0
20
0
30
0
70
128
71
4
72
2
73
5
0
VERTEX
8
OBJECT__46
10
0
20
0
30
0
70
128
71
3
72
42
73
1
0
SEQEND
8
OBJECT__46
0
POLYLINE
8
OBJECT__47
66
1
70
64
71
41
72
39
62
253
0
VERTEX
8
OBJECT__47
10
13.041000
20
-37.568001
30
11.466000
70
192
0
VERTEX
8
OBJECT__47
10
9.981000
20
-38.077999
30
9.237000
70
192
0
VERTEX
8
OBJECT__47
10
11.591000
20
-37.563000
30
9.495000
70
192
0
VERTEX
8
OBJECT__47
10
10.450000
20
-37.748001
30
8.662000
70
192
0
VERTEX
8
OBJECT__47
10
8.140000
20
-38.181000
30
7.399000
70
192
0
VERTEX
8
OBJECT__47
10
8.690000
20
-37.835999
30
6.903000
70
192
0
VERTEX
8
OBJECT__47
10
6.346000
20
-37.580002
30
3.778000
70
192
0
VERTEX
8
OBJECT__47
10
7.513000
20
-38.116001
30
6.564000
70
192
0
VERTEX
8
OBJECT__47
10
5.695000
20
-37.926998
30
4.140000
70
192
0
VERTEX
8
OBJECT__47
10
4.806000
20
-37.633999
30
2.571000
70
192
0
VERTEX
8
OBJECT__47
10
5.258000
20
-37.216999
30
1.860000
70
192
0
VERTEX
8
OBJECT__47
10
3.029000
20
-36.472000
30
-1.604000
70
192
0
VERTEX
8
OBJECT__47
10
3.782000
20
-36.171001
30
-1.737000
70
192
0
VERTEX
8
OBJECT__47
10
2.445000
20
-35.594002
30
-3.850000
70
192
0
VERTEX
8
OBJECT__47
10
3.218000
20
-35.325001
30
-3.895000
70
192
0
VERTEX
8
OBJECT__47
10
2.217000
20
-34.587002
30
-5.881000
70
192
0
VERTEX
8
OBJECT__47
10
2.814000
20
-33.542999
30
-7.484000
70
192
0
VERTEX
8
OBJECT__47
10
2.142000
20
-32.331001
30
-9.889000
70
192
0
VERTEX
8
OBJECT__47
10
2.926000
20
-32.187000
30
-9.700000
70
192
0
VERTEX
8
OBJECT__47
10
2.835000
20
-33.292999
30
-7.893000
70
192
0
VERTEX
8
OBJECT__47
10
2.026000
20
-33.742001
30
-7.585000
70
192
0
VERTEX
8
OBJECT__47
10
2.915000
20
-29.872999
30
-13.197000
70
192
0
VERTEX
8
OBJECT__47
10
3.672000
20
-29.826000
30
-12.881000
70
192
0
VERTEX
8
OBJECT__47
10
4.497000
20
-28.205999
30
-14.692000
70
192
0
VERTEX
8
OBJECT__47
10
3.013000
20
-29.680000
30
-13.413000
70
192
0
VERTEX
8
OBJECT__47
10
3.772000
20
-28.184000
30
-15.079000
70
192
0
VERTEX
8
OBJECT__47
10
5.634000
20
-25.454000
30
-17.577000
70
192
0
VERTEX
8
OBJECT__47
10
6.288000
20
-25.589001
30
-17.097000
70
192
0
VERTEX
8
OBJECT__47
10
7.196000
20
-23.642000
30
-18.899000
70
192
0
VERTEX
8
OBJECT__47
10
7.787000
20
-23.856001
30
-18.372999
70
192
0
VERTEX
8
OBJECT__47
10
10.339000
20
-21.462000
30
-19.711000
70
192
0
VERTEX
8
OBJECT__47
10
7.949000
20
-22.934999
30
-19.290001
70
192
0
VERTEX
8
OBJECT__47
10
7.552000
20
-23.308001
30
-19.084000
70
192
0
VERTEX
8
OBJECT__47
10
9.864000
20
-21.136000
30
-20.284000
70
192
0
VERTEX
8
OBJECT__47
10
12.103000
20
-19.455000
30
-20.875999
70
192
0
VERTEX
8
OBJECT__47
10
11.630000
20
-20.495001
30
-20.059000
70
192
0
VERTEX
8
OBJECT__47
10
12.474000
20
-19.862000
30
-20.285999
70
192
0
VERTEX
8
OBJECT__47
10
13.625000
20
-18.497999
30
-21.052999
70
192
0
VERTEX
8
OBJECT__47
10
13.924000
20
-18.952000
30
-20.461000
70
192
0
VERTEX
8
OBJECT__47
10
4.562000
20
-37.554001
30
2.141000
70
192
0
VERTEX
8
OBJECT__47
10
13.367000
20
-37.275002
30
10.792000
70
192
0
VERTEX
8
OBJECT__47
10
0
20
0
30
0
70
128
71
1
72
2
73
3
0
VERTEX
8
OBJECT__47
10
0
20
0
30
0
70
128
71
2
72
4
73
3
0
VERTEX
8
OBJECT__47
10
0
20
0
30
0
70
128
71
5
72
6
73
4
0
VERTEX
8
OBJECT__47
10
0
20
0
30
0
70
128
71
7
72
6
73
8
0
VERTEX
8
OBJECT__47
10
0
20
0
30
0
70
128
71
6
72
5
73
8
0
VERTEX
8
OBJECT__47
10
0
20
0
30
0
70
128
71
7
72
9
73
10
0
VERTEX
8
OBJECT__47
10
0
20
0
30
0
70
128
71
10
72
11
73
7
0
VERTEX
8
OBJECT__47
10
0
20
0
30
0
70
128
71
12
72
13
73
11
0
VERTEX
8
OBJECT__47
10
0
20
0
30
0
70
128
71
14
72
15
73
13
0
VERTEX
8
OBJECT__47
10
0
20
0
30
0
70
128
71
15
72
14
73
16
0
VERTEX
8
OBJECT__47
10
0
20
0
30
0
70
128
71
16
72
17
73
15
0
VERTEX
8
OBJECT__47
10
0
20
0
30
0
70
128
71
18
72
19
73
20
0
VERTEX
8
OBJECT__47
10
0
20
0
30
0
70
128
71
20
72
21
73
18
0
VERTEX
8
OBJECT__47
10
0
20
0
30
0
70
128
71
18
72
22
73
23
0
VERTEX
8
OBJECT__47
10
0
20
0
30
0
70
128
71
24
72
23
73
25
0
VERTEX
8
OBJECT__47
10
0
20
0
30
0
70
128
71
23
72
22
73
25
0
VERTEX
8
OBJECT__47
10
0
20
0
30
0
70
128
71
26
72
27
73
28
0
VERTEX
8
OBJECT__47
10
0
20
0
30
0
70
128
71
27
72
29
73
30
0
VERTEX
8
OBJECT__47
10
0
20
0
30
0
70
128
71
31
72
30
73
32
0
VERTEX
8
OBJECT__47
10
0
20
0
30
0
70
128
71
30
72
29
73
33
0
VERTEX
8
OBJECT__47
10
0
20
0
30
0
70
128
71
33
72
32
73
30
0
VERTEX
8
OBJECT__47
10
0
20
0
30
0
70
128
71
34
72
35
73
36
0
VERTEX
8
OBJECT__47
10
0
20
0
30
0
70
128
71
35
72
37
73
36
0
VERTEX
8
OBJECT__47
10
0
20
0
30
0
70
128
71
35
72
38
73
39
0
VERTEX
8
OBJECT__47
10
0
20
0
30
0
70
128
71
39
72
37
73
35
0
VERTEX
8
OBJECT__47
10
0
20
0
30
0
70
128
71
36
72
31
73
34
0
VERTEX
8
OBJECT__47
10
0
20
0
30
0
70
128
71
32
72
34
73
31
0
VERTEX
8
OBJECT__47
10
0
20
0
30
0
70
128
71
30
72
28
73
27
0
VERTEX
8
OBJECT__47
10
0
20
0
30
0
70
128
71
28
72
24
73
26
0
VERTEX
8
OBJECT__47
10
0
20
0
30
0
70
128
71
25
72
26
73
24
0
VERTEX
8
OBJECT__47
10
0
20
0
30
0
70
128
71
23
72
19
73
18
0
VERTEX
8
OBJECT__47
10
0
20
0
30
0
70
128
71
20
72
17
73
21
0
VERTEX
8
OBJECT__47
10
0
20
0
30
0
70
128
71
16
72
21
73
17
0
VERTEX
8
OBJECT__47
10
0
20
0
30
0
70
128
71
13
72
12
73
14
0
VERTEX
8
OBJECT__47
10
0
20
0
30
0
70
128
71
11
72
40
73
12
0
VERTEX
8
OBJECT__47
10
0
20
0
30
0
70
128
71
10
72
40
73
11
0
VERTEX
8
OBJECT__47
10
0
20
0
30
0
70
128
71
8
72
9
73
7
0
VERTEX
8
OBJECT__47
10
0
20
0
30
0
70
128
71
4
72
2
73
5
0
VERTEX
8
OBJECT__47
10
0
20
0
30
0
70
128
71
3
72
41
73
1
0
SEQEND
8
OBJECT__47
0
POLYLINE
8
OBJECT__48
66
1
70
64
71
3
72
1
62
253
0
VERTEX
8
OBJECT__48
10
13.625000
20
-18.497999
30
-21.052999
70
192
0
VERTEX
8
OBJECT__48
10
13.924000
20
-17.778000
30
-21.139999
70
192
0
VERTEX
8
OBJECT__48
10
13.924000
20
-18.952000
30
-20.461000
70
192
0
VERTEX
8
OBJECT__48
10
0
20
0
30
0
70
128
71
1
72
2
73
3
0
SEQEND
8
OBJECT__48
0
POLYLINE
8
OBJECT__49
66
1
70
64
71
26
72
26
62
253
0
VERTEX
8
OBJECT__49
10
154.822006
20
8.365000
30
-19.211000
70
192
0
VERTEX
8
OBJECT__49
10
154.822006
20
8.365000
30
-25.211000
70
192
0
VERTEX
8
OBJECT__49
10
152.759995
20
0.000000
30
-25.211000
70
192
0
VERTEX
8
OBJECT__49
10
160.535004
20
14.814000
30
-19.211000
70
192
0
VERTEX
8
OBJECT__49
10
160.535004
20
14.814000
30
-25.211000
70
192
0
VERTEX
8
OBJECT__49
10
168.589996
20
17.868999
30
-19.211000
70
192
0
VERTEX
8
OBJECT__49
10
168.589996
20
17.868999
30
-25.211000
70
192
0
VERTEX
8
OBJECT__49
10
177.143005
20
16.830000
30
-19.211000
70
192
0
VERTEX
8
OBJECT__49
10
177.143005
20
16.830000
30
-25.211000
70
192
0
VERTEX
8
OBJECT__49
10
184.233002
20
11.936000
30
-19.211000
70
192
0
VERTEX
8
OBJECT__49
10
184.233002
20
11.936000
30
-25.211000
70
192
0
VERTEX
8
OBJECT__49
10
188.237000
20
4.308000
30
-19.211000
70
192
0
VERTEX
8
OBJECT__49
10
188.237000
20
4.308000
30
-25.211000
70
192
0
VERTEX
8
OBJECT__49
10
188.237000
20
-4.308000
30
-19.211000
70
192
0
VERTEX
8
OBJECT__49
10
188.237000
20
-4.308000
30
-25.211000
70
192
0
VERTEX
8
OBJECT__49
10
184.233002
20
-11.936000
30
-19.211000
70
192
0
VERTEX
8
OBJECT__49
10
184.233002
20
-11.936000
30
-25.211000
70
192
0
VERTEX
8
OBJECT__49
10
177.143005
20
-16.830000
30
-19.211000
70
192
0
VERTEX
8
OBJECT__49
10
177.143005
20
-16.830000
30
-25.211000
70
192
0
VERTEX
8
OBJECT__49
10
168.589996
20
-17.868999
30
-19.211000
70
192
0
VERTEX
8
OBJECT__49
10
168.589996
20
-17.868999
30
-25.211000
70
192
0
VERTEX
8
OBJECT__49
10
160.535004
20
-14.814000
30
-19.211000
70
192
0
VERTEX
8
OBJECT__49
10
160.535004
20
-14.814000
30
-25.211000
70
192
0
VERTEX
8
OBJECT__49
10
154.822006
20
-8.365000
30
-19.211000
70
192
0
VERTEX
8
OBJECT__49
10
154.822006
20
-8.365000
30
-25.211000
70
192
0
VERTEX
8
OBJECT__49
10
152.759995
20
0.000000
30
-19.211000
70
192
0
VERTEX
8
OBJECT__49
10
0
20
0
30
0
70
128
71
1
72
2
73
3
0
VERTEX
8
OBJECT__49
10
0
20
0
30
0
70
128
71
4
72
5
73
2
0
VERTEX
8
OBJECT__49
10
0
20
0
30
0
70
128
71
6
72
7
73
5
0
VERTEX
8
OBJECT__49
10
0
20
0
30
0
70
128
71
8
72
9
73
7
0
VERTEX
8
OBJECT__49
10
0
20
0
30
0
70
128
71
10
72
11
73
9
0
VERTEX
8
OBJECT__49
10
0
20
0
30
0
70
128
71
12
72
13
73
11
0
VERTEX
8
OBJECT__49
10
0
20
0
30
0
70
128
71
14
72
15
73
13
0
VERTEX
8
OBJECT__49
10
0
20
0
30
0
70
128
71
16
72
17
73
15
0
VERTEX
8
OBJECT__49
10
0
20
0
30
0
70
128
71
18
72
19
73
17
0
VERTEX
8
OBJECT__49
10
0
20
0
30
0
70
128
71
20
72
21
73
19
0
VERTEX
8
OBJECT__49
10
0
20
0
30
0
70
128
71
22
72
23
73
21
0
VERTEX
8
OBJECT__49
10
0
20
0
30
0
70
128
71
24
72
25
73
23
0
VERTEX
8
OBJECT__49
10
0
20
0
30
0
70
128
71
26
72
3
73
25
0
VERTEX
8
OBJECT__49
10
0
20
0
30
0
70
128
71
25
72
24
73
26
0
VERTEX
8
OBJECT__49
10
0
20
0
30
0
70
128
71
23
72
22
73
24
0
VERTEX
8
OBJECT__49
10
0
20
0
30
0
70
128
71
21
72
20
73
22
0
VERTEX
8
OBJECT__49
10
0
20
0
30
0
70
128
71
19
72
18
73
20
0
VERTEX
8
OBJECT__49
10
0
20
0
30
0
70
128
71
17
72
16
73
18
0
VERTEX
8
OBJECT__49
10
0
20
0
30
0
70
128
71
15
72
14
73
16
0
VERTEX
8
OBJECT__49
10
0
20
0
30
0
70
128
71
13
72
12
73
14
0
VERTEX
8
OBJECT__49
10
0
20
0
30
0
70
128
71
11
72
10
73
12
0
VERTEX
8
OBJECT__49
10
0
20
0
30
0
70
128
71
9
72
8
73
10
0
VERTEX
8
OBJECT__49
10
0
20
0
30
0
70
128
71
7
72
6
73
8
0
VERTEX
8
OBJECT__49
10
0
20
0
30
0
70
128
71
5
72
4
73
6
0
VERTEX
8
OBJECT__49
10
0
20
0
30
0
70
128
71
2
72
1
73
4
0
VERTEX
8
OBJECT__49
10
0
20
0
30
0
70
128
71
3
72
26
73
1
0
SEQEND
8
OBJECT__49
0
POLYLINE
8
OBJECT__50
66
1
70
64
71
13
72
11
62
253
0
VERTEX
8
OBJECT__50
10
168.589996
20
17.868999
30
-25.211000
70
192
0
VERTEX
8
OBJECT__50
10
152.759995
20
0.000000
30
-25.211000
70
192
0
VERTEX
8
OBJECT__50
10
154.822006
20
8.365000
30
-25.211000
70
192
0
VERTEX
8
OBJECT__50
10
160.535004
20
14.814000
30
-25.211000
70
192
0
VERTEX
8
OBJECT__50
10
168.589996
20
-17.868999
30
-25.211000
70
192
0
VERTEX
8
OBJECT__50
10
160.535004
20
-14.814000
30
-25.211000
70
192
0
VERTEX
8
OBJECT__50
10
184.233002
20
-11.936000
30
-25.211000
70
192
0
VERTEX
8
OBJECT__50
10
177.143005
20
-16.830000
30
-25.211000
70
192
0
VERTEX
8
OBJECT__50
10
184.233002
20
11.936000
30
-25.211000
70
192
0
VERTEX
8
OBJECT__50
10
188.237000
20
4.308000
30
-25.211000
70
192
0
VERTEX
8
OBJECT__50
10
177.143005
20
16.830000
30
-25.211000
70
192
0
VERTEX
8
OBJECT__50
10
188.237000
20
-4.308000
30
-25.211000
70
192
0
VERTEX
8
OBJECT__50
10
154.822006
20
-8.365000
30
-25.211000
70
192
0
VERTEX
8
OBJECT__50
10
0
20
0
30
0
70
128
71
1
72
2
73
3
0
VERTEX
8
OBJECT__50
10
0
20
0
30
0
70
128
71
3
72
4
73
1
0
VERTEX
8
OBJECT__50
10
0
20
0
30
0
70
128
71
2
72
5
73
6
0
VERTEX
8
OBJECT__50
10
0
20
0
30
0
70
128
71
2
72
7
73
8
0
VERTEX
8
OBJECT__50
10
0
20
0
30
0
70
128
71
2
72
9
73
10
0
VERTEX
8
OBJECT__50
10
0
20
0
30
0
70
128
71
1
72
11
73
2
0
VERTEX
8
OBJECT__50
10
0
20
0
30
0
70
128
71
8
72
5
73
2
0
VERTEX
8
OBJECT__50
10
0
20
0
30
0
70
128
71
11
72
9
73
2
0
VERTEX
8
OBJECT__50
10
0
20
0
30
0
70
128
71
2
72
12
73
7
0
VERTEX
8
OBJECT__50
10
0
20
0
30
0
70
128
71
6
72
13
73
2
0
VERTEX
8
OBJECT__50
10
0
20
0
30
0
70
128
71
10
72
12
73
2
0
SEQEND
8
OBJECT__50
0
POLYLINE
8
OBJECT__52
66
1
70
64
71
33
72
48
62
253
0
VERTEX
8
OBJECT__52
10
163.412003
20
-11.247000
30
59.160000
70
192
0
VERTEX
8
OBJECT__52
10
168.274994
20
-13.203000
30
59.160000
70
192
0
VERTEX
8
OBJECT__52
10
169.505997
20
-6.664000
30
60.544998
70
192
0
VERTEX
8
OBJECT__52
10
173.516998
20
-13.149000
30
59.160000
70
192
0
VERTEX
8
OBJECT__52
10
172.151993
20
-6.637000
30
60.544998
70
192
0
VERTEX
8
OBJECT__52
10
178.339005
20
-11.093000
30
59.160000
70
192
0
VERTEX
8
OBJECT__52
10
174.585007
20
-5.599000
30
60.544998
70
192
0
VERTEX
8
OBJECT__52
10
182.007004
20
-7.348000
30
59.160000
70
192
0
VERTEX
8
OBJECT__52
10
176.436996
20
-3.709000
30
60.544998
70
192
0
VERTEX
8
OBJECT__52
10
183.962997
20
-2.485000
30
59.160000
70
192
0
VERTEX
8
OBJECT__52
10
177.423996
20
-1.254000
30
60.544998
70
192
0
VERTEX
8
OBJECT__52
10
183.908997
20
2.757000
30
59.160000
70
192
0
VERTEX
8
OBJECT__52
10
177.397003
20
1.392000
30
60.544998
70
192
0
VERTEX
8
OBJECT__52
10
181.852997
20
7.579000
30
59.160000
70
192
0
VERTEX
8
OBJECT__52
10
176.358994
20
3.825000
30
60.544998
70
192
0
VERTEX
8
OBJECT__52
10
178.108002
20
11.247000
30
59.160000
70
192
0
VERTEX
8
OBJECT__52
10
174.468994
20
5.677000
30
60.544998
70
192
0
VERTEX
8
OBJECT__52
10
173.244995
20
13.203000
30
59.160000
70
192
0
VERTEX
8
OBJECT__52
10
172.014008
20
6.664000
30
60.544998
70
192
0
VERTEX
8
OBJECT__52
10
168.003006
20
13.149000
30
59.160000
70
192
0
VERTEX
8
OBJECT__52
10
169.367996
20
6.637000
30
60.544998
70
192
0
VERTEX
8
OBJECT__52
10
163.181000
20
11.093000
30
59.160000
70
192
0
VERTEX
8
OBJECT__52
10
166.934998
20
5.599000
30
60.544998
70
192
0
VERTEX
8
OBJECT__52
10
159.513000
20
7.348000
30
59.160000
70
192
0
VERTEX
8
OBJECT__52
10
165.082993
20
3.709000
30
60.544998
70
192
0
VERTEX
8
OBJECT__52
10
157.557007
20
2.485000
30
59.160000
70
192
0
VERTEX
8
OBJECT__52
10
164.095993
20
1.254000
30
60.544998
70
192
0
VERTEX
8
OBJECT__52
10
157.610992
20
-2.757000
30
59.160000
70
192
0
VERTEX
8
OBJECT__52
10
164.123993
20
-1.392000
30
60.544998
70
192
0
VERTEX
8
OBJECT__52
10
159.667007
20
-7.579000
30
59.160000
70
192
0
VERTEX
8
OBJECT__52
10
165.160995
20
-3.825000
30
60.544998
70
192
0
VERTEX
8
OBJECT__52
10
167.050995
20
-5.677000
30
60.544998
70
192
0
VERTEX
8
OBJECT__52
10
170.759995
20
0.000000
30
61.008999
70
192
0
VERTEX
8
OBJECT__52
10
0
20
0
30
0
70
128
71
1
72
2
73
3
0
VERTEX
8
OBJECT__52
10
0
20
0
30
0
70
128
71
2
72
4
73
5
0
VERTEX
8
OBJECT__52
10
0
20
0
30
0
70
128
71
4
72
6
73
7
0
VERTEX
8
OBJECT__52
10
0
20
0
30
0
70
128
71
8
72
9
73
7
0
VERTEX
8
OBJECT__52
10
0
20
0
30
0
70
128
71
8
72
10
73
11
0
VERTEX
8
OBJECT__52
10
0
20
0
30
0
70
128
71
12
72
13
73
11
0
VERTEX
8
OBJECT__52
10
0
20
0
30
0
70
128
71
12
72
14
73
15
0
VERTEX
8
OBJECT__52
10
0
20
0
30
0
70
128
71
14
72
16
73
17
0
VERTEX
8
OBJECT__52
10
0
20
0
30
0
70
128
71
16
72
18
73
19
0
VERTEX
8
OBJECT__52
10
0
20
0
30
0
70
128
71
18
72
20
73
21
0
VERTEX
8
OBJECT__52
10
0
20
0
30
0
70
128
71
20
72
22
73
23
0
VERTEX
8
OBJECT__52
10
0
20
0
30
0
70
128
71
24
72
25
73
23
0
VERTEX
8
OBJECT__52
10
0
20
0
30
0
70
128
71
24
72
26
73
27
0
VERTEX
8
OBJECT__52
10
0
20
0
30
0
70
128
71
28
72
29
73
27
0
VERTEX
8
OBJECT__52
10
0
20
0
30
0
70
128
71
28
72
30
73
31
0
VERTEX
8
OBJECT__52
10
0
20
0
30
0
70
128
71
30
72
1
73
32
0
VERTEX
8
OBJECT__52
10
0
20
0
30
0
70
128
71
33
72
31
73
32
0
VERTEX
8
OBJECT__52
10
0
20
0
30
0
70
128
71
33
72
29
73
31
0
VERTEX
8
OBJECT__52
10
0
20
0
30
0
70
128
71
33
72
27
73
29
0
VERTEX
8
OBJECT__52
10
0
20
0
30
0
70
128
71
33
72
25
73
27
0
VERTEX
8
OBJECT__52
10
0
20
0
30
0
70
128
71
33
72
23
73
25
0
VERTEX
8
OBJECT__52
10
0
20
0
30
0
70
128
71
33
72
21
73
23
0
VERTEX
8
OBJECT__52
10
0
20
0
30
0
70
128
71
33
72
19
73
21
0
VERTEX
8
OBJECT__52
10
0
20
0
30
0
70
128
71
33
72
17
73
19
0
VERTEX
8
OBJECT__52
10
0
20
0
30
0
70
128
71
33
72
15
73
17
0
VERTEX
8
OBJECT__52
10
0
20
0
30
0
70
128
71
33
72
13
73
15
0
VERTEX
8
OBJECT__52
10
0
20
0
30
0
70
128
71
33
72
11
73
13
0
VERTEX
8
OBJECT__52
10
0
20
0
30
0
70
128
71
33
72
9
73
11
0
VERTEX
8
OBJECT__52
10
0
20
0
30
0
70
128
71
33
72
7
73
9
0
VERTEX
8
OBJECT__52
10
0
20
0
30
0
70
128
71
33
72
5
73
7
0
VERTEX
8
OBJECT__52
10
0
20
0
30
0
70
128
71
33
72
3
73
5
0
VERTEX
8
OBJECT__52
10
0
20
0
30
0
70
128
71
33
72
32
73
3
0
VERTEX
8
OBJECT__52
10
0
20
0
30
0
70
128
71
32
72
31
73
30
0
VERTEX
8
OBJECT__52
10
0
20
0
30
0
70
128
71
31
72
29
73
28
0
VERTEX
8
OBJECT__52
10
0
20
0
30
0
70
128
71
27
72
26
73
28
0
VERTEX
8
OBJECT__52
10
0
20
0
30
0
70
128
71
27
72
25
73
24
0
VERTEX
8
OBJECT__52
10
0
20
0
30
0
70
128
71
23
72
22
73
24
0
VERTEX
8
OBJECT__52
10
0
20
0
30
0
70
128
71
23
72
21
73
20
0
VERTEX
8
OBJECT__52
10
0
20
0
30
0
70
128
71
21
72
19
73
18
0
VERTEX
8
OBJECT__52
10
0
20
0
30
0
70
128
71
19
72
17
73
16
0
VERTEX
8
OBJECT__52
10
0
20
0
30
0
70
128
71
17
72
15
73
14
0
VERTEX
8
OBJECT__52
10
0
20
0
30
0
70
128
71
15
72
13
73
12
0
VERTEX
8
OBJECT__52
10
0
20
0
30
0
70
128
71
11
72
10
73
12
0
VERTEX
8
OBJECT__52
10
0
20
0
30
0
70
128
71
11
72
9
73
8
0
VERTEX
8
OBJECT__52
10
0
20
0
30
0
70
128
71
7
72
6
73
8
0
VERTEX
8
OBJECT__52
10
0
20
0
30
0
70
128
71
7
72
5
73
4
0
VERTEX
8
OBJECT__52
10
0
20
0
30
0
70
128
71
5
72
3
73
2
0
VERTEX
8
OBJECT__52
10
0
20
0
30
0
70
128
71
3
72
32
73
1
0
SEQEND
8
OBJECT__52
0
POLYLINE
8
OBJECT__53
66
1
70
64
71
40
72
40
62
253
0
VERTEX
8
OBJECT__53
10
157.197998
20
2.552000
30
58.679001
70
192
0
VERTEX
8
OBJECT__53
10
157.557007
20
2.485000
30
59.160000
70
192
0
VERTEX
8
OBJECT__53
10
159.513000
20
7.348000
30
59.160000
70
192
0
VERTEX
8
OBJECT__53
10
157.610992
20
-2.757000
30
59.160000
70
192
0
VERTEX
8
OBJECT__53
10
157.216995
20
0.763000
30
58.679001
70
192
0
VERTEX
8
OBJECT__53
10
157.253998
20
-2.832000
30
58.679001
70
192
0
VERTEX
8
OBJECT__53
10
158.664001
20
-6.139000
30
58.679001
70
192
0
VERTEX
8
OBJECT__53
10
159.667007
20
-7.579000
30
59.160000
70
192
0
VERTEX
8
OBJECT__53
10
163.212006
20
-11.553000
30
58.679001
70
192
0
VERTEX
8
OBJECT__53
10
163.412003
20
-11.247000
30
59.160000
70
192
0
VERTEX
8
OBJECT__53
10
168.207993
20
-13.562000
30
58.679001
70
192
0
VERTEX
8
OBJECT__53
10
168.274994
20
-13.203000
30
59.160000
70
192
0
VERTEX
8
OBJECT__53
10
173.516998
20
-13.149000
30
59.160000
70
192
0
VERTEX
8
OBJECT__53
10
169.996994
20
-13.543000
30
58.679001
70
192
0
VERTEX
8
OBJECT__53
10
173.591995
20
-13.506000
30
58.679001
70
192
0
VERTEX
8
OBJECT__53
10
176.899002
20
-12.096000
30
58.679001
70
192
0
VERTEX
8
OBJECT__53
10
178.339005
20
-11.093000
30
59.160000
70
192
0
VERTEX
8
OBJECT__53
10
182.313004
20
-7.548000
30
58.679001
70
192
0
VERTEX
8
OBJECT__53
10
182.007004
20
-7.348000
30
59.160000
70
192
0
VERTEX
8
OBJECT__53
10
184.322006
20
-2.552000
30
58.679001
70
192
0
VERTEX
8
OBJECT__53
10
183.962997
20
-2.485000
30
59.160000
70
192
0
VERTEX
8
OBJECT__53
10
183.908997
20
2.757000
30
59.160000
70
192
0
VERTEX
8
OBJECT__53
10
184.302994
20
-0.763000
30
58.679001
70
192
0
VERTEX
8
OBJECT__53
10
184.266006
20
2.832000
30
58.679001
70
192
0
VERTEX
8
OBJECT__53
10
182.856003
20
6.139000
30
58.679001
70
192
0
VERTEX
8
OBJECT__53
10
181.852997
20
7.579000
30
59.160000
70
192
0
VERTEX
8
OBJECT__53
10
178.307999
20
11.553000
30
58.679001
70
192
0
VERTEX
8
OBJECT__53
10
178.108002
20
11.247000
30
59.160000
70
192
0
VERTEX
8
OBJECT__53
10
173.311996
20
13.562000
30
58.679001
70
192
0
VERTEX
8
OBJECT__53
10
173.244995
20
13.203000
30
59.160000
70
192
0
VERTEX
8
OBJECT__53
10
168.003006
20
13.149000
30
59.160000
70
192
0
VERTEX
8
OBJECT__53
10
171.522995
20
13.543000
30
58.679001
70
192
0
VERTEX
8
OBJECT__53
10
167.927994
20
13.506000
30
58.679001
70
192
0
VERTEX
8
OBJECT__53
10
164.621002
20
12.096000
30
58.679001
70
192
0
VERTEX
8
OBJECT__53
10
163.181000
20
11.093000
30
59.160000
70
192
0
VERTEX
8
OBJECT__53
10
159.207001
20
7.548000
30
58.679001
70
192
0
VERTEX
8
OBJECT__53
10
162.975006
20
11.394000
30
58.679001
70
192
0
VERTEX
8
OBJECT__53
10
182.154007
20
7.785000
30
58.679001
70
192
0
VERTEX
8
OBJECT__53
10
178.544998
20
-11.394000
30
58.679001
70
192
0
VERTEX
8
OBJECT__53
10
159.365997
20
-7.785000
30
58.679001
70
192
0
VERTEX
8
OBJECT__53
10
0
20
0
30
0
70
128
71
1
72
2
73
3
0
VERTEX
8
OBJECT__53
10
0
20
0
30
0
70
128
71
4
72
2
73
5
0
VERTEX
8
OBJECT__53
10
0
20
0
30
0
70
128
71
2
72
1
73
5
0
VERTEX
8
OBJECT__53
10
0
20
0
30
0
70
128
71
4
72
6
73
7
0
VERTEX
8
OBJECT__53
10
0
20
0
30
0
70
128
71
7
72
8
73
4
0
VERTEX
8
OBJECT__53
10
0
20
0
30
0
70
128
71
9
72
10
73
8
0
VERTEX
8
OBJECT__53
10
0
20
0
30
0
70
128
71
11
72
12
73
10
0
VERTEX
8
OBJECT__53
10
0
20
0
30
0
70
128
71
13
72
12
73
14
0
VERTEX
8
OBJECT__53
10
0
20
0
30
0
70
128
71
12
72
11
73
14
0
VERTEX
8
OBJECT__53
10
0
20
0
30
0
70
128
71
13
72
15
73
16
0
VERTEX
8
OBJECT__53
10
0
20
0
30
0
70
128
71
16
72
17
73
13
0
VERTEX
8
OBJECT__53
10
0
20
0
30
0
70
128
71
18
72
19
73
17
0
VERTEX
8
OBJECT__53
10
0
20
0
30
0
70
128
71
20
72
21
73
19
0
VERTEX
8
OBJECT__53
10
0
20
0
30
0
70
128
71
22
72
21
73
23
0
VERTEX
8
OBJECT__53
10
0
20
0
30
0
70
128
71
21
72
20
73
23
0
VERTEX
8
OBJECT__53
10
0
20
0
30
0
70
128
71
22
72
24
73
25
0
VERTEX
8
OBJECT__53
10
0
20
0
30
0
70
128
71
25
72
26
73
22
0
VERTEX
8
OBJECT__53
10
0
20
0
30
0
70
128
71
27
72
28
73
26
0
VERTEX
8
OBJECT__53
10
0
20
0
30
0
70
128
71
29
72
30
73
28
0
VERTEX
8
OBJECT__53
10
0
20
0
30
0
70
128
71
31
72
30
73
32
0
VERTEX
8
OBJECT__53
10
0
20
0
30
0
70
128
71
30
72
29
73
32
0
VERTEX
8
OBJECT__53
10
0
20
0
30
0
70
128
71
31
72
33
73
34
0
VERTEX
8
OBJECT__53
10
0
20
0
30
0
70
128
71
34
72
35
73
31
0
VERTEX
8
OBJECT__53
10
0
20
0
30
0
70
128
71
36
72
3
73
35
0
VERTEX
8
OBJECT__53
10
0
20
0
30
0
70
128
71
35
72
37
73
36
0
VERTEX
8
OBJECT__53
10
0
20
0
30
0
70
128
71
34
72
37
73
35
0
VERTEX
8
OBJECT__53
10
0
20
0
30
0
70
128
71
32
72
33
73
31
0
VERTEX
8
OBJECT__53
10
0
20
0
30
0
70
128
71
28
72
27
73
29
0
VERTEX
8
OBJECT__53
10
0
20
0
30
0
70
128
71
26
72
38
73
27
0
VERTEX
8
OBJECT__53
10
0
20
0
30
0
70
128
71
25
72
38
73
26
0
VERTEX
8
OBJECT__53
10
0
20
0
30
0
70
128
71
23
72
24
73
22
0
VERTEX
8
OBJECT__53
10
0
20
0
30
0
70
128
71
19
72
18
73
20
0
VERTEX
8
OBJECT__53
10
0
20
0
30
0
70
128
71
17
72
39
73
18
0
VERTEX
8
OBJECT__53
10
0
20
0
30
0
70
128
71
16
72
39
73
17
0
VERTEX
8
OBJECT__53
10
0
20
0
30
0
70
128
71
14
72
15
73
13
0
VERTEX
8
OBJECT__53
10
0
20
0
30
0
70
128
71
10
72
9
73
11
0
VERTEX
8
OBJECT__53
10
0
20
0
30
0
70
128
71
8
72
40
73
9
0
VERTEX
8
OBJECT__53
10
0
20
0
30
0
70
128
71
7
72
40
73
8
0
VERTEX
8
OBJECT__53
10
0
20
0
30
0
70
128
71
5
72
6
73
4
0
VERTEX
8
OBJECT__53
10
0
20
0
30
0
70
128
71
3
72
36
73
1
0
SEQEND
8
OBJECT__53
0
POLYLINE
8
OBJECT__55
66
1
70
64
71
48
72
48
62
253
0
VERTEX
8
OBJECT__55
10
169.996994
20
-13.543000
30
58.679001
70
192
0
VERTEX
8
OBJECT__55
10
168.207993
20
-13.562000
30
58.679001
70
192
0
VERTEX
8
OBJECT__55
10
168.207993
20
-13.562000
30
55.928001
70
192
0
VERTEX
8
OBJECT__55
10
163.212006
20
-11.553000
30
55.928001
70
192
0
VERTEX
8
OBJECT__55
10
163.212006
20
-11.553000
30
58.679001
70
192
0
VERTEX
8
OBJECT__55
10
176.899002
20
-12.096000
30
58.679001
70
192
0
VERTEX
8
OBJECT__55
10
173.591995
20
-13.506000
30
58.679001
70
192
0
VERTEX
8
OBJECT__55
10
173.591995
20
-13.506000
30
55.928001
70
192
0
VERTEX
8
OBJECT__55
10
169.996994
20
-13.543000
30
55.928001
70
192
0
VERTEX
8
OBJECT__55
10
182.313004
20
-7.548000
30
58.679001
70
192
0
VERTEX
8
OBJECT__55
10
178.544998
20
-11.394000
30
58.679001
70
192
0
VERTEX
8
OBJECT__55
10
178.544998
20
-11.394000
30
55.928001
70
192
0
VERTEX
8
OBJECT__55
10
176.899002
20
-12.096000
30
55.928001
70
192
0
VERTEX
8
OBJECT__55
10
184.322006
20
-2.552000
30
55.928001
70
192
0
VERTEX
8
OBJECT__55
10
184.302994
20
-0.763000
30
55.928001
70
192
0
VERTEX
8
OBJECT__55
10
184.302994
20
-0.763000
30
58.679001
70
192
0
VERTEX
8
OBJECT__55
10
182.313004
20
-7.548000
30
55.928001
70
192
0
VERTEX
8
OBJECT__55
10
184.322006
20
-2.552000
30
58.679001
70
192
0
VERTEX
8
OBJECT__55
10
184.266006
20
2.832000
30
58.679001
70
192
0
VERTEX
8
OBJECT__55
10
184.266006
20
2.832000
30
55.928001
70
192
0
VERTEX
8
OBJECT__55
10
182.856003
20
6.139000
30
55.928001
70
192
0
VERTEX
8
OBJECT__55
10
178.307999
20
11.553000
30
58.679001
70
192
0
VERTEX
8
OBJECT__55
10
182.154007
20
7.785000
30
58.679001
70
192
0
VERTEX
8
OBJECT__55
10
182.154007
20
7.785000
30
55.928001
70
192
0
VERTEX
8
OBJECT__55
10
182.856003
20
6.139000
30
58.679001
70
192
0
VERTEX
8
OBJECT__55
10
171.522995
20
13.543000
30
58.679001
70
192
0
VERTEX
8
OBJECT__55
10
173.311996
20
13.562000
30
58.679001
70
192
0
VERTEX
8
OBJECT__55
10
173.311996
20
13.562000
30
55.928001
70
192
0
VERTEX
8
OBJECT__55
10
178.307999
20
11.553000
30
55.928001
70
192
0
VERTEX
8
OBJECT__55
10
167.927994
20
13.506000
30
55.928001
70
192
0
VERTEX
8
OBJECT__55
10
164.621002
20
12.096000
30
55.928001
70
192
0
VERTEX
8
OBJECT__55
10
164.621002
20
12.096000
30
58.679001
70
192
0
VERTEX
8
OBJECT__55
10
171.522995
20
13.543000
30
55.928001
70
192
0
VERTEX
8
OBJECT__55
10
167.927994
20
13.506000
30
58.679001
70
192
0
VERTEX
8
OBJECT__55
10
159.207001
20
7.548000
30
58.679001
70
192
0
VERTEX
8
OBJECT__55
10
162.975006
20
11.394000
30
58.679001
70
192
0
VERTEX
8
OBJECT__55
10
162.975006
20
11.394000
30
55.928001
70
192
0
VERTEX
8
OBJECT__55
10
157.197998
20
2.552000
30
55.928001
70
192
0
VERTEX
8
OBJECT__55
10
157.216995
20
0.763000
30
55.928001
70
192
0
VERTEX
8
OBJECT__55
10
157.216995
20
0.763000
30
58.679001
70
192
0
VERTEX
8
OBJECT__55
10
159.207001
20
7.548000
30
55.928001
70
192
0
VERTEX
8
OBJECT__55
10
157.197998
20
2.552000
30
58.679001
70
192
0
VERTEX
8
OBJECT__55
10
157.253998
20
-2.832000
30
55.928001
70
192
0
VERTEX
8
OBJECT__55
10
158.664001
20
-6.139000
30
55.928001
70
192
0
VERTEX
8
OBJECT__55
10
158.664001
20
-6.139000
30
58.679001
70
192
0
VERTEX
8
OBJECT__55
10
157.253998
20
-2.832000
30
58.679001
70
192
0
VERTEX
8
OBJECT__55
10
159.365997
20
-7.785000
30
58.679001
70
192
0
VERTEX
8
OBJECT__55
10
159.365997
20
-7.785000
30
55.928001
70
192
0
VERTEX
8
OBJECT__55
10
0
20
0
30
0
70
128
71
1
72
2
73
3
0
VERTEX
8
OBJECT__55
10
0
20
0
30
0
70
128
71
4
72
3
73
2
0
VERTEX
8
OBJECT__55
10
0
20
0
30
0
70
128
71
2
72
5
73
4
0
VERTEX
8
OBJECT__55
10
0
20
0
30
0
70
128
71
6
72
7
73
8
0
VERTEX
8
OBJECT__55
10
0
20
0
30
0
70
128
71
9
72
8
73
7
0
VERTEX
8
OBJECT__55
10
0
20
0
30
0
70
128
71
7
72
1
73
9
0
VERTEX
8
OBJECT__55
10
0
20
0
30
0
70
128
71
10
72
11
73
12
0
VERTEX
8
OBJECT__55
10
0
20
0
30
0
70
128
71
13
72
12
73
11
0
VERTEX
8
OBJECT__55
10
0
20
0
30
0
70
128
71
11
72
6
73
13
0
VERTEX
8
OBJECT__55
10
0
20
0
30
0
70
128
71
14
72
15
73
16
0
VERTEX
8
OBJECT__55
10
0
20
0
30
0
70
128
71
17
72
14
73
18
0
VERTEX
8
OBJECT__55
10
0
20
0
30
0
70
128
71
18
72
10
73
17
0
VERTEX
8
OBJECT__55
10
0
20
0
30
0
70
128
71
19
72
20
73
21
0
VERTEX
8
OBJECT__55
10
0
20
0
30
0
70
128
71
19
72
16
73
15
0
VERTEX
8
OBJECT__55
10
0
20
0
30
0
70
128
71
15
72
20
73
19
0
VERTEX
8
OBJECT__55
10
0
20
0
30
0
70
128
71
22
72
23
73
24
0
VERTEX
8
OBJECT__55
10
0
20
0
30
0
70
128
71
24
72
23
73
25
0
VERTEX
8
OBJECT__55
10
0
20
0
30
0
70
128
71
25
72
21
73
24
0
VERTEX
8
OBJECT__55
10
0
20
0
30
0
70
128
71
26
72
27
73
28
0
VERTEX
8
OBJECT__55
10
0
20
0
30
0
70
128
71
29
72
28
73
27
0
VERTEX
8
OBJECT__55
10
0
20
0
30
0
70
128
71
27
72
22
73
29
0
VERTEX
8
OBJECT__55
10
0
20
0
30
0
70
128
71
30
72
31
73
32
0
VERTEX
8
OBJECT__55
10
0
20
0
30
0
70
128
71
33
72
30
73
34
0
VERTEX
8
OBJECT__55
10
0
20
0
30
0
70
128
71
34
72
26
73
33
0
VERTEX
8
OBJECT__55
10
0
20
0
30
0
70
128
71
35
72
36
73
37
0
VERTEX
8
OBJECT__55
10
0
20
0
30
0
70
128
71
36
72
32
73
31
0
VERTEX
8
OBJECT__55
10
0
20
0
30
0
70
128
71
31
72
37
73
36
0
VERTEX
8
OBJECT__55
10
0
20
0
30
0
70
128
71
38
72
39
73
40
0
VERTEX
8
OBJECT__55
10
0
20
0
30
0
70
128
71
41
72
38
73
42
0
VERTEX
8
OBJECT__55
10
0
20
0
30
0
70
128
71
42
72
35
73
41
0
VERTEX
8
OBJECT__55
10
0
20
0
30
0
70
128
71
43
72
44
73
45
0
VERTEX
8
OBJECT__55
10
0
20
0
30
0
70
128
71
46
72
40
73
39
0
VERTEX
8
OBJECT__55
10
0
20
0
30
0
70
128
71
39
72
43
73
46
0
VERTEX
8
OBJECT__55
10
0
20
0
30
0
70
128
71
5
72
47
73
48
0
VERTEX
8
OBJECT__55
10
0
20
0
30
0
70
128
71
47
72
45
73
44
0
VERTEX
8
OBJECT__55
10
0
20
0
30
0
70
128
71
44
72
48
73
47
0
VERTEX
8
OBJECT__55
10
0
20
0
30
0
70
128
71
48
72
4
73
5
0
VERTEX
8
OBJECT__55
10
0
20
0
30
0
70
128
71
45
72
46
73
43
0
VERTEX
8
OBJECT__55
10
0
20
0
30
0
70
128
71
40
72
42
73
38
0
VERTEX
8
OBJECT__55
10
0
20
0
30
0
70
128
71
37
72
41
73
35
0
VERTEX
8
OBJECT__55
10
0
20
0
30
0
70
128
71
32
72
34
73
30
0
VERTEX
8
OBJECT__55
10
0
20
0
30
0
70
128
71
28
72
33
73
26
0
VERTEX
8
OBJECT__55
10
0
20
0
30
0
70
128
71
24
72
29
73
22
0
VERTEX
8
OBJECT__55
10
0
20
0
30
0
70
128
71
21
72
25
73
19
0
VERTEX
8
OBJECT__55
10
0
20
0
30
0
70
128
71
16
72
18
73
14
0
VERTEX
8
OBJECT__55
10
0
20
0
30
0
70
128
71
12
72
17
73
10
0
VERTEX
8
OBJECT__55
10
0
20
0
30
0
70
128
71
8
72
13
73
6
0
VERTEX
8
OBJECT__55
10
0
20
0
30
0
70
128
71
3
72
9
73
1
0
SEQEND
8
OBJECT__55
0
POLYLINE
8
OBJECT__56
66
1
70
64
71
40
72
40
62
253
0
VERTEX
8
OBJECT__56
10
157.197998
20
2.552000
30
55.928001
70
192
0
VERTEX
8
OBJECT__56
10
159.207001
20
7.548000
30
55.928001
70
192
0
VERTEX
8
OBJECT__56
10
159.375000
20
7.438000
30
55.728001
70
192
0
VERTEX
8
OBJECT__56
10
157.449997
20
-2.791000
30
55.728001
70
192
0
VERTEX
8
OBJECT__56
10
157.253998
20
-2.832000
30
55.928001
70
192
0
VERTEX
8
OBJECT__56
10
157.216995
20
0.763000
30
55.928001
70
192
0
VERTEX
8
OBJECT__56
10
157.395004
20
2.515000
30
55.728001
70
192
0
VERTEX
8
OBJECT__56
10
159.531006
20
-7.672000
30
55.728001
70
192
0
VERTEX
8
OBJECT__56
10
158.664001
20
-6.139000
30
55.928001
70
192
0
VERTEX
8
OBJECT__56
10
159.365997
20
-7.785000
30
55.928001
70
192
0
VERTEX
8
OBJECT__56
10
163.212006
20
-11.553000
30
55.928001
70
192
0
VERTEX
8
OBJECT__56
10
163.322006
20
-11.385000
30
55.728001
70
192
0
VERTEX
8
OBJECT__56
10
168.244995
20
-13.365000
30
55.728001
70
192
0
VERTEX
8
OBJECT__56
10
173.550995
20
-13.311000
30
55.728001
70
192
0
VERTEX
8
OBJECT__56
10
173.591995
20
-13.506000
30
55.928001
70
192
0
VERTEX
8
OBJECT__56
10
169.996994
20
-13.543000
30
55.928001
70
192
0
VERTEX
8
OBJECT__56
10
178.432007
20
-11.229000
30
55.728001
70
192
0
VERTEX
8
OBJECT__56
10
176.899002
20
-12.096000
30
55.928001
70
192
0
VERTEX
8
OBJECT__56
10
178.544998
20
-11.394000
30
55.928001
70
192
0
VERTEX
8
OBJECT__56
10
182.145996
20
-7.438000
30
55.728001
70
192
0
VERTEX
8
OBJECT__56
10
184.322006
20
-2.552000
30
55.928001
70
192
0
VERTEX
8
OBJECT__56
10
182.313004
20
-7.548000
30
55.928001
70
192
0
VERTEX
8
OBJECT__56
10
184.070999
20
2.791000
30
55.728001
70
192
0
VERTEX
8
OBJECT__56
10
184.266006
20
2.832000
30
55.928001
70
192
0
VERTEX
8
OBJECT__56
10
184.302994
20
-0.763000
30
55.928001
70
192
0
VERTEX
8
OBJECT__56
10
184.125000
20
-2.515000
30
55.728001
70
192
0
VERTEX
8
OBJECT__56
10
181.988998
20
7.672000
30
55.728001
70
192
0
VERTEX
8
OBJECT__56
10
182.856003
20
6.139000
30
55.928001
70
192
0
VERTEX
8
OBJECT__56
10
182.154007
20
7.785000
30
55.928001
70
192
0
VERTEX
8
OBJECT__56
10
178.307999
20
11.553000
30
55.928001
70
192
0
VERTEX
8
OBJECT__56
10
178.197998
20
11.385000
30
55.728001
70
192
0
VERTEX
8
OBJECT__56
10
173.274994
20
13.365000
30
55.728001
70
192
0
VERTEX
8
OBJECT__56
10
167.968994
20
13.311000
30
55.728001
70
192
0
VERTEX
8
OBJECT__56
10
167.927994
20
13.506000
30
55.928001
70
192
0
VERTEX
8
OBJECT__56
10
171.522995
20
13.543000
30
55.928001
70
192
0
VERTEX
8
OBJECT__56
10
163.087997
20
11.229000
30
55.728001
70
192
0
VERTEX
8
OBJECT__56
10
164.621002
20
12.096000
30
55.928001
70
192
0
VERTEX
8
OBJECT__56
10
162.975006
20
11.394000
30
55.928001
70
192
0
VERTEX
8
OBJECT__56
10
173.311996
20
13.562000
30
55.928001
70
192
0
VERTEX
8
OBJECT__56
10
168.207993
20
-13.562000
30
55.928001
70
192
0
VERTEX
8
OBJECT__56
10
0
20
0
30
0
70
128
71
1
72
2
73
3
0
VERTEX
8
OBJECT__56
10
0
20
0
30
0
70
128
71
4
72
5
73
6
0
VERTEX
8
OBJECT__56
10
0
20
0
30
0
70
128
71
6
72
7
73
4
0
VERTEX
8
OBJECT__56
10
0
20
0
30
0
70
128
71
4
72
8
73
9
0
VERTEX
8
OBJECT__56
10
0
20
0
30
0
70
128
71
8
72
10
73
9
0
VERTEX
8
OBJECT__56
10
0
20
0
30
0
70
128
71
11
72
10
73
8
0
VERTEX
8
OBJECT__56
10
0
20
0
30
0
70
128
71
11
72
12
73
13
0
VERTEX
8
OBJECT__56
10
0
20
0
30
0
70
128
71
14
72
15
73
16
0
VERTEX
8
OBJECT__56
10
0
20
0
30
0
70
128
71
16
72
13
73
14
0
VERTEX
8
OBJECT__56
10
0
20
0
30
0
70
128
71
14
72
17
73
18
0
VERTEX
8
OBJECT__56
10
0
20
0
30
0
70
128
71
17
72
19
73
18
0
VERTEX
8
OBJECT__56
10
0
20
0
30
0
70
128
71
19
72
17
73
20
0
VERTEX
8
OBJECT__56
10
0
20
0
30
0
70
128
71
21
72
22
73
20
0
VERTEX
8
OBJECT__56
10
0
20
0
30
0
70
128
71
23
72
24
73
25
0
VERTEX
8
OBJECT__56
10
0
20
0
30
0
70
128
71
25
72
26
73
23
0
VERTEX
8
OBJECT__56
10
0
20
0
30
0
70
128
71
23
72
27
73
28
0
VERTEX
8
OBJECT__56
10
0
20
0
30
0
70
128
71
27
72
29
73
28
0
VERTEX
8
OBJECT__56
10
0
20
0
30
0
70
128
71
30
72
29
73
27
0
VERTEX
8
OBJECT__56
10
0
20
0
30
0
70
128
71
30
72
31
73
32
0
VERTEX
8
OBJECT__56
10
0
20
0
30
0
70
128
71
33
72
34
73
35
0
VERTEX
8
OBJECT__56
10
0
20
0
30
0
70
128
71
35
72
32
73
33
0
VERTEX
8
OBJECT__56
10
0
20
0
30
0
70
128
71
33
72
36
73
37
0
VERTEX
8
OBJECT__56
10
0
20
0
30
0
70
128
71
36
72
38
73
37
0
VERTEX
8
OBJECT__56
10
0
20
0
30
0
70
128
71
38
72
36
73
3
0
VERTEX
8
OBJECT__56
10
0
20
0
30
0
70
128
71
3
72
2
73
38
0
VERTEX
8
OBJECT__56
10
0
20
0
30
0
70
128
71
37
72
34
73
33
0
VERTEX
8
OBJECT__56
10
0
20
0
30
0
70
128
71
35
72
39
73
32
0
VERTEX
8
OBJECT__56
10
0
20
0
30
0
70
128
71
32
72
39
73
30
0
VERTEX
8
OBJECT__56
10
0
20
0
30
0
70
128
71
27
72
31
73
30
0
VERTEX
8
OBJECT__56
10
0
20
0
30
0
70
128
71
28
72
24
73
23
0
VERTEX
8
OBJECT__56
10
0
20
0
30
0
70
128
71
25
72
21
73
26
0
VERTEX
8
OBJECT__56
10
0
20
0
30
0
70
128
71
20
72
26
73
21
0
VERTEX
8
OBJECT__56
10
0
20
0
30
0
70
128
71
20
72
22
73
19
0
VERTEX
8
OBJECT__56
10
0
20
0
30
0
70
128
71
18
72
15
73
14
0
VERTEX
8
OBJECT__56
10
0
20
0
30
0
70
128
71
16
72
40
73
13
0
VERTEX
8
OBJECT__56
10
0
20
0
30
0
70
128
71
13
72
40
73
11
0
VERTEX
8
OBJECT__56
10
0
20
0
30
0
70
128
71
8
72
12
73
11
0
VERTEX
8
OBJECT__56
10
0
20
0
30
0
70
128
71
9
72
5
73
4
0
VERTEX
8
OBJECT__56
10
0
20
0
30
0
70
128
71
6
72
1
73
7
0
VERTEX
8
OBJECT__56
10
0
20
0
30
0
70
128
71
3
72
7
73
1
0
SEQEND
8
OBJECT__56
0
ENDSEC
0
EOF
