999
Converted by 3D Exploration 
999
XDimension Software, LLC
999
http://www.xdsoft.com/explorer/
0
SECTION
2
HEADER
9
$ACADVER
1
AC1008
9
$UCSORG
10
0.0
20
0.0
30
0.0
9
$UCSXDIR
10
1.0
20
0.0
30
0.0
9
$TILEMODE
70
1
9
$UCSYDIR
10
0.0
20
1.0
30
0.0
9
$EXTMIN
10
0.000000
20
-36.000000
30
-36.000000
9
$EXTMAX
10
105.601997
20
36.000000
30
26.990000
0
ENDSEC
0
SECTION
2
TABLES
0
TABLE
2
LTYPE
70
1
0
LTYPE
2
CONTINUOUS
70
64
3
Solid line
72
65
73
0
40
0.0
0
ENDTAB
0
TABLE
2
LAYER
70
30
0
LAYER
2
OBJECT__0
70
0
62
253
6
CONTINUOUS
0
LAYER
2
OBJECT__1
70
0
62
253
6
CONTINUOUS
0
LAYER
2
OBJECT__3
70
0
62
253
6
CONTINUOUS
0
LAYER
2
OBJECT__4
70
0
62
253
6
CONTINUOUS
0
LAYER
2
OBJECT__5
70
0
62
253
6
CONTINUOUS
0
LAYER
2
OBJECT__6
70
0
62
253
6
CONTINUOUS
0
LAYER
2
OBJECT__7
70
0
62
253
6
CONTINUOUS
0
LAYER
2
OBJECT__8
70
0
62
253
6
CONTINUOUS
0
LAYER
2
OBJECT__9
70
0
62
253
6
CONTINUOUS
0
LAYER
2
OBJECT__10
70
0
62
253
6
CONTINUOUS
0
LAYER
2
OBJECT__12
70
0
62
253
6
CONTINUOUS
0
LAYER
2
OBJECT__13
70
0
62
253
6
CONTINUOUS
0
LAYER
2
OBJECT__14
70
0
62
253
6
CONTINUOUS
0
LAYER
2
OBJECT__16
70
0
62
253
6
CONTINUOUS
0
LAYER
2
OBJECT__17
70
0
62
253
6
CONTINUOUS
0
LAYER
2
OBJECT__18
70
0
62
253
6
CONTINUOUS
0
LAYER
2
OBJECT__19
70
0
62
253
6
CONTINUOUS
0
LAYER
2
OBJECT__20
70
0
62
253
6
CONTINUOUS
0
LAYER
2
OBJECT__21
70
0
62
253
6
CONTINUOUS
0
LAYER
2
OBJECT__22
70
0
62
253
6
CONTINUOUS
0
LAYER
2
OBJECT__23
70
0
62
253
6
CONTINUOUS
0
LAYER
2
OBJECT__24
70
0
62
253
6
CONTINUOUS
0
LAYER
2
OBJECT__25
70
0
62
253
6
CONTINUOUS
0
LAYER
2
OBJECT__26
70
0
62
253
6
CONTINUOUS
0
LAYER
2
OBJECT__27
70
0
62
253
6
CONTINUOUS
0
LAYER
2
OBJECT__28
70
0
62
253
6
CONTINUOUS
0
LAYER
2
OBJECT__29
70
0
62
253
6
CONTINUOUS
0
ENDTAB
0
TABLE
2
STYLE
70
1
0
STYLE
2
STANDARD
70
0
40
0.0
41
1.0
50
0.0
71
0
42
0.2
3
txt
4
1
0
ENDTAB
0
TABLE
2
UCS
70
0
0
ENDTAB
0
ENDSEC
0
SECTION
2
ENTITIES
0
POLYLINE
8
OBJECT__0
66
1
70
64
71
4
72
2
62
253
0
VERTEX
8
OBJECT__0
10
10.602000
20
-3.000000
30
-3.000000
70
192
0
VERTEX
8
OBJECT__0
10
10.602000
20
-3.000000
30
3.000000
70
192
0
VERTEX
8
OBJECT__0
10
8.602000
20
-3.000000
30
3.000000
70
192
0
VERTEX
8
OBJECT__0
10
8.602000
20
-3.000000
30
-3.000000
70
192
0
VERTEX
8
OBJECT__0
10
0
20
0
30
0
70
128
71
1
72
2
73
3
0
VERTEX
8
OBJECT__0
10
0
20
0
30
0
70
128
71
3
72
4
73
1
0
SEQEND
8
OBJECT__0
0
POLYLINE
8
OBJECT__1
66
1
70
64
71
4
72
2
62
253
0
VERTEX
8
OBJECT__1
10
10.602000
20
3.000000
30
-3.000000
70
192
0
VERTEX
8
OBJECT__1
10
10.602000
20
-3.000000
30
-3.000000
70
192
0
VERTEX
8
OBJECT__1
10
8.602000
20
-3.000000
30
-3.000000
70
192
0
VERTEX
8
OBJECT__1
10
8.602000
20
3.000000
30
-3.000000
70
192
0
VERTEX
8
OBJECT__1
10
0
20
0
30
0
70
128
71
1
72
2
73
3
0
VERTEX
8
OBJECT__1
10
0
20
0
30
0
70
128
71
3
72
4
73
1
0
SEQEND
8
OBJECT__1
0
POLYLINE
8
OBJECT__3
66
1
70
64
71
4
72
2
62
253
0
VERTEX
8
OBJECT__3
10
10.602000
20
3.000000
30
-3.000000
70
192
0
VERTEX
8
OBJECT__3
10
8.602000
20
3.000000
30
-3.000000
70
192
0
VERTEX
8
OBJECT__3
10
8.602000
20
3.000000
30
3.000000
70
192
0
VERTEX
8
OBJECT__3
10
10.602000
20
3.000000
30
3.000000
70
192
0
VERTEX
8
OBJECT__3
10
0
20
0
30
0
70
128
71
1
72
2
73
3
0
VERTEX
8
OBJECT__3
10
0
20
0
30
0
70
128
71
3
72
4
73
1
0
SEQEND
8
OBJECT__3
0
POLYLINE
8
OBJECT__4
66
1
70
64
71
4
72
2
62
253
0
VERTEX
8
OBJECT__4
10
10.602000
20
-3.000000
30
3.000000
70
192
0
VERTEX
8
OBJECT__4
10
10.602000
20
3.000000
30
3.000000
70
192
0
VERTEX
8
OBJECT__4
10
8.602000
20
3.000000
30
3.000000
70
192
0
VERTEX
8
OBJECT__4
10
8.602000
20
-3.000000
30
3.000000
70
192
0
VERTEX
8
OBJECT__4
10
0
20
0
30
0
70
128
71
1
72
2
73
3
0
VERTEX
8
OBJECT__4
10
0
20
0
30
0
70
128
71
3
72
4
73
1
0
SEQEND
8
OBJECT__4
0
POLYLINE
8
OBJECT__5
66
1
70
64
71
31
72
31
62
253
0
VERTEX
8
OBJECT__5
10
69.601997
20
-36.000000
30
-10.500000
70
192
0
VERTEX
8
OBJECT__5
10
69.601997
20
-32.000000
30
-10.500000
70
192
0
VERTEX
8
OBJECT__5
10
81.848000
20
-29.563999
30
-10.500000
70
192
0
VERTEX
8
OBJECT__5
10
53.983002
20
-32.435001
30
-10.500000
70
192
0
VERTEX
8
OBJECT__5
10
57.356998
20
-29.563999
30
-10.500000
70
192
0
VERTEX
8
OBJECT__5
10
85.222000
20
-32.435001
30
-10.500000
70
192
0
VERTEX
8
OBJECT__5
10
92.230003
20
-22.627001
30
-10.500000
70
192
0
VERTEX
8
OBJECT__5
10
101.601997
20
0.000000
30
-10.500000
70
192
0
VERTEX
8
OBJECT__5
10
105.601997
20
0.000000
30
-10.500000
70
192
0
VERTEX
8
OBJECT__5
10
104.699997
20
-8.011000
30
-10.500000
70
192
0
VERTEX
8
OBJECT__5
10
97.748001
20
-22.445999
30
-10.500000
70
192
0
VERTEX
8
OBJECT__5
10
99.167000
20
-12.246000
30
-10.500000
70
192
0
VERTEX
8
OBJECT__5
10
41.457001
20
-22.445999
30
-10.500000
70
192
0
VERTEX
8
OBJECT__5
10
46.974998
20
-22.627001
30
-10.500000
70
192
0
VERTEX
8
OBJECT__5
10
34.505001
20
8.011000
30
-10.500000
70
192
0
VERTEX
8
OBJECT__5
10
40.037998
20
12.246000
30
-10.500000
70
192
0
VERTEX
8
OBJECT__5
10
37.602001
20
0.000000
30
-10.500000
70
192
0
VERTEX
8
OBJECT__5
10
41.457001
20
22.445999
30
-10.500000
70
192
0
VERTEX
8
OBJECT__5
10
46.974998
20
22.627001
30
-10.500000
70
192
0
VERTEX
8
OBJECT__5
10
53.983002
20
32.435001
30
-10.500000
70
192
0
VERTEX
8
OBJECT__5
10
57.356998
20
29.563999
30
-10.500000
70
192
0
VERTEX
8
OBJECT__5
10
69.601997
20
36.000000
30
-10.500000
70
192
0
VERTEX
8
OBJECT__5
10
69.601997
20
32.000000
30
-10.500000
70
192
0
VERTEX
8
OBJECT__5
10
34.505001
20
-8.011000
30
-10.500000
70
192
0
VERTEX
8
OBJECT__5
10
40.037998
20
-12.246000
30
-10.500000
70
192
0
VERTEX
8
OBJECT__5
10
85.222000
20
32.435001
30
-10.500000
70
192
0
VERTEX
8
OBJECT__5
10
81.848000
20
29.563999
30
-10.500000
70
192
0
VERTEX
8
OBJECT__5
10
97.748001
20
22.445999
30
-10.500000
70
192
0
VERTEX
8
OBJECT__5
10
92.230003
20
22.627001
30
-10.500000
70
192
0
VERTEX
8
OBJECT__5
10
104.699997
20
8.011000
30
-10.500000
70
192
0
VERTEX
8
OBJECT__5
10
99.167000
20
12.246000
30
-10.500000
70
192
0
VERTEX
8
OBJECT__5
10
0
20
0
30
0
70
128
71
1
72
2
73
3
0
VERTEX
8
OBJECT__5
10
0
20
0
30
0
70
128
71
1
72
4
73
5
0
VERTEX
8
OBJECT__5
10
0
20
0
30
0
70
128
71
6
72
3
73
7
0
VERTEX
8
OBJECT__5
10
0
20
0
30
0
70
128
71
5
72
2
73
1
0
VERTEX
8
OBJECT__5
10
0
20
0
30
0
70
128
71
8
72
9
73
10
0
VERTEX
8
OBJECT__5
10
0
20
0
30
0
70
128
71
11
72
7
73
12
0
VERTEX
8
OBJECT__5
10
0
20
0
30
0
70
128
71
3
72
6
73
1
0
VERTEX
8
OBJECT__5
10
0
20
0
30
0
70
128
71
4
72
13
73
14
0
VERTEX
8
OBJECT__5
10
0
20
0
30
0
70
128
71
15
72
16
73
17
0
VERTEX
8
OBJECT__5
10
0
20
0
30
0
70
128
71
18
72
19
73
16
0
VERTEX
8
OBJECT__5
10
0
20
0
30
0
70
128
71
20
72
21
73
19
0
VERTEX
8
OBJECT__5
10
0
20
0
30
0
70
128
71
22
72
23
73
21
0
VERTEX
8
OBJECT__5
10
0
20
0
30
0
70
128
71
12
72
10
73
11
0
VERTEX
8
OBJECT__5
10
0
20
0
30
0
70
128
71
14
72
5
73
4
0
VERTEX
8
OBJECT__5
10
0
20
0
30
0
70
128
71
13
72
24
73
25
0
VERTEX
8
OBJECT__5
10
0
20
0
30
0
70
128
71
16
72
15
73
18
0
VERTEX
8
OBJECT__5
10
0
20
0
30
0
70
128
71
21
72
20
73
22
0
VERTEX
8
OBJECT__5
10
0
20
0
30
0
70
128
71
22
72
26
73
27
0
VERTEX
8
OBJECT__5
10
0
20
0
30
0
70
128
71
26
72
28
73
29
0
VERTEX
8
OBJECT__5
10
0
20
0
30
0
70
128
71
28
72
30
73
31
0
VERTEX
8
OBJECT__5
10
0
20
0
30
0
70
128
71
8
72
31
73
30
0
VERTEX
8
OBJECT__5
10
0
20
0
30
0
70
128
71
7
72
11
73
6
0
VERTEX
8
OBJECT__5
10
0
20
0
30
0
70
128
71
24
72
17
73
25
0
VERTEX
8
OBJECT__5
10
0
20
0
30
0
70
128
71
19
72
18
73
20
0
VERTEX
8
OBJECT__5
10
0
20
0
30
0
70
128
71
29
72
27
73
26
0
VERTEX
8
OBJECT__5
10
0
20
0
30
0
70
128
71
30
72
9
73
8
0
VERTEX
8
OBJECT__5
10
0
20
0
30
0
70
128
71
25
72
14
73
13
0
VERTEX
8
OBJECT__5
10
0
20
0
30
0
70
128
71
27
72
23
73
22
0
VERTEX
8
OBJECT__5
10
0
20
0
30
0
70
128
71
10
72
12
73
8
0
VERTEX
8
OBJECT__5
10
0
20
0
30
0
70
128
71
31
72
29
73
28
0
VERTEX
8
OBJECT__5
10
0
20
0
30
0
70
128
71
17
72
24
73
15
0
SEQEND
8
OBJECT__5
0
POLYLINE
8
OBJECT__6
66
1
70
64
71
48
72
50
62
253
0
VERTEX
8
OBJECT__6
10
53.983002
20
32.435001
30
10.500000
70
192
0
VERTEX
8
OBJECT__6
10
69.601997
20
36.000000
30
10.500000
70
192
0
VERTEX
8
OBJECT__6
10
69.601997
20
36.000000
30
-10.500000
70
192
0
VERTEX
8
OBJECT__6
10
41.457001
20
22.445999
30
10.500000
70
192
0
VERTEX
8
OBJECT__6
10
53.983002
20
32.435001
30
-10.500000
70
192
0
VERTEX
8
OBJECT__6
10
34.505001
20
8.011000
30
-10.500000
70
192
0
VERTEX
8
OBJECT__6
10
34.505001
20
8.011000
30
10.500000
70
192
0
VERTEX
8
OBJECT__6
10
34.080002
20
5.846000
30
1.350000
70
192
0
VERTEX
8
OBJECT__6
10
33.974998
20
5.162000
30
2.985000
70
192
0
VERTEX
8
OBJECT__6
10
33.960999
20
5.065000
30
3.217000
70
192
0
VERTEX
8
OBJECT__6
10
33.794998
20
3.719000
30
4.709000
70
192
0
VERTEX
8
OBJECT__6
10
34.013000
20
5.423000
30
-2.567000
70
192
0
VERTEX
8
OBJECT__6
10
33.700001
20
2.650000
30
-5.383000
70
192
0
VERTEX
8
OBJECT__6
10
33.976002
20
5.095000
30
-2.900000
70
192
0
VERTEX
8
OBJECT__6
10
34.505001
20
-8.011000
30
-10.500000
70
192
0
VERTEX
8
OBJECT__6
10
33.602001
20
0.000000
30
-6.000000
70
192
0
VERTEX
8
OBJECT__6
10
33.610001
20
0.711000
30
-5.958000
70
192
0
VERTEX
8
OBJECT__6
10
33.794998
20
-3.719000
30
-4.709000
70
192
0
VERTEX
8
OBJECT__6
10
34.080002
20
-5.846000
30
-1.350000
70
192
0
VERTEX
8
OBJECT__6
10
33.974998
20
-5.162000
30
-2.985000
70
192
0
VERTEX
8
OBJECT__6
10
33.960999
20
-5.065000
30
-3.217000
70
192
0
VERTEX
8
OBJECT__6
10
34.505001
20
-8.011000
30
10.500000
70
192
0
VERTEX
8
OBJECT__6
10
34.013000
20
-5.423000
30
2.567000
70
192
0
VERTEX
8
OBJECT__6
10
33.700001
20
-2.650000
30
5.383000
70
192
0
VERTEX
8
OBJECT__6
10
33.976002
20
-5.095000
30
2.900000
70
192
0
VERTEX
8
OBJECT__6
10
33.602001
20
0.000000
30
6.000000
70
192
0
VERTEX
8
OBJECT__6
10
33.610001
20
-0.711000
30
5.958000
70
192
0
VERTEX
8
OBJECT__6
10
41.457001
20
-22.445999
30
-10.500000
70
192
0
VERTEX
8
OBJECT__6
10
41.457001
20
-22.445999
30
10.500000
70
192
0
VERTEX
8
OBJECT__6
10
53.983002
20
-32.435001
30
-10.500000
70
192
0
VERTEX
8
OBJECT__6
10
53.983002
20
-32.435001
30
10.500000
70
192
0
VERTEX
8
OBJECT__6
10
69.601997
20
-36.000000
30
-10.500000
70
192
0
VERTEX
8
OBJECT__6
10
69.601997
20
-36.000000
30
10.500000
70
192
0
VERTEX
8
OBJECT__6
10
85.222000
20
-32.435001
30
-10.500000
70
192
0
VERTEX
8
OBJECT__6
10
85.222000
20
-32.435001
30
10.500000
70
192
0
VERTEX
8
OBJECT__6
10
97.748001
20
-22.445999
30
-10.500000
70
192
0
VERTEX
8
OBJECT__6
10
97.748001
20
-22.445999
30
10.500000
70
192
0
VERTEX
8
OBJECT__6
10
104.699997
20
-8.011000
30
-10.500000
70
192
0
VERTEX
8
OBJECT__6
10
104.699997
20
-8.011000
30
10.500000
70
192
0
VERTEX
8
OBJECT__6
10
105.601997
20
0.000000
30
-10.500000
70
192
0
VERTEX
8
OBJECT__6
10
104.699997
20
8.011000
30
-10.500000
70
192
0
VERTEX
8
OBJECT__6
10
104.699997
20
8.011000
30
10.500000
70
192
0
VERTEX
8
OBJECT__6
10
105.601997
20
0.000000
30
10.500000
70
192
0
VERTEX
8
OBJECT__6
10
97.748001
20
22.445999
30
-10.500000
70
192
0
VERTEX
8
OBJECT__6
10
97.748001
20
22.445999
30
10.500000
70
192
0
VERTEX
8
OBJECT__6
10
85.222000
20
32.435001
30
10.500000
70
192
0
VERTEX
8
OBJECT__6
10
85.222000
20
32.435001
30
-10.500000
70
192
0
VERTEX
8
OBJECT__6
10
41.457001
20
22.445999
30
-10.500000
70
192
0
VERTEX
8
OBJECT__6
10
0
20
0
30
0
70
128
71
1
72
2
73
3
0
VERTEX
8
OBJECT__6
10
0
20
0
30
0
70
128
71
4
72
1
73
5
0
VERTEX
8
OBJECT__6
10
0
20
0
30
0
70
128
71
6
72
7
73
4
0
VERTEX
8
OBJECT__6
10
0
20
0
30
0
70
128
71
7
72
8
73
9
0
VERTEX
8
OBJECT__6
10
0
20
0
30
0
70
128
71
9
72
10
73
7
0
VERTEX
8
OBJECT__6
10
0
20
0
30
0
70
128
71
10
72
11
73
7
0
VERTEX
8
OBJECT__6
10
0
20
0
30
0
70
128
71
6
72
12
73
8
0
VERTEX
8
OBJECT__6
10
0
20
0
30
0
70
128
71
8
72
7
73
6
0
VERTEX
8
OBJECT__6
10
0
20
0
30
0
70
128
71
6
72
13
73
14
0
VERTEX
8
OBJECT__6
10
0
20
0
30
0
70
128
71
6
72
15
73
16
0
VERTEX
8
OBJECT__6
10
0
20
0
30
0
70
128
71
16
72
17
73
6
0
VERTEX
8
OBJECT__6
10
0
20
0
30
0
70
128
71
15
72
18
73
16
0
VERTEX
8
OBJECT__6
10
0
20
0
30
0
70
128
71
15
72
19
73
20
0
VERTEX
8
OBJECT__6
10
0
20
0
30
0
70
128
71
20
72
21
73
15
0
VERTEX
8
OBJECT__6
10
0
20
0
30
0
70
128
71
21
72
18
73
15
0
VERTEX
8
OBJECT__6
10
0
20
0
30
0
70
128
71
22
72
23
73
19
0
VERTEX
8
OBJECT__6
10
0
20
0
30
0
70
128
71
19
72
15
73
22
0
VERTEX
8
OBJECT__6
10
0
20
0
30
0
70
128
71
17
72
13
73
6
0
VERTEX
8
OBJECT__6
10
0
20
0
30
0
70
128
71
22
72
24
73
25
0
VERTEX
8
OBJECT__6
10
0
20
0
30
0
70
128
71
22
72
7
73
26
0
VERTEX
8
OBJECT__6
10
0
20
0
30
0
70
128
71
26
72
27
73
22
0
VERTEX
8
OBJECT__6
10
0
20
0
30
0
70
128
71
27
72
24
73
22
0
VERTEX
8
OBJECT__6
10
0
20
0
30
0
70
128
71
25
72
23
73
22
0
VERTEX
8
OBJECT__6
10
0
20
0
30
0
70
128
71
14
72
12
73
6
0
VERTEX
8
OBJECT__6
10
0
20
0
30
0
70
128
71
28
72
29
73
22
0
VERTEX
8
OBJECT__6
10
0
20
0
30
0
70
128
71
30
72
31
73
29
0
VERTEX
8
OBJECT__6
10
0
20
0
30
0
70
128
71
32
72
33
73
31
0
VERTEX
8
OBJECT__6
10
0
20
0
30
0
70
128
71
34
72
35
73
33
0
VERTEX
8
OBJECT__6
10
0
20
0
30
0
70
128
71
36
72
37
73
35
0
VERTEX
8
OBJECT__6
10
0
20
0
30
0
70
128
71
38
72
39
73
37
0
VERTEX
8
OBJECT__6
10
0
20
0
30
0
70
128
71
40
72
41
73
42
0
VERTEX
8
OBJECT__6
10
0
20
0
30
0
70
128
71
40
72
43
73
39
0
VERTEX
8
OBJECT__6
10
0
20
0
30
0
70
128
71
39
72
38
73
40
0
VERTEX
8
OBJECT__6
10
0
20
0
30
0
70
128
71
44
72
45
73
42
0
VERTEX
8
OBJECT__6
10
0
20
0
30
0
70
128
71
46
72
45
73
44
0
VERTEX
8
OBJECT__6
10
0
20
0
30
0
70
128
71
2
72
46
73
47
0
VERTEX
8
OBJECT__6
10
0
20
0
30
0
70
128
71
47
72
3
73
2
0
VERTEX
8
OBJECT__6
10
0
20
0
30
0
70
128
71
44
72
47
73
46
0
VERTEX
8
OBJECT__6
10
0
20
0
30
0
70
128
71
42
72
41
73
44
0
VERTEX
8
OBJECT__6
10
0
20
0
30
0
70
128
71
42
72
43
73
40
0
VERTEX
8
OBJECT__6
10
0
20
0
30
0
70
128
71
37
72
36
73
38
0
VERTEX
8
OBJECT__6
10
0
20
0
30
0
70
128
71
35
72
34
73
36
0
VERTEX
8
OBJECT__6
10
0
20
0
30
0
70
128
71
33
72
32
73
34
0
VERTEX
8
OBJECT__6
10
0
20
0
30
0
70
128
71
31
72
30
73
32
0
VERTEX
8
OBJECT__6
10
0
20
0
30
0
70
128
71
29
72
28
73
30
0
VERTEX
8
OBJECT__6
10
0
20
0
30
0
70
128
71
22
72
15
73
28
0
VERTEX
8
OBJECT__6
10
0
20
0
30
0
70
128
71
11
72
26
73
7
0
VERTEX
8
OBJECT__6
10
0
20
0
30
0
70
128
71
4
72
48
73
6
0
VERTEX
8
OBJECT__6
10
0
20
0
30
0
70
128
71
5
72
48
73
4
0
VERTEX
8
OBJECT__6
10
0
20
0
30
0
70
128
71
3
72
5
73
1
0
SEQEND
8
OBJECT__6
0
POLYLINE
8
OBJECT__7
66
1
70
64
71
24
72
24
62
253
0
VERTEX
8
OBJECT__7
10
10.602000
20
5.196000
30
3.000000
70
192
0
VERTEX
8
OBJECT__7
10
33.794998
20
3.719000
30
4.709000
70
192
0
VERTEX
8
OBJECT__7
10
33.960999
20
5.065000
30
3.217000
70
192
0
VERTEX
8
OBJECT__7
10
10.602000
20
0.000000
30
6.000000
70
192
0
VERTEX
8
OBJECT__7
10
33.602001
20
0.000000
30
6.000000
70
192
0
VERTEX
8
OBJECT__7
10
10.602000
20
5.196000
30
-3.000000
70
192
0
VERTEX
8
OBJECT__7
10
34.080002
20
5.846000
30
1.350000
70
192
0
VERTEX
8
OBJECT__7
10
34.013000
20
5.423000
30
-2.567000
70
192
0
VERTEX
8
OBJECT__7
10
33.974998
20
5.162000
30
2.985000
70
192
0
VERTEX
8
OBJECT__7
10
10.602000
20
0.000000
30
-6.000000
70
192
0
VERTEX
8
OBJECT__7
10
33.700001
20
2.650000
30
-5.383000
70
192
0
VERTEX
8
OBJECT__7
10
33.610001
20
0.711000
30
-5.958000
70
192
0
VERTEX
8
OBJECT__7
10
33.976002
20
5.095000
30
-2.900000
70
192
0
VERTEX
8
OBJECT__7
10
10.602000
20
-5.196000
30
-3.000000
70
192
0
VERTEX
8
OBJECT__7
10
33.794998
20
-3.719000
30
-4.709000
70
192
0
VERTEX
8
OBJECT__7
10
33.960999
20
-5.065000
30
-3.217000
70
192
0
VERTEX
8
OBJECT__7
10
33.602001
20
0.000000
30
-6.000000
70
192
0
VERTEX
8
OBJECT__7
10
10.602000
20
-5.196000
30
3.000000
70
192
0
VERTEX
8
OBJECT__7
10
34.080002
20
-5.846000
30
-1.350000
70
192
0
VERTEX
8
OBJECT__7
10
34.013000
20
-5.423000
30
2.567000
70
192
0
VERTEX
8
OBJECT__7
10
33.974998
20
-5.162000
30
-2.985000
70
192
0
VERTEX
8
OBJECT__7
10
33.700001
20
-2.650000
30
5.383000
70
192
0
VERTEX
8
OBJECT__7
10
33.610001
20
-0.711000
30
5.958000
70
192
0
VERTEX
8
OBJECT__7
10
33.976002
20
-5.095000
30
2.900000
70
192
0
VERTEX
8
OBJECT__7
10
0
20
0
30
0
70
128
71
1
72
2
73
3
0
VERTEX
8
OBJECT__7
10
0
20
0
30
0
70
128
71
1
72
4
73
5
0
VERTEX
8
OBJECT__7
10
0
20
0
30
0
70
128
71
5
72
2
73
1
0
VERTEX
8
OBJECT__7
10
0
20
0
30
0
70
128
71
6
72
1
73
7
0
VERTEX
8
OBJECT__7
10
0
20
0
30
0
70
128
71
7
72
8
73
6
0
VERTEX
8
OBJECT__7
10
0
20
0
30
0
70
128
71
1
72
9
73
7
0
VERTEX
8
OBJECT__7
10
0
20
0
30
0
70
128
71
10
72
6
73
11
0
VERTEX
8
OBJECT__7
10
0
20
0
30
0
70
128
71
11
72
12
73
10
0
VERTEX
8
OBJECT__7
10
0
20
0
30
0
70
128
71
6
72
13
73
11
0
VERTEX
8
OBJECT__7
10
0
20
0
30
0
70
128
71
14
72
15
73
16
0
VERTEX
8
OBJECT__7
10
0
20
0
30
0
70
128
71
14
72
10
73
17
0
VERTEX
8
OBJECT__7
10
0
20
0
30
0
70
128
71
17
72
15
73
14
0
VERTEX
8
OBJECT__7
10
0
20
0
30
0
70
128
71
18
72
14
73
19
0
VERTEX
8
OBJECT__7
10
0
20
0
30
0
70
128
71
19
72
20
73
18
0
VERTEX
8
OBJECT__7
10
0
20
0
30
0
70
128
71
14
72
21
73
19
0
VERTEX
8
OBJECT__7
10
0
20
0
30
0
70
128
71
4
72
18
73
22
0
VERTEX
8
OBJECT__7
10
0
20
0
30
0
70
128
71
22
72
23
73
4
0
VERTEX
8
OBJECT__7
10
0
20
0
30
0
70
128
71
18
72
24
73
22
0
VERTEX
8
OBJECT__7
10
0
20
0
30
0
70
128
71
23
72
5
73
4
0
VERTEX
8
OBJECT__7
10
0
20
0
30
0
70
128
71
20
72
24
73
18
0
VERTEX
8
OBJECT__7
10
0
20
0
30
0
70
128
71
16
72
21
73
14
0
VERTEX
8
OBJECT__7
10
0
20
0
30
0
70
128
71
12
72
17
73
10
0
VERTEX
8
OBJECT__7
10
0
20
0
30
0
70
128
71
8
72
13
73
6
0
VERTEX
8
OBJECT__7
10
0
20
0
30
0
70
128
71
3
72
9
73
1
0
SEQEND
8
OBJECT__7
0
POLYLINE
8
OBJECT__8
66
1
70
64
71
31
72
31
62
253
0
VERTEX
8
OBJECT__8
10
69.601997
20
36.000000
30
10.500000
70
192
0
VERTEX
8
OBJECT__8
10
53.983002
20
32.435001
30
10.500000
70
192
0
VERTEX
8
OBJECT__8
10
57.356998
20
29.563999
30
10.500000
70
192
0
VERTEX
8
OBJECT__8
10
41.457001
20
22.445999
30
10.500000
70
192
0
VERTEX
8
OBJECT__8
10
46.974998
20
22.627001
30
10.500000
70
192
0
VERTEX
8
OBJECT__8
10
34.505001
20
8.011000
30
10.500000
70
192
0
VERTEX
8
OBJECT__8
10
40.037998
20
12.246000
30
10.500000
70
192
0
VERTEX
8
OBJECT__8
10
34.505001
20
-8.011000
30
10.500000
70
192
0
VERTEX
8
OBJECT__8
10
37.602001
20
0.000000
30
10.500000
70
192
0
VERTEX
8
OBJECT__8
10
41.457001
20
-22.445999
30
10.500000
70
192
0
VERTEX
8
OBJECT__8
10
46.974998
20
-22.627001
30
10.500000
70
192
0
VERTEX
8
OBJECT__8
10
40.037998
20
-12.246000
30
10.500000
70
192
0
VERTEX
8
OBJECT__8
10
69.601997
20
-36.000000
30
10.500000
70
192
0
VERTEX
8
OBJECT__8
10
69.601997
20
-32.000000
30
10.500000
70
192
0
VERTEX
8
OBJECT__8
10
57.356998
20
-29.563999
30
10.500000
70
192
0
VERTEX
8
OBJECT__8
10
85.222000
20
-32.435001
30
10.500000
70
192
0
VERTEX
8
OBJECT__8
10
81.848000
20
-29.563999
30
10.500000
70
192
0
VERTEX
8
OBJECT__8
10
85.222000
20
32.435001
30
10.500000
70
192
0
VERTEX
8
OBJECT__8
10
81.848000
20
29.563999
30
10.500000
70
192
0
VERTEX
8
OBJECT__8
10
92.230003
20
22.627001
30
10.500000
70
192
0
VERTEX
8
OBJECT__8
10
69.601997
20
32.000000
30
10.500000
70
192
0
VERTEX
8
OBJECT__8
10
53.983002
20
-32.435001
30
10.500000
70
192
0
VERTEX
8
OBJECT__8
10
97.748001
20
-22.445999
30
10.500000
70
192
0
VERTEX
8
OBJECT__8
10
92.230003
20
-22.627001
30
10.500000
70
192
0
VERTEX
8
OBJECT__8
10
104.699997
20
-8.011000
30
10.500000
70
192
0
VERTEX
8
OBJECT__8
10
99.167000
20
-12.246000
30
10.500000
70
192
0
VERTEX
8
OBJECT__8
10
101.601997
20
0.000000
30
10.500000
70
192
0
VERTEX
8
OBJECT__8
10
105.601997
20
0.000000
30
10.500000
70
192
0
VERTEX
8
OBJECT__8
10
104.699997
20
8.011000
30
10.500000
70
192
0
VERTEX
8
OBJECT__8
10
97.748001
20
22.445999
30
10.500000
70
192
0
VERTEX
8
OBJECT__8
10
99.167000
20
12.246000
30
10.500000
70
192
0
VERTEX
8
OBJECT__8
10
0
20
0
30
0
70
128
71
1
72
2
73
3
0
VERTEX
8
OBJECT__8
10
0
20
0
30
0
70
128
71
2
72
4
73
5
0
VERTEX
8
OBJECT__8
10
0
20
0
30
0
70
128
71
5
72
3
73
2
0
VERTEX
8
OBJECT__8
10
0
20
0
30
0
70
128
71
4
72
6
73
7
0
VERTEX
8
OBJECT__8
10
0
20
0
30
0
70
128
71
7
72
5
73
4
0
VERTEX
8
OBJECT__8
10
0
20
0
30
0
70
128
71
6
72
8
73
9
0
VERTEX
8
OBJECT__8
10
0
20
0
30
0
70
128
71
10
72
11
73
12
0
VERTEX
8
OBJECT__8
10
0
20
0
30
0
70
128
71
13
72
14
73
15
0
VERTEX
8
OBJECT__8
10
0
20
0
30
0
70
128
71
13
72
16
73
17
0
VERTEX
8
OBJECT__8
10
0
20
0
30
0
70
128
71
18
72
19
73
20
0
VERTEX
8
OBJECT__8
10
0
20
0
30
0
70
128
71
1
72
21
73
19
0
VERTEX
8
OBJECT__8
10
0
20
0
30
0
70
128
71
9
72
7
73
6
0
VERTEX
8
OBJECT__8
10
0
20
0
30
0
70
128
71
12
72
8
73
10
0
VERTEX
8
OBJECT__8
10
0
20
0
30
0
70
128
71
22
72
15
73
11
0
VERTEX
8
OBJECT__8
10
0
20
0
30
0
70
128
71
17
72
14
73
13
0
VERTEX
8
OBJECT__8
10
0
20
0
30
0
70
128
71
19
72
18
73
1
0
VERTEX
8
OBJECT__8
10
0
20
0
30
0
70
128
71
12
72
9
73
8
0
VERTEX
8
OBJECT__8
10
0
20
0
30
0
70
128
71
15
72
22
73
13
0
VERTEX
8
OBJECT__8
10
0
20
0
30
0
70
128
71
16
72
23
73
24
0
VERTEX
8
OBJECT__8
10
0
20
0
30
0
70
128
71
3
72
21
73
1
0
VERTEX
8
OBJECT__8
10
0
20
0
30
0
70
128
71
24
72
17
73
16
0
VERTEX
8
OBJECT__8
10
0
20
0
30
0
70
128
71
23
72
25
73
26
0
VERTEX
8
OBJECT__8
10
0
20
0
30
0
70
128
71
27
72
26
73
25
0
VERTEX
8
OBJECT__8
10
0
20
0
30
0
70
128
71
27
72
28
73
29
0
VERTEX
8
OBJECT__8
10
0
20
0
30
0
70
128
71
30
72
20
73
31
0
VERTEX
8
OBJECT__8
10
0
20
0
30
0
70
128
71
11
72
10
73
22
0
VERTEX
8
OBJECT__8
10
0
20
0
30
0
70
128
71
25
72
28
73
27
0
VERTEX
8
OBJECT__8
10
0
20
0
30
0
70
128
71
31
72
29
73
30
0
VERTEX
8
OBJECT__8
10
0
20
0
30
0
70
128
71
26
72
24
73
23
0
VERTEX
8
OBJECT__8
10
0
20
0
30
0
70
128
71
20
72
30
73
18
0
VERTEX
8
OBJECT__8
10
0
20
0
30
0
70
128
71
29
72
31
73
27
0
SEQEND
8
OBJECT__8
0
POLYLINE
8
OBJECT__9
66
1
70
64
71
22
72
20
62
253
0
VERTEX
8
OBJECT__9
10
10.000000
20
-24.851999
30
10.553000
70
192
0
VERTEX
8
OBJECT__9
10
10.000000
20
-7.244000
30
26.010000
70
192
0
VERTEX
8
OBJECT__9
10
10.000000
20
-14.589000
30
22.719000
70
192
0
VERTEX
8
OBJECT__9
10
10.000000
20
-4.758000
30
-26.577000
70
192
0
VERTEX
8
OBJECT__9
10
10.000000
20
3.287000
30
-26.799000
70
192
0
VERTEX
8
OBJECT__9
10
10.000000
20
11.040000
30
-24.639999
70
192
0
VERTEX
8
OBJECT__9
10
10.000000
20
17.812000
30
-20.291000
70
192
0
VERTEX
8
OBJECT__9
10
10.000000
20
-26.479000
30
-5.280000
70
192
0
VERTEX
8
OBJECT__9
10
10.000000
20
-23.746000
30
-12.851000
70
192
0
VERTEX
8
OBJECT__9
10
10.000000
20
-20.638000
30
17.410000
70
192
0
VERTEX
8
OBJECT__9
10
10.000000
20
-26.858999
30
2.759000
70
192
0
VERTEX
8
OBJECT__9
10
10.000000
20
8.666000
30
25.570999
70
192
0
VERTEX
8
OBJECT__9
10
10.000000
20
0.744000
30
26.990000
70
192
0
VERTEX
8
OBJECT__9
10
10.000000
20
23.002001
30
-14.139000
70
192
0
VERTEX
8
OBJECT__9
10
10.000000
20
-12.381000
30
-23.993999
70
192
0
VERTEX
8
OBJECT__9
10
10.000000
20
-18.903000
30
-19.278999
70
192
0
VERTEX
8
OBJECT__9
10
10.000000
20
21.565001
30
16.246000
70
192
0
VERTEX
8
OBJECT__9
10
10.000000
20
15.819000
30
21.881001
70
192
0
VERTEX
8
OBJECT__9
10
10.000000
20
26.146999
30
-6.731000
70
192
0
VERTEX
8
OBJECT__9
10
10.000000
20
26.969999
30
1.275000
70
192
0
VERTEX
8
OBJECT__9
10
10.000000
20
25.396000
30
9.168000
70
192
0
VERTEX
8
OBJECT__9
10
10.000000
20
-26.990000
30
0.744000
70
192
0
VERTEX
8
OBJECT__9
10
0
20
0
30
0
70
128
71
1
72
2
73
3
0
VERTEX
8
OBJECT__9
10
0
20
0
30
0
70
128
71
4
72
5
73
6
0
VERTEX
8
OBJECT__9
10
0
20
0
30
0
70
128
71
7
72
8
73
9
0
VERTEX
8
OBJECT__9
10
0
20
0
30
0
70
128
71
3
72
10
73
1
0
VERTEX
8
OBJECT__9
10
0
20
0
30
0
70
128
71
11
72
12
73
13
0
VERTEX
8
OBJECT__9
10
0
20
0
30
0
70
128
71
8
72
7
73
14
0
VERTEX
8
OBJECT__9
10
0
20
0
30
0
70
128
71
7
72
15
73
4
0
VERTEX
8
OBJECT__9
10
0
20
0
30
0
70
128
71
9
72
16
73
7
0
VERTEX
8
OBJECT__9
10
0
20
0
30
0
70
128
71
13
72
2
73
11
0
VERTEX
8
OBJECT__9
10
0
20
0
30
0
70
128
71
11
72
17
73
18
0
VERTEX
8
OBJECT__9
10
0
20
0
30
0
70
128
71
14
72
19
73
8
0
VERTEX
8
OBJECT__9
10
0
20
0
30
0
70
128
71
16
72
15
73
7
0
VERTEX
8
OBJECT__9
10
0
20
0
30
0
70
128
71
18
72
12
73
11
0
VERTEX
8
OBJECT__9
10
0
20
0
30
0
70
128
71
11
72
20
73
21
0
VERTEX
8
OBJECT__9
10
0
20
0
30
0
70
128
71
6
72
7
73
4
0
VERTEX
8
OBJECT__9
10
0
20
0
30
0
70
128
71
21
72
17
73
11
0
VERTEX
8
OBJECT__9
10
0
20
0
30
0
70
128
71
20
72
22
73
8
0
VERTEX
8
OBJECT__9
10
0
20
0
30
0
70
128
71
1
72
11
73
2
0
VERTEX
8
OBJECT__9
10
0
20
0
30
0
70
128
71
11
72
22
73
20
0
VERTEX
8
OBJECT__9
10
0
20
0
30
0
70
128
71
19
72
20
73
8
0
SEQEND
8
OBJECT__9
0
POLYLINE
8
OBJECT__10
66
1
70
64
71
44
72
44
62
253
0
VERTEX
8
OBJECT__10
10
0.000000
20
-7.244000
30
26.010000
70
192
0
VERTEX
8
OBJECT__10
10
10.000000
20
-7.244000
30
26.010000
70
192
0
VERTEX
8
OBJECT__10
10
10.000000
20
0.744000
30
26.990000
70
192
0
VERTEX
8
OBJECT__10
10
10.000000
20
-14.589000
30
22.719000
70
192
0
VERTEX
8
OBJECT__10
10
10.000000
20
-20.638000
30
17.410000
70
192
0
VERTEX
8
OBJECT__10
10
0.000000
20
-14.589000
30
22.719000
70
192
0
VERTEX
8
OBJECT__10
10
0.000000
20
-20.638000
30
17.410000
70
192
0
VERTEX
8
OBJECT__10
10
0.000000
20
-24.851999
30
10.553000
70
192
0
VERTEX
8
OBJECT__10
10
10.000000
20
-24.851999
30
10.553000
70
192
0
VERTEX
8
OBJECT__10
10
10.000000
20
-26.858999
30
2.759000
70
192
0
VERTEX
8
OBJECT__10
10
0.000000
20
-26.479000
30
-5.280000
70
192
0
VERTEX
8
OBJECT__10
10
10.000000
20
-26.479000
30
-5.280000
70
192
0
VERTEX
8
OBJECT__10
10
10.000000
20
-26.990000
30
0.744000
70
192
0
VERTEX
8
OBJECT__10
10
0.000000
20
-26.858999
30
2.759000
70
192
0
VERTEX
8
OBJECT__10
10
0.000000
20
-26.990000
30
0.744000
70
192
0
VERTEX
8
OBJECT__10
10
10.000000
20
-23.746000
30
-12.851000
70
192
0
VERTEX
8
OBJECT__10
10
0.000000
20
-23.746000
30
-12.851000
70
192
0
VERTEX
8
OBJECT__10
10
0.000000
20
-18.903000
30
-19.278999
70
192
0
VERTEX
8
OBJECT__10
10
10.000000
20
-18.903000
30
-19.278999
70
192
0
VERTEX
8
OBJECT__10
10
10.000000
20
-12.381000
30
-23.993999
70
192
0
VERTEX
8
OBJECT__10
10
10.000000
20
-4.758000
30
-26.577000
70
192
0
VERTEX
8
OBJECT__10
10
0.000000
20
-12.381000
30
-23.993999
70
192
0
VERTEX
8
OBJECT__10
10
0.000000
20
3.287000
30
-26.799000
70
192
0
VERTEX
8
OBJECT__10
10
10.000000
20
3.287000
30
-26.799000
70
192
0
VERTEX
8
OBJECT__10
10
0.000000
20
11.040000
30
-24.639999
70
192
0
VERTEX
8
OBJECT__10
10
10.000000
20
11.040000
30
-24.639999
70
192
0
VERTEX
8
OBJECT__10
10
0.000000
20
17.812000
30
-20.291000
70
192
0
VERTEX
8
OBJECT__10
10
0.000000
20
23.002001
30
-14.139000
70
192
0
VERTEX
8
OBJECT__10
10
10.000000
20
23.002001
30
-14.139000
70
192
0
VERTEX
8
OBJECT__10
10
10.000000
20
17.812000
30
-20.291000
70
192
0
VERTEX
8
OBJECT__10
10
0.000000
20
26.146999
30
-6.731000
70
192
0
VERTEX
8
OBJECT__10
10
10.000000
20
26.146999
30
-6.731000
70
192
0
VERTEX
8
OBJECT__10
10
0.000000
20
26.969999
30
1.275000
70
192
0
VERTEX
8
OBJECT__10
10
10.000000
20
26.969999
30
1.275000
70
192
0
VERTEX
8
OBJECT__10
10
0.000000
20
25.396000
30
9.168000
70
192
0
VERTEX
8
OBJECT__10
10
10.000000
20
25.396000
30
9.168000
70
192
0
VERTEX
8
OBJECT__10
10
0.000000
20
21.565001
30
16.246000
70
192
0
VERTEX
8
OBJECT__10
10
10.000000
20
21.565001
30
16.246000
70
192
0
VERTEX
8
OBJECT__10
10
0.000000
20
15.819000
30
21.881001
70
192
0
VERTEX
8
OBJECT__10
10
0.000000
20
8.666000
30
25.570999
70
192
0
VERTEX
8
OBJECT__10
10
10.000000
20
8.666000
30
25.570999
70
192
0
VERTEX
8
OBJECT__10
10
10.000000
20
15.819000
30
21.881001
70
192
0
VERTEX
8
OBJECT__10
10
0.000000
20
0.744000
30
26.990000
70
192
0
VERTEX
8
OBJECT__10
10
0.000000
20
-4.758000
30
-26.577000
70
192
0
VERTEX
8
OBJECT__10
10
0
20
0
30
0
70
128
71
1
72
2
73
3
0
VERTEX
8
OBJECT__10
10
0
20
0
30
0
70
128
71
4
72
2
73
1
0
VERTEX
8
OBJECT__10
10
0
20
0
30
0
70
128
71
5
72
4
73
6
0
VERTEX
8
OBJECT__10
10
0
20
0
30
0
70
128
71
7
72
8
73
9
0
VERTEX
8
OBJECT__10
10
0
20
0
30
0
70
128
71
10
72
9
73
8
0
VERTEX
8
OBJECT__10
10
0
20
0
30
0
70
128
71
11
72
12
73
13
0
VERTEX
8
OBJECT__10
10
0
20
0
30
0
70
128
71
10
72
14
73
15
0
VERTEX
8
OBJECT__10
10
0
20
0
30
0
70
128
71
15
72
13
73
10
0
VERTEX
8
OBJECT__10
10
0
20
0
30
0
70
128
71
16
72
12
73
11
0
VERTEX
8
OBJECT__10
10
0
20
0
30
0
70
128
71
17
72
18
73
19
0
VERTEX
8
OBJECT__10
10
0
20
0
30
0
70
128
71
20
72
19
73
18
0
VERTEX
8
OBJECT__10
10
0
20
0
30
0
70
128
71
21
72
20
73
22
0
VERTEX
8
OBJECT__10
10
0
20
0
30
0
70
128
71
23
72
24
73
21
0
VERTEX
8
OBJECT__10
10
0
20
0
30
0
70
128
71
25
72
26
73
24
0
VERTEX
8
OBJECT__10
10
0
20
0
30
0
70
128
71
26
72
25
73
27
0
VERTEX
8
OBJECT__10
10
0
20
0
30
0
70
128
71
28
72
29
73
30
0
VERTEX
8
OBJECT__10
10
0
20
0
30
0
70
128
71
31
72
32
73
29
0
VERTEX
8
OBJECT__10
10
0
20
0
30
0
70
128
71
33
72
34
73
32
0
VERTEX
8
OBJECT__10
10
0
20
0
30
0
70
128
71
35
72
36
73
34
0
VERTEX
8
OBJECT__10
10
0
20
0
30
0
70
128
71
37
72
38
73
36
0
VERTEX
8
OBJECT__10
10
0
20
0
30
0
70
128
71
38
72
37
73
39
0
VERTEX
8
OBJECT__10
10
0
20
0
30
0
70
128
71
40
72
41
73
42
0
VERTEX
8
OBJECT__10
10
0
20
0
30
0
70
128
71
43
72
3
73
41
0
VERTEX
8
OBJECT__10
10
0
20
0
30
0
70
128
71
41
72
40
73
43
0
VERTEX
8
OBJECT__10
10
0
20
0
30
0
70
128
71
42
72
39
73
40
0
VERTEX
8
OBJECT__10
10
0
20
0
30
0
70
128
71
39
72
42
73
38
0
VERTEX
8
OBJECT__10
10
0
20
0
30
0
70
128
71
36
72
35
73
37
0
VERTEX
8
OBJECT__10
10
0
20
0
30
0
70
128
71
34
72
33
73
35
0
VERTEX
8
OBJECT__10
10
0
20
0
30
0
70
128
71
32
72
31
73
33
0
VERTEX
8
OBJECT__10
10
0
20
0
30
0
70
128
71
29
72
28
73
31
0
VERTEX
8
OBJECT__10
10
0
20
0
30
0
70
128
71
30
72
27
73
28
0
VERTEX
8
OBJECT__10
10
0
20
0
30
0
70
128
71
27
72
30
73
26
0
VERTEX
8
OBJECT__10
10
0
20
0
30
0
70
128
71
24
72
23
73
25
0
VERTEX
8
OBJECT__10
10
0
20
0
30
0
70
128
71
21
72
44
73
23
0
VERTEX
8
OBJECT__10
10
0
20
0
30
0
70
128
71
22
72
44
73
21
0
VERTEX
8
OBJECT__10
10
0
20
0
30
0
70
128
71
18
72
22
73
20
0
VERTEX
8
OBJECT__10
10
0
20
0
30
0
70
128
71
19
72
16
73
17
0
VERTEX
8
OBJECT__10
10
0
20
0
30
0
70
128
71
11
72
17
73
16
0
VERTEX
8
OBJECT__10
10
0
20
0
30
0
70
128
71
13
72
15
73
11
0
VERTEX
8
OBJECT__10
10
0
20
0
30
0
70
128
71
8
72
14
73
10
0
VERTEX
8
OBJECT__10
10
0
20
0
30
0
70
128
71
9
72
5
73
7
0
VERTEX
8
OBJECT__10
10
0
20
0
30
0
70
128
71
6
72
7
73
5
0
VERTEX
8
OBJECT__10
10
0
20
0
30
0
70
128
71
1
72
6
73
4
0
VERTEX
8
OBJECT__10
10
0
20
0
30
0
70
128
71
3
72
43
73
1
0
SEQEND
8
OBJECT__10
0
POLYLINE
8
OBJECT__12
66
1
70
64
71
22
72
20
62
253
0
VERTEX
8
OBJECT__12
10
0.000000
20
-24.851999
30
10.553000
70
192
0
VERTEX
8
OBJECT__12
10
0.000000
20
-7.244000
30
26.010000
70
192
0
VERTEX
8
OBJECT__12
10
0.000000
20
0.744000
30
26.990000
70
192
0
VERTEX
8
OBJECT__12
10
0.000000
20
-20.638000
30
17.410000
70
192
0
VERTEX
8
OBJECT__12
10
0.000000
20
-14.589000
30
22.719000
70
192
0
VERTEX
8
OBJECT__12
10
0.000000
20
-26.479000
30
-5.280000
70
192
0
VERTEX
8
OBJECT__12
10
0.000000
20
-12.381000
30
-23.993999
70
192
0
VERTEX
8
OBJECT__12
10
0.000000
20
-18.903000
30
-19.278999
70
192
0
VERTEX
8
OBJECT__12
10
0.000000
20
11.040000
30
-24.639999
70
192
0
VERTEX
8
OBJECT__12
10
0.000000
20
3.287000
30
-26.799000
70
192
0
VERTEX
8
OBJECT__12
10
0.000000
20
-4.758000
30
-26.577000
70
192
0
VERTEX
8
OBJECT__12
10
0.000000
20
17.812000
30
-20.291000
70
192
0
VERTEX
8
OBJECT__12
10
0.000000
20
-26.858999
30
2.759000
70
192
0
VERTEX
8
OBJECT__12
10
0.000000
20
8.666000
30
25.570999
70
192
0
VERTEX
8
OBJECT__12
10
0.000000
20
15.819000
30
21.881001
70
192
0
VERTEX
8
OBJECT__12
10
0.000000
20
26.146999
30
-6.731000
70
192
0
VERTEX
8
OBJECT__12
10
0.000000
20
23.002001
30
-14.139000
70
192
0
VERTEX
8
OBJECT__12
10
0.000000
20
21.565001
30
16.246000
70
192
0
VERTEX
8
OBJECT__12
10
0.000000
20
25.396000
30
9.168000
70
192
0
VERTEX
8
OBJECT__12
10
0.000000
20
26.969999
30
1.275000
70
192
0
VERTEX
8
OBJECT__12
10
0.000000
20
-26.990000
30
0.744000
70
192
0
VERTEX
8
OBJECT__12
10
0.000000
20
-23.746000
30
-12.851000
70
192
0
VERTEX
8
OBJECT__12
10
0
20
0
30
0
70
128
71
1
72
2
73
3
0
VERTEX
8
OBJECT__12
10
0
20
0
30
0
70
128
71
1
72
4
73
5
0
VERTEX
8
OBJECT__12
10
0
20
0
30
0
70
128
71
6
72
7
73
8
0
VERTEX
8
OBJECT__12
10
0
20
0
30
0
70
128
71
6
72
9
73
10
0
VERTEX
8
OBJECT__12
10
0
20
0
30
0
70
128
71
5
72
2
73
1
0
VERTEX
8
OBJECT__12
10
0
20
0
30
0
70
128
71
6
72
11
73
7
0
VERTEX
8
OBJECT__12
10
0
20
0
30
0
70
128
71
6
72
12
73
9
0
VERTEX
8
OBJECT__12
10
0
20
0
30
0
70
128
71
13
72
14
73
15
0
VERTEX
8
OBJECT__12
10
0
20
0
30
0
70
128
71
14
72
13
73
1
0
VERTEX
8
OBJECT__12
10
0
20
0
30
0
70
128
71
10
72
11
73
6
0
VERTEX
8
OBJECT__12
10
0
20
0
30
0
70
128
71
6
72
16
73
17
0
VERTEX
8
OBJECT__12
10
0
20
0
30
0
70
128
71
13
72
18
73
19
0
VERTEX
8
OBJECT__12
10
0
20
0
30
0
70
128
71
3
72
14
73
1
0
VERTEX
8
OBJECT__12
10
0
20
0
30
0
70
128
71
17
72
12
73
6
0
VERTEX
8
OBJECT__12
10
0
20
0
30
0
70
128
71
15
72
18
73
13
0
VERTEX
8
OBJECT__12
10
0
20
0
30
0
70
128
71
6
72
20
73
16
0
VERTEX
8
OBJECT__12
10
0
20
0
30
0
70
128
71
20
72
21
73
13
0
VERTEX
8
OBJECT__12
10
0
20
0
30
0
70
128
71
8
72
22
73
6
0
VERTEX
8
OBJECT__12
10
0
20
0
30
0
70
128
71
6
72
21
73
20
0
VERTEX
8
OBJECT__12
10
0
20
0
30
0
70
128
71
19
72
20
73
13
0
SEQEND
8
OBJECT__12
0
POLYLINE
8
OBJECT__13
66
1
70
64
71
26
72
24
62
253
0
VERTEX
8
OBJECT__13
10
36.761002
20
8.800000
30
-10.524000
70
192
0
VERTEX
8
OBJECT__13
10
36.761002
20
8.800000
30
-11.474000
70
192
0
VERTEX
8
OBJECT__13
10
35.602001
20
0.000000
30
-11.474000
70
192
0
VERTEX
8
OBJECT__13
10
40.158001
20
17.000000
30
-10.524000
70
192
0
VERTEX
8
OBJECT__13
10
40.158001
20
17.000000
30
-11.474000
70
192
0
VERTEX
8
OBJECT__13
10
45.561001
20
24.042000
30
-10.524000
70
192
0
VERTEX
8
OBJECT__13
10
45.561001
20
24.042000
30
-11.474000
70
192
0
VERTEX
8
OBJECT__13
10
52.602001
20
29.445000
30
-11.474000
70
192
0
VERTEX
8
OBJECT__13
10
60.803001
20
32.841000
30
-10.524000
70
192
0
VERTEX
8
OBJECT__13
10
60.803001
20
32.841000
30
-11.474000
70
192
0
VERTEX
8
OBJECT__13
10
69.601997
20
34.000000
30
-11.474000
70
192
0
VERTEX
8
OBJECT__13
10
78.402000
20
32.841000
30
-11.474000
70
192
0
VERTEX
8
OBJECT__13
10
69.601997
20
34.000000
30
-10.524000
70
192
0
VERTEX
8
OBJECT__13
10
86.601997
20
29.445000
30
-10.524000
70
192
0
VERTEX
8
OBJECT__13
10
86.601997
20
29.445000
30
-11.474000
70
192
0
VERTEX
8
OBJECT__13
10
93.643997
20
24.042000
30
-11.474000
70
192
0
VERTEX
8
OBJECT__13
10
99.046997
20
17.000000
30
-10.524000
70
192
0
VERTEX
8
OBJECT__13
10
99.046997
20
17.000000
30
-11.474000
70
192
0
VERTEX
8
OBJECT__13
10
102.444000
20
8.800000
30
-10.524000
70
192
0
VERTEX
8
OBJECT__13
10
102.444000
20
8.800000
30
-11.474000
70
192
0
VERTEX
8
OBJECT__13
10
103.601997
20
0.000000
30
-10.524000
70
192
0
VERTEX
8
OBJECT__13
10
103.601997
20
0.000000
30
-11.474000
70
192
0
VERTEX
8
OBJECT__13
10
93.643997
20
24.042000
30
-10.524000
70
192
0
VERTEX
8
OBJECT__13
10
78.402000
20
32.841000
30
-10.524000
70
192
0
VERTEX
8
OBJECT__13
10
52.602001
20
29.445000
30
-10.524000
70
192
0
VERTEX
8
OBJECT__13
10
35.602001
20
0.000000
30
-10.524000
70
192
0
VERTEX
8
OBJECT__13
10
0
20
0
30
0
70
128
71
1
72
2
73
3
0
VERTEX
8
OBJECT__13
10
0
20
0
30
0
70
128
71
4
72
5
73
2
0
VERTEX
8
OBJECT__13
10
0
20
0
30
0
70
128
71
6
72
7
73
5
0
VERTEX
8
OBJECT__13
10
0
20
0
30
0
70
128
71
8
72
7
73
6
0
VERTEX
8
OBJECT__13
10
0
20
0
30
0
70
128
71
9
72
10
73
8
0
VERTEX
8
OBJECT__13
10
0
20
0
30
0
70
128
71
11
72
10
73
9
0
VERTEX
8
OBJECT__13
10
0
20
0
30
0
70
128
71
12
72
11
73
13
0
VERTEX
8
OBJECT__13
10
0
20
0
30
0
70
128
71
14
72
15
73
12
0
VERTEX
8
OBJECT__13
10
0
20
0
30
0
70
128
71
16
72
15
73
14
0
VERTEX
8
OBJECT__13
10
0
20
0
30
0
70
128
71
17
72
18
73
16
0
VERTEX
8
OBJECT__13
10
0
20
0
30
0
70
128
71
19
72
20
73
18
0
VERTEX
8
OBJECT__13
10
0
20
0
30
0
70
128
71
21
72
22
73
20
0
VERTEX
8
OBJECT__13
10
0
20
0
30
0
70
128
71
20
72
19
73
21
0
VERTEX
8
OBJECT__13
10
0
20
0
30
0
70
128
71
18
72
17
73
19
0
VERTEX
8
OBJECT__13
10
0
20
0
30
0
70
128
71
16
72
23
73
17
0
VERTEX
8
OBJECT__13
10
0
20
0
30
0
70
128
71
14
72
23
73
16
0
VERTEX
8
OBJECT__13
10
0
20
0
30
0
70
128
71
12
72
24
73
14
0
VERTEX
8
OBJECT__13
10
0
20
0
30
0
70
128
71
13
72
24
73
12
0
VERTEX
8
OBJECT__13
10
0
20
0
30
0
70
128
71
9
72
13
73
11
0
VERTEX
8
OBJECT__13
10
0
20
0
30
0
70
128
71
8
72
25
73
9
0
VERTEX
8
OBJECT__13
10
0
20
0
30
0
70
128
71
6
72
25
73
8
0
VERTEX
8
OBJECT__13
10
0
20
0
30
0
70
128
71
5
72
4
73
6
0
VERTEX
8
OBJECT__13
10
0
20
0
30
0
70
128
71
2
72
1
73
4
0
VERTEX
8
OBJECT__13
10
0
20
0
30
0
70
128
71
3
72
26
73
1
0
SEQEND
8
OBJECT__13
0
POLYLINE
8
OBJECT__14
66
1
70
64
71
26
72
24
62
253
0
VERTEX
8
OBJECT__14
10
102.444000
20
-8.800000
30
-10.524000
70
192
0
VERTEX
8
OBJECT__14
10
102.444000
20
-8.800000
30
-11.474000
70
192
0
VERTEX
8
OBJECT__14
10
103.601997
20
0.000000
30
-11.474000
70
192
0
VERTEX
8
OBJECT__14
10
99.046997
20
-17.000000
30
-10.524000
70
192
0
VERTEX
8
OBJECT__14
10
99.046997
20
-17.000000
30
-11.474000
70
192
0
VERTEX
8
OBJECT__14
10
93.643997
20
-24.042000
30
-10.524000
70
192
0
VERTEX
8
OBJECT__14
10
93.643997
20
-24.042000
30
-11.474000
70
192
0
VERTEX
8
OBJECT__14
10
86.601997
20
-29.445000
30
-10.524000
70
192
0
VERTEX
8
OBJECT__14
10
86.601997
20
-29.445000
30
-11.474000
70
192
0
VERTEX
8
OBJECT__14
10
78.402000
20
-32.841000
30
-10.524000
70
192
0
VERTEX
8
OBJECT__14
10
78.402000
20
-32.841000
30
-11.474000
70
192
0
VERTEX
8
OBJECT__14
10
69.601997
20
-34.000000
30
-10.524000
70
192
0
VERTEX
8
OBJECT__14
10
69.601997
20
-34.000000
30
-11.474000
70
192
0
VERTEX
8
OBJECT__14
10
60.803001
20
-32.841000
30
-10.524000
70
192
0
VERTEX
8
OBJECT__14
10
60.803001
20
-32.841000
30
-11.474000
70
192
0
VERTEX
8
OBJECT__14
10
52.602001
20
-29.445000
30
-10.524000
70
192
0
VERTEX
8
OBJECT__14
10
52.602001
20
-29.445000
30
-11.474000
70
192
0
VERTEX
8
OBJECT__14
10
45.561001
20
-24.042000
30
-10.524000
70
192
0
VERTEX
8
OBJECT__14
10
45.561001
20
-24.042000
30
-11.474000
70
192
0
VERTEX
8
OBJECT__14
10
40.158001
20
-17.000000
30
-10.524000
70
192
0
VERTEX
8
OBJECT__14
10
40.158001
20
-17.000000
30
-11.474000
70
192
0
VERTEX
8
OBJECT__14
10
36.761002
20
-8.800000
30
-10.524000
70
192
0
VERTEX
8
OBJECT__14
10
36.761002
20
-8.800000
30
-11.474000
70
192
0
VERTEX
8
OBJECT__14
10
35.602001
20
0.000000
30
-10.524000
70
192
0
VERTEX
8
OBJECT__14
10
35.602001
20
0.000000
30
-11.474000
70
192
0
VERTEX
8
OBJECT__14
10
103.601997
20
0.000000
30
-10.524000
70
192
0
VERTEX
8
OBJECT__14
10
0
20
0
30
0
70
128
71
1
72
2
73
3
0
VERTEX
8
OBJECT__14
10
0
20
0
30
0
70
128
71
4
72
5
73
2
0
VERTEX
8
OBJECT__14
10
0
20
0
30
0
70
128
71
6
72
7
73
5
0
VERTEX
8
OBJECT__14
10
0
20
0
30
0
70
128
71
8
72
9
73
7
0
VERTEX
8
OBJECT__14
10
0
20
0
30
0
70
128
71
10
72
11
73
9
0
VERTEX
8
OBJECT__14
10
0
20
0
30
0
70
128
71
12
72
13
73
11
0
VERTEX
8
OBJECT__14
10
0
20
0
30
0
70
128
71
14
72
15
73
13
0
VERTEX
8
OBJECT__14
10
0
20
0
30
0
70
128
71
16
72
17
73
15
0
VERTEX
8
OBJECT__14
10
0
20
0
30
0
70
128
71
18
72
19
73
17
0
VERTEX
8
OBJECT__14
10
0
20
0
30
0
70
128
71
20
72
21
73
19
0
VERTEX
8
OBJECT__14
10
0
20
0
30
0
70
128
71
22
72
23
73
21
0
VERTEX
8
OBJECT__14
10
0
20
0
30
0
70
128
71
24
72
25
73
23
0
VERTEX
8
OBJECT__14
10
0
20
0
30
0
70
128
71
23
72
22
73
24
0
VERTEX
8
OBJECT__14
10
0
20
0
30
0
70
128
71
21
72
20
73
22
0
VERTEX
8
OBJECT__14
10
0
20
0
30
0
70
128
71
19
72
18
73
20
0
VERTEX
8
OBJECT__14
10
0
20
0
30
0
70
128
71
17
72
16
73
18
0
VERTEX
8
OBJECT__14
10
0
20
0
30
0
70
128
71
15
72
14
73
16
0
VERTEX
8
OBJECT__14
10
0
20
0
30
0
70
128
71
13
72
12
73
14
0
VERTEX
8
OBJECT__14
10
0
20
0
30
0
70
128
71
11
72
10
73
12
0
VERTEX
8
OBJECT__14
10
0
20
0
30
0
70
128
71
9
72
8
73
10
0
VERTEX
8
OBJECT__14
10
0
20
0
30
0
70
128
71
7
72
6
73
8
0
VERTEX
8
OBJECT__14
10
0
20
0
30
0
70
128
71
5
72
4
73
6
0
VERTEX
8
OBJECT__14
10
0
20
0
30
0
70
128
71
2
72
1
73
4
0
VERTEX
8
OBJECT__14
10
0
20
0
30
0
70
128
71
3
72
26
73
1
0
SEQEND
8
OBJECT__14
0
POLYLINE
8
OBJECT__16
66
1
70
64
71
48
72
48
62
253
0
VERTEX
8
OBJECT__16
10
60.803001
20
32.841000
30
-11.474000
70
192
0
VERTEX
8
OBJECT__16
10
61.578999
20
29.944000
30
-11.474000
70
192
0
VERTEX
8
OBJECT__16
10
54.102001
20
26.847000
30
-11.474000
70
192
0
VERTEX
8
OBJECT__16
10
69.601997
20
34.000000
30
-11.474000
70
192
0
VERTEX
8
OBJECT__16
10
69.601997
20
31.000000
30
-11.474000
70
192
0
VERTEX
8
OBJECT__16
10
52.602001
20
29.445000
30
-11.474000
70
192
0
VERTEX
8
OBJECT__16
10
47.681999
20
21.920000
30
-11.474000
70
192
0
VERTEX
8
OBJECT__16
10
78.402000
20
32.841000
30
-11.474000
70
192
0
VERTEX
8
OBJECT__16
10
77.625999
20
29.944000
30
-11.474000
70
192
0
VERTEX
8
OBJECT__16
10
40.158001
20
17.000000
30
-11.474000
70
192
0
VERTEX
8
OBJECT__16
10
45.561001
20
24.042000
30
-11.474000
70
192
0
VERTEX
8
OBJECT__16
10
86.601997
20
29.445000
30
-11.474000
70
192
0
VERTEX
8
OBJECT__16
10
85.101997
20
26.847000
30
-11.474000
70
192
0
VERTEX
8
OBJECT__16
10
93.643997
20
24.042000
30
-11.474000
70
192
0
VERTEX
8
OBJECT__16
10
91.523003
20
21.920000
30
-11.474000
70
192
0
VERTEX
8
OBJECT__16
10
93.643997
20
-24.042000
30
-11.474000
70
192
0
VERTEX
8
OBJECT__16
10
86.601997
20
-29.445000
30
-11.474000
70
192
0
VERTEX
8
OBJECT__16
10
85.101997
20
-26.847000
30
-11.474000
70
192
0
VERTEX
8
OBJECT__16
10
78.402000
20
-32.841000
30
-11.474000
70
192
0
VERTEX
8
OBJECT__16
10
77.625999
20
-29.944000
30
-11.474000
70
192
0
VERTEX
8
OBJECT__16
10
52.602001
20
-29.445000
30
-11.474000
70
192
0
VERTEX
8
OBJECT__16
10
54.102001
20
-26.847000
30
-11.474000
70
192
0
VERTEX
8
OBJECT__16
10
61.578999
20
-29.944000
30
-11.474000
70
192
0
VERTEX
8
OBJECT__16
10
45.561001
20
-24.042000
30
-11.474000
70
192
0
VERTEX
8
OBJECT__16
10
47.681999
20
-21.920000
30
-11.474000
70
192
0
VERTEX
8
OBJECT__16
10
36.761002
20
8.800000
30
-11.474000
70
192
0
VERTEX
8
OBJECT__16
10
39.659000
20
8.023000
30
-11.474000
70
192
0
VERTEX
8
OBJECT__16
10
38.602001
20
0.000000
30
-11.474000
70
192
0
VERTEX
8
OBJECT__16
10
42.756001
20
15.500000
30
-11.474000
70
192
0
VERTEX
8
OBJECT__16
10
99.046997
20
17.000000
30
-11.474000
70
192
0
VERTEX
8
OBJECT__16
10
96.448997
20
15.500000
30
-11.474000
70
192
0
VERTEX
8
OBJECT__16
10
102.444000
20
8.800000
30
-11.474000
70
192
0
VERTEX
8
OBJECT__16
10
99.545998
20
8.023000
30
-11.474000
70
192
0
VERTEX
8
OBJECT__16
10
69.601997
20
-34.000000
30
-11.474000
70
192
0
VERTEX
8
OBJECT__16
10
69.601997
20
-31.000000
30
-11.474000
70
192
0
VERTEX
8
OBJECT__16
10
60.803001
20
-32.841000
30
-11.474000
70
192
0
VERTEX
8
OBJECT__16
10
103.601997
20
0.000000
30
-11.474000
70
192
0
VERTEX
8
OBJECT__16
10
100.601997
20
0.000000
30
-11.474000
70
192
0
VERTEX
8
OBJECT__16
10
102.444000
20
-8.800000
30
-11.474000
70
192
0
VERTEX
8
OBJECT__16
10
99.545998
20
-8.023000
30
-11.474000
70
192
0
VERTEX
8
OBJECT__16
10
99.046997
20
-17.000000
30
-11.474000
70
192
0
VERTEX
8
OBJECT__16
10
96.448997
20
-15.500000
30
-11.474000
70
192
0
VERTEX
8
OBJECT__16
10
40.158001
20
-17.000000
30
-11.474000
70
192
0
VERTEX
8
OBJECT__16
10
42.756001
20
-15.500000
30
-11.474000
70
192
0
VERTEX
8
OBJECT__16
10
36.761002
20
-8.800000
30
-11.474000
70
192
0
VERTEX
8
OBJECT__16
10
39.659000
20
-8.023000
30
-11.474000
70
192
0
VERTEX
8
OBJECT__16
10
91.523003
20
-21.920000
30
-11.474000
70
192
0
VERTEX
8
OBJECT__16
10
35.602001
20
0.000000
30
-11.474000
70
192
0
VERTEX
8
OBJECT__16
10
0
20
0
30
0
70
128
71
1
72
2
73
3
0
VERTEX
8
OBJECT__16
10
0
20
0
30
0
70
128
71
4
72
5
73
2
0
VERTEX
8
OBJECT__16
10
0
20
0
30
0
70
128
71
6
72
3
73
7
0
VERTEX
8
OBJECT__16
10
0
20
0
30
0
70
128
71
2
72
1
73
4
0
VERTEX
8
OBJECT__16
10
0
20
0
30
0
70
128
71
3
72
6
73
1
0
VERTEX
8
OBJECT__16
10
0
20
0
30
0
70
128
71
8
72
9
73
5
0
VERTEX
8
OBJECT__16
10
0
20
0
30
0
70
128
71
10
72
11
73
7
0
VERTEX
8
OBJECT__16
10
0
20
0
30
0
70
128
71
5
72
4
73
8
0
VERTEX
8
OBJECT__16
10
0
20
0
30
0
70
128
71
8
72
12
73
13
0
VERTEX
8
OBJECT__16
10
0
20
0
30
0
70
128
71
14
72
15
73
13
0
VERTEX
8
OBJECT__16
10
0
20
0
30
0
70
128
71
16
72
17
73
18
0
VERTEX
8
OBJECT__16
10
0
20
0
30
0
70
128
71
17
72
19
73
20
0
VERTEX
8
OBJECT__16
10
0
20
0
30
0
70
128
71
21
72
22
73
23
0
VERTEX
8
OBJECT__16
10
0
20
0
30
0
70
128
71
24
72
25
73
22
0
VERTEX
8
OBJECT__16
10
0
20
0
30
0
70
128
71
26
72
27
73
28
0
VERTEX
8
OBJECT__16
10
0
20
0
30
0
70
128
71
26
72
10
73
29
0
VERTEX
8
OBJECT__16
10
0
20
0
30
0
70
128
71
7
72
11
73
6
0
VERTEX
8
OBJECT__16
10
0
20
0
30
0
70
128
71
13
72
12
73
14
0
VERTEX
8
OBJECT__16
10
0
20
0
30
0
70
128
71
30
72
31
73
15
0
VERTEX
8
OBJECT__16
10
0
20
0
30
0
70
128
71
30
72
32
73
33
0
VERTEX
8
OBJECT__16
10
0
20
0
30
0
70
128
71
20
72
18
73
17
0
VERTEX
8
OBJECT__16
10
0
20
0
30
0
70
128
71
34
72
35
73
20
0
VERTEX
8
OBJECT__16
10
0
20
0
30
0
70
128
71
36
72
23
73
35
0
VERTEX
8
OBJECT__16
10
0
20
0
30
0
70
128
71
22
72
21
73
24
0
VERTEX
8
OBJECT__16
10
0
20
0
30
0
70
128
71
29
72
27
73
26
0
VERTEX
8
OBJECT__16
10
0
20
0
30
0
70
128
71
13
72
9
73
8
0
VERTEX
8
OBJECT__16
10
0
20
0
30
0
70
128
71
33
72
31
73
30
0
VERTEX
8
OBJECT__16
10
0
20
0
30
0
70
128
71
32
72
37
73
38
0
VERTEX
8
OBJECT__16
10
0
20
0
30
0
70
128
71
39
72
40
73
38
0
VERTEX
8
OBJECT__16
10
0
20
0
30
0
70
128
71
39
72
41
73
42
0
VERTEX
8
OBJECT__16
10
0
20
0
30
0
70
128
71
20
72
19
73
34
0
VERTEX
8
OBJECT__16
10
0
20
0
30
0
70
128
71
23
72
36
73
21
0
VERTEX
8
OBJECT__16
10
0
20
0
30
0
70
128
71
43
72
44
73
25
0
VERTEX
8
OBJECT__16
10
0
20
0
30
0
70
128
71
43
72
45
73
46
0
VERTEX
8
OBJECT__16
10
0
20
0
30
0
70
128
71
7
72
29
73
10
0
VERTEX
8
OBJECT__16
10
0
20
0
30
0
70
128
71
38
72
33
73
32
0
VERTEX
8
OBJECT__16
10
0
20
0
30
0
70
128
71
42
72
40
73
39
0
VERTEX
8
OBJECT__16
10
0
20
0
30
0
70
128
71
41
72
16
73
47
0
VERTEX
8
OBJECT__16
10
0
20
0
30
0
70
128
71
35
72
34
73
36
0
VERTEX
8
OBJECT__16
10
0
20
0
30
0
70
128
71
46
72
44
73
43
0
VERTEX
8
OBJECT__16
10
0
20
0
30
0
70
128
71
15
72
14
73
30
0
VERTEX
8
OBJECT__16
10
0
20
0
30
0
70
128
71
47
72
42
73
41
0
VERTEX
8
OBJECT__16
10
0
20
0
30
0
70
128
71
25
72
24
73
43
0
VERTEX
8
OBJECT__16
10
0
20
0
30
0
70
128
71
48
72
28
73
46
0
VERTEX
8
OBJECT__16
10
0
20
0
30
0
70
128
71
38
72
37
73
39
0
VERTEX
8
OBJECT__16
10
0
20
0
30
0
70
128
71
46
72
45
73
48
0
VERTEX
8
OBJECT__16
10
0
20
0
30
0
70
128
71
18
72
47
73
16
0
VERTEX
8
OBJECT__16
10
0
20
0
30
0
70
128
71
28
72
48
73
26
0
SEQEND
8
OBJECT__16
0
POLYLINE
8
OBJECT__17
66
1
70
64
71
26
72
24
62
253
0
VERTEX
8
OBJECT__17
10
99.545998
20
8.023000
30
6.127000
70
192
0
VERTEX
8
OBJECT__17
10
99.545998
20
8.023000
30
-11.474000
70
192
0
VERTEX
8
OBJECT__17
10
100.601997
20
0.000000
30
-11.474000
70
192
0
VERTEX
8
OBJECT__17
10
96.448997
20
15.500000
30
6.127000
70
192
0
VERTEX
8
OBJECT__17
10
96.448997
20
15.500000
30
-11.474000
70
192
0
VERTEX
8
OBJECT__17
10
91.523003
20
21.920000
30
6.127000
70
192
0
VERTEX
8
OBJECT__17
10
85.101997
20
26.847000
30
6.127000
70
192
0
VERTEX
8
OBJECT__17
10
85.101997
20
26.847000
30
-11.474000
70
192
0
VERTEX
8
OBJECT__17
10
91.523003
20
21.920000
30
-11.474000
70
192
0
VERTEX
8
OBJECT__17
10
77.625999
20
29.944000
30
6.127000
70
192
0
VERTEX
8
OBJECT__17
10
77.625999
20
29.944000
30
-11.474000
70
192
0
VERTEX
8
OBJECT__17
10
69.601997
20
31.000000
30
6.127000
70
192
0
VERTEX
8
OBJECT__17
10
69.601997
20
31.000000
30
-11.474000
70
192
0
VERTEX
8
OBJECT__17
10
61.578999
20
29.944000
30
6.127000
70
192
0
VERTEX
8
OBJECT__17
10
54.102001
20
26.847000
30
6.127000
70
192
0
VERTEX
8
OBJECT__17
10
54.102001
20
26.847000
30
-11.474000
70
192
0
VERTEX
8
OBJECT__17
10
61.578999
20
29.944000
30
-11.474000
70
192
0
VERTEX
8
OBJECT__17
10
47.681999
20
21.920000
30
6.127000
70
192
0
VERTEX
8
OBJECT__17
10
47.681999
20
21.920000
30
-11.474000
70
192
0
VERTEX
8
OBJECT__17
10
42.756001
20
15.500000
30
6.127000
70
192
0
VERTEX
8
OBJECT__17
10
39.659000
20
8.023000
30
6.127000
70
192
0
VERTEX
8
OBJECT__17
10
39.659000
20
8.023000
30
-11.474000
70
192
0
VERTEX
8
OBJECT__17
10
42.756001
20
15.500000
30
-11.474000
70
192
0
VERTEX
8
OBJECT__17
10
38.602001
20
0.000000
30
6.127000
70
192
0
VERTEX
8
OBJECT__17
10
38.602001
20
0.000000
30
-11.474000
70
192
0
VERTEX
8
OBJECT__17
10
100.601997
20
0.000000
30
6.127000
70
192
0
VERTEX
8
OBJECT__17
10
0
20
0
30
0
70
128
71
1
72
2
73
3
0
VERTEX
8
OBJECT__17
10
0
20
0
30
0
70
128
71
4
72
5
73
2
0
VERTEX
8
OBJECT__17
10
0
20
0
30
0
70
128
71
5
72
4
73
6
0
VERTEX
8
OBJECT__17
10
0
20
0
30
0
70
128
71
7
72
8
73
9
0
VERTEX
8
OBJECT__17
10
0
20
0
30
0
70
128
71
10
72
11
73
8
0
VERTEX
8
OBJECT__17
10
0
20
0
30
0
70
128
71
11
72
10
73
12
0
VERTEX
8
OBJECT__17
10
0
20
0
30
0
70
128
71
13
72
12
73
14
0
VERTEX
8
OBJECT__17
10
0
20
0
30
0
70
128
71
15
72
16
73
17
0
VERTEX
8
OBJECT__17
10
0
20
0
30
0
70
128
71
18
72
19
73
16
0
VERTEX
8
OBJECT__17
10
0
20
0
30
0
70
128
71
19
72
18
73
20
0
VERTEX
8
OBJECT__17
10
0
20
0
30
0
70
128
71
21
72
22
73
23
0
VERTEX
8
OBJECT__17
10
0
20
0
30
0
70
128
71
24
72
25
73
22
0
VERTEX
8
OBJECT__17
10
0
20
0
30
0
70
128
71
22
72
21
73
24
0
VERTEX
8
OBJECT__17
10
0
20
0
30
0
70
128
71
23
72
20
73
21
0
VERTEX
8
OBJECT__17
10
0
20
0
30
0
70
128
71
20
72
23
73
19
0
VERTEX
8
OBJECT__17
10
0
20
0
30
0
70
128
71
16
72
15
73
18
0
VERTEX
8
OBJECT__17
10
0
20
0
30
0
70
128
71
17
72
14
73
15
0
VERTEX
8
OBJECT__17
10
0
20
0
30
0
70
128
71
14
72
17
73
13
0
VERTEX
8
OBJECT__17
10
0
20
0
30
0
70
128
71
12
72
13
73
11
0
VERTEX
8
OBJECT__17
10
0
20
0
30
0
70
128
71
8
72
7
73
10
0
VERTEX
8
OBJECT__17
10
0
20
0
30
0
70
128
71
9
72
6
73
7
0
VERTEX
8
OBJECT__17
10
0
20
0
30
0
70
128
71
6
72
9
73
5
0
VERTEX
8
OBJECT__17
10
0
20
0
30
0
70
128
71
2
72
1
73
4
0
VERTEX
8
OBJECT__17
10
0
20
0
30
0
70
128
71
3
72
26
73
1
0
SEQEND
8
OBJECT__17
0
POLYLINE
8
OBJECT__18
66
1
70
64
71
26
72
24
62
253
0
VERTEX
8
OBJECT__18
10
39.659000
20
-8.023000
30
6.127000
70
192
0
VERTEX
8
OBJECT__18
10
39.659000
20
-8.023000
30
-11.474000
70
192
0
VERTEX
8
OBJECT__18
10
38.602001
20
0.000000
30
-11.474000
70
192
0
VERTEX
8
OBJECT__18
10
42.756001
20
-15.500000
30
6.127000
70
192
0
VERTEX
8
OBJECT__18
10
42.756001
20
-15.500000
30
-11.474000
70
192
0
VERTEX
8
OBJECT__18
10
47.681999
20
-21.920000
30
-11.474000
70
192
0
VERTEX
8
OBJECT__18
10
54.102001
20
-26.847000
30
-11.474000
70
192
0
VERTEX
8
OBJECT__18
10
47.681999
20
-21.920000
30
6.127000
70
192
0
VERTEX
8
OBJECT__18
10
61.578999
20
-29.944000
30
-11.474000
70
192
0
VERTEX
8
OBJECT__18
10
54.102001
20
-26.847000
30
6.127000
70
192
0
VERTEX
8
OBJECT__18
10
69.601997
20
-31.000000
30
-11.474000
70
192
0
VERTEX
8
OBJECT__18
10
61.578999
20
-29.944000
30
6.127000
70
192
0
VERTEX
8
OBJECT__18
10
77.625999
20
-29.944000
30
-11.474000
70
192
0
VERTEX
8
OBJECT__18
10
69.601997
20
-31.000000
30
6.127000
70
192
0
VERTEX
8
OBJECT__18
10
85.101997
20
-26.847000
30
-11.474000
70
192
0
VERTEX
8
OBJECT__18
10
77.625999
20
-29.944000
30
6.127000
70
192
0
VERTEX
8
OBJECT__18
10
91.523003
20
-21.920000
30
-11.474000
70
192
0
VERTEX
8
OBJECT__18
10
85.101997
20
-26.847000
30
6.127000
70
192
0
VERTEX
8
OBJECT__18
10
96.448997
20
-15.500000
30
-11.474000
70
192
0
VERTEX
8
OBJECT__18
10
91.523003
20
-21.920000
30
6.127000
70
192
0
VERTEX
8
OBJECT__18
10
99.545998
20
-8.023000
30
6.127000
70
192
0
VERTEX
8
OBJECT__18
10
99.545998
20
-8.023000
30
-11.474000
70
192
0
VERTEX
8
OBJECT__18
10
100.601997
20
0.000000
30
6.127000
70
192
0
VERTEX
8
OBJECT__18
10
100.601997
20
0.000000
30
-11.474000
70
192
0
VERTEX
8
OBJECT__18
10
96.448997
20
-15.500000
30
6.127000
70
192
0
VERTEX
8
OBJECT__18
10
38.602001
20
0.000000
30
6.127000
70
192
0
VERTEX
8
OBJECT__18
10
0
20
0
30
0
70
128
71
1
72
2
73
3
0
VERTEX
8
OBJECT__18
10
0
20
0
30
0
70
128
71
4
72
5
73
2
0
VERTEX
8
OBJECT__18
10
0
20
0
30
0
70
128
71
6
72
5
73
4
0
VERTEX
8
OBJECT__18
10
0
20
0
30
0
70
128
71
7
72
6
73
8
0
VERTEX
8
OBJECT__18
10
0
20
0
30
0
70
128
71
9
72
7
73
10
0
VERTEX
8
OBJECT__18
10
0
20
0
30
0
70
128
71
11
72
9
73
12
0
VERTEX
8
OBJECT__18
10
0
20
0
30
0
70
128
71
13
72
11
73
14
0
VERTEX
8
OBJECT__18
10
0
20
0
30
0
70
128
71
15
72
13
73
16
0
VERTEX
8
OBJECT__18
10
0
20
0
30
0
70
128
71
17
72
15
73
18
0
VERTEX
8
OBJECT__18
10
0
20
0
30
0
70
128
71
19
72
17
73
20
0
VERTEX
8
OBJECT__18
10
0
20
0
30
0
70
128
71
21
72
22
73
19
0
VERTEX
8
OBJECT__18
10
0
20
0
30
0
70
128
71
23
72
24
73
22
0
VERTEX
8
OBJECT__18
10
0
20
0
30
0
70
128
71
22
72
21
73
23
0
VERTEX
8
OBJECT__18
10
0
20
0
30
0
70
128
71
19
72
25
73
21
0
VERTEX
8
OBJECT__18
10
0
20
0
30
0
70
128
71
20
72
25
73
19
0
VERTEX
8
OBJECT__18
10
0
20
0
30
0
70
128
71
18
72
20
73
17
0
VERTEX
8
OBJECT__18
10
0
20
0
30
0
70
128
71
16
72
18
73
15
0
VERTEX
8
OBJECT__18
10
0
20
0
30
0
70
128
71
14
72
16
73
13
0
VERTEX
8
OBJECT__18
10
0
20
0
30
0
70
128
71
12
72
14
73
11
0
VERTEX
8
OBJECT__18
10
0
20
0
30
0
70
128
71
10
72
12
73
9
0
VERTEX
8
OBJECT__18
10
0
20
0
30
0
70
128
71
8
72
10
73
7
0
VERTEX
8
OBJECT__18
10
0
20
0
30
0
70
128
71
4
72
8
73
6
0
VERTEX
8
OBJECT__18
10
0
20
0
30
0
70
128
71
2
72
1
73
4
0
VERTEX
8
OBJECT__18
10
0
20
0
30
0
70
128
71
3
72
26
73
1
0
SEQEND
8
OBJECT__18
0
POLYLINE
8
OBJECT__19
66
1
70
64
71
46
72
46
62
253
0
VERTEX
8
OBJECT__19
10
42.756001
20
15.500000
30
6.127000
70
192
0
VERTEX
8
OBJECT__19
10
46.047001
20
15.138000
30
6.127000
70
192
0
VERTEX
8
OBJECT__19
10
42.737000
20
7.889000
30
6.127000
70
192
0
VERTEX
8
OBJECT__19
10
47.681999
20
21.920000
30
6.127000
70
192
0
VERTEX
8
OBJECT__19
10
51.265999
20
21.160999
30
6.127000
70
192
0
VERTEX
8
OBJECT__19
10
39.659000
20
8.023000
30
6.127000
70
192
0
VERTEX
8
OBJECT__19
10
41.602001
20
0.000000
30
6.127000
70
192
0
VERTEX
8
OBJECT__19
10
54.102001
20
26.847000
30
6.127000
70
192
0
VERTEX
8
OBJECT__19
10
57.971001
20
25.469999
30
6.127000
70
192
0
VERTEX
8
OBJECT__19
10
61.578999
20
29.944000
30
6.127000
70
192
0
VERTEX
8
OBJECT__19
10
65.617996
20
27.715000
30
6.127000
70
192
0
VERTEX
8
OBJECT__19
10
69.601997
20
31.000000
30
6.127000
70
192
0
VERTEX
8
OBJECT__19
10
73.586998
20
27.715000
30
6.127000
70
192
0
VERTEX
8
OBJECT__19
10
77.625999
20
29.944000
30
6.127000
70
192
0
VERTEX
8
OBJECT__19
10
85.101997
20
26.847000
30
6.127000
70
192
0
VERTEX
8
OBJECT__19
10
81.234001
20
25.469999
30
6.127000
70
192
0
VERTEX
8
OBJECT__19
10
91.523003
20
21.920000
30
6.127000
70
192
0
VERTEX
8
OBJECT__19
10
87.939003
20
21.160999
30
6.127000
70
192
0
VERTEX
8
OBJECT__19
10
69.601997
20
-31.000000
30
6.127000
70
192
0
VERTEX
8
OBJECT__19
10
61.578999
20
-29.944000
30
6.127000
70
192
0
VERTEX
8
OBJECT__19
10
65.617996
20
-27.715000
30
6.127000
70
192
0
VERTEX
8
OBJECT__19
10
85.101997
20
-26.847000
30
6.127000
70
192
0
VERTEX
8
OBJECT__19
10
81.234001
20
-25.469999
30
6.127000
70
192
0
VERTEX
8
OBJECT__19
10
87.939003
20
-21.160999
30
6.127000
70
192
0
VERTEX
8
OBJECT__19
10
77.625999
20
-29.944000
30
6.127000
70
192
0
VERTEX
8
OBJECT__19
10
73.586998
20
-27.715000
30
6.127000
70
192
0
VERTEX
8
OBJECT__19
10
54.102001
20
-26.847000
30
6.127000
70
192
0
VERTEX
8
OBJECT__19
10
57.971001
20
-25.469999
30
6.127000
70
192
0
VERTEX
8
OBJECT__19
10
96.448997
20
15.500000
30
6.127000
70
192
0
VERTEX
8
OBJECT__19
10
99.545998
20
8.023000
30
6.127000
70
192
0
VERTEX
8
OBJECT__19
10
96.468002
20
7.889000
30
6.127000
70
192
0
VERTEX
8
OBJECT__19
10
100.601997
20
0.000000
30
6.127000
70
192
0
VERTEX
8
OBJECT__19
10
97.601997
20
0.000000
30
6.127000
70
192
0
VERTEX
8
OBJECT__19
10
99.545998
20
-8.023000
30
6.127000
70
192
0
VERTEX
8
OBJECT__19
10
96.468002
20
-7.889000
30
6.127000
70
192
0
VERTEX
8
OBJECT__19
10
96.448997
20
-15.500000
30
6.127000
70
192
0
VERTEX
8
OBJECT__19
10
93.157997
20
-15.138000
30
6.127000
70
192
0
VERTEX
8
OBJECT__19
10
91.523003
20
-21.920000
30
6.127000
70
192
0
VERTEX
8
OBJECT__19
10
47.681999
20
-21.920000
30
6.127000
70
192
0
VERTEX
8
OBJECT__19
10
51.265999
20
-21.160999
30
6.127000
70
192
0
VERTEX
8
OBJECT__19
10
93.157997
20
15.138000
30
6.127000
70
192
0
VERTEX
8
OBJECT__19
10
42.756001
20
-15.500000
30
6.127000
70
192
0
VERTEX
8
OBJECT__19
10
46.047001
20
-15.138000
30
6.127000
70
192
0
VERTEX
8
OBJECT__19
10
39.659000
20
-8.023000
30
6.127000
70
192
0
VERTEX
8
OBJECT__19
10
42.737000
20
-7.889000
30
6.127000
70
192
0
VERTEX
8
OBJECT__19
10
38.602001
20
0.000000
30
6.127000
70
192
0
VERTEX
8
OBJECT__19
10
0
20
0
30
0
70
128
71
1
72
2
73
3
0
VERTEX
8
OBJECT__19
10
0
20
0
30
0
70
128
71
4
72
5
73
2
0
VERTEX
8
OBJECT__19
10
0
20
0
30
0
70
128
71
6
72
3
73
7
0
VERTEX
8
OBJECT__19
10
0
20
0
30
0
70
128
71
2
72
1
73
4
0
VERTEX
8
OBJECT__19
10
0
20
0
30
0
70
128
71
8
72
9
73
5
0
VERTEX
8
OBJECT__19
10
0
20
0
30
0
70
128
71
10
72
11
73
9
0
VERTEX
8
OBJECT__19
10
0
20
0
30
0
70
128
71
12
72
13
73
11
0
VERTEX
8
OBJECT__19
10
0
20
0
30
0
70
128
71
14
72
15
73
16
0
VERTEX
8
OBJECT__19
10
0
20
0
30
0
70
128
71
15
72
17
73
18
0
VERTEX
8
OBJECT__19
10
0
20
0
30
0
70
128
71
19
72
20
73
21
0
VERTEX
8
OBJECT__19
10
0
20
0
30
0
70
128
71
3
72
6
73
1
0
VERTEX
8
OBJECT__19
10
0
20
0
30
0
70
128
71
9
72
8
73
10
0
VERTEX
8
OBJECT__19
10
0
20
0
30
0
70
128
71
11
72
10
73
12
0
VERTEX
8
OBJECT__19
10
0
20
0
30
0
70
128
71
18
72
16
73
15
0
VERTEX
8
OBJECT__19
10
0
20
0
30
0
70
128
71
22
72
23
73
24
0
VERTEX
8
OBJECT__19
10
0
20
0
30
0
70
128
71
25
72
26
73
23
0
VERTEX
8
OBJECT__19
10
0
20
0
30
0
70
128
71
26
72
25
73
19
0
VERTEX
8
OBJECT__19
10
0
20
0
30
0
70
128
71
20
72
27
73
28
0
VERTEX
8
OBJECT__19
10
0
20
0
30
0
70
128
71
5
72
4
73
8
0
VERTEX
8
OBJECT__19
10
0
20
0
30
0
70
128
71
16
72
13
73
14
0
VERTEX
8
OBJECT__19
10
0
20
0
30
0
70
128
71
29
72
30
73
31
0
VERTEX
8
OBJECT__19
10
0
20
0
30
0
70
128
71
30
72
32
73
33
0
VERTEX
8
OBJECT__19
10
0
20
0
30
0
70
128
71
34
72
35
73
33
0
VERTEX
8
OBJECT__19
10
0
20
0
30
0
70
128
71
36
72
37
73
35
0
VERTEX
8
OBJECT__19
10
0
20
0
30
0
70
128
71
38
72
24
73
37
0
VERTEX
8
OBJECT__19
10
0
20
0
30
0
70
128
71
23
72
22
73
25
0
VERTEX
8
OBJECT__19
10
0
20
0
30
0
70
128
71
28
72
21
73
20
0
VERTEX
8
OBJECT__19
10
0
20
0
30
0
70
128
71
27
72
39
73
40
0
VERTEX
8
OBJECT__19
10
0
20
0
30
0
70
128
71
12
72
14
73
13
0
VERTEX
8
OBJECT__19
10
0
20
0
30
0
70
128
71
17
72
29
73
41
0
VERTEX
8
OBJECT__19
10
0
20
0
30
0
70
128
71
33
72
31
73
30
0
VERTEX
8
OBJECT__19
10
0
20
0
30
0
70
128
71
35
72
34
73
36
0
VERTEX
8
OBJECT__19
10
0
20
0
30
0
70
128
71
24
72
38
73
22
0
VERTEX
8
OBJECT__19
10
0
20
0
30
0
70
128
71
40
72
28
73
27
0
VERTEX
8
OBJECT__19
10
0
20
0
30
0
70
128
71
39
72
42
73
43
0
VERTEX
8
OBJECT__19
10
0
20
0
30
0
70
128
71
42
72
44
73
45
0
VERTEX
8
OBJECT__19
10
0
20
0
30
0
70
128
71
41
72
18
73
17
0
VERTEX
8
OBJECT__19
10
0
20
0
30
0
70
128
71
33
72
32
73
34
0
VERTEX
8
OBJECT__19
10
0
20
0
30
0
70
128
71
21
72
26
73
19
0
VERTEX
8
OBJECT__19
10
0
20
0
30
0
70
128
71
45
72
43
73
42
0
VERTEX
8
OBJECT__19
10
0
20
0
30
0
70
128
71
31
72
41
73
29
0
VERTEX
8
OBJECT__19
10
0
20
0
30
0
70
128
71
43
72
40
73
39
0
VERTEX
8
OBJECT__19
10
0
20
0
30
0
70
128
71
37
72
36
73
38
0
VERTEX
8
OBJECT__19
10
0
20
0
30
0
70
128
71
44
72
46
73
7
0
VERTEX
8
OBJECT__19
10
0
20
0
30
0
70
128
71
7
72
45
73
44
0
VERTEX
8
OBJECT__19
10
0
20
0
30
0
70
128
71
7
72
46
73
6
0
SEQEND
8
OBJECT__19
0
POLYLINE
8
OBJECT__20
66
1
70
64
71
24
72
22
62
253
0
VERTEX
8
OBJECT__20
10
42.737000
20
-7.889000
30
6.327000
70
192
0
VERTEX
8
OBJECT__20
10
42.737000
20
-7.889000
30
6.127000
70
192
0
VERTEX
8
OBJECT__20
10
41.602001
20
0.000000
30
6.127000
70
192
0
VERTEX
8
OBJECT__20
10
46.047001
20
-15.138000
30
6.127000
70
192
0
VERTEX
8
OBJECT__20
10
51.265999
20
-21.160999
30
6.327000
70
192
0
VERTEX
8
OBJECT__20
10
51.265999
20
-21.160999
30
6.127000
70
192
0
VERTEX
8
OBJECT__20
10
57.971001
20
-25.469999
30
6.127000
70
192
0
VERTEX
8
OBJECT__20
10
65.617996
20
-27.715000
30
6.127000
70
192
0
VERTEX
8
OBJECT__20
10
57.971001
20
-25.469999
30
6.327000
70
192
0
VERTEX
8
OBJECT__20
10
73.586998
20
-27.715000
30
6.127000
70
192
0
VERTEX
8
OBJECT__20
10
65.617996
20
-27.715000
30
6.327000
70
192
0
VERTEX
8
OBJECT__20
10
81.234001
20
-25.469999
30
6.127000
70
192
0
VERTEX
8
OBJECT__20
10
73.586998
20
-27.715000
30
6.327000
70
192
0
VERTEX
8
OBJECT__20
10
87.939003
20
-21.160999
30
6.127000
70
192
0
VERTEX
8
OBJECT__20
10
81.234001
20
-25.469999
30
6.327000
70
192
0
VERTEX
8
OBJECT__20
10
93.157997
20
-15.138000
30
6.327000
70
192
0
VERTEX
8
OBJECT__20
10
93.157997
20
-15.138000
30
6.127000
70
192
0
VERTEX
8
OBJECT__20
10
96.468002
20
-7.889000
30
6.127000
70
192
0
VERTEX
8
OBJECT__20
10
97.601997
20
0.000000
30
6.327000
70
192
0
VERTEX
8
OBJECT__20
10
97.601997
20
0.000000
30
6.127000
70
192
0
VERTEX
8
OBJECT__20
10
96.468002
20
-7.889000
30
6.327000
70
192
0
VERTEX
8
OBJECT__20
10
87.939003
20
-21.160999
30
6.327000
70
192
0
VERTEX
8
OBJECT__20
10
46.047001
20
-15.138000
30
6.327000
70
192
0
VERTEX
8
OBJECT__20
10
41.602001
20
0.000000
30
6.327000
70
192
0
VERTEX
8
OBJECT__20
10
0
20
0
30
0
70
128
71
1
72
2
73
3
0
VERTEX
8
OBJECT__20
10
0
20
0
30
0
70
128
71
4
72
2
73
1
0
VERTEX
8
OBJECT__20
10
0
20
0
30
0
70
128
71
5
72
6
73
4
0
VERTEX
8
OBJECT__20
10
0
20
0
30
0
70
128
71
7
72
6
73
5
0
VERTEX
8
OBJECT__20
10
0
20
0
30
0
70
128
71
8
72
7
73
9
0
VERTEX
8
OBJECT__20
10
0
20
0
30
0
70
128
71
10
72
8
73
11
0
VERTEX
8
OBJECT__20
10
0
20
0
30
0
70
128
71
12
72
10
73
13
0
VERTEX
8
OBJECT__20
10
0
20
0
30
0
70
128
71
14
72
12
73
15
0
VERTEX
8
OBJECT__20
10
0
20
0
30
0
70
128
71
16
72
17
73
14
0
VERTEX
8
OBJECT__20
10
0
20
0
30
0
70
128
71
18
72
17
73
16
0
VERTEX
8
OBJECT__20
10
0
20
0
30
0
70
128
71
19
72
20
73
18
0
VERTEX
8
OBJECT__20
10
0
20
0
30
0
70
128
71
18
72
21
73
19
0
VERTEX
8
OBJECT__20
10
0
20
0
30
0
70
128
71
16
72
21
73
18
0
VERTEX
8
OBJECT__20
10
0
20
0
30
0
70
128
71
14
72
22
73
16
0
VERTEX
8
OBJECT__20
10
0
20
0
30
0
70
128
71
15
72
22
73
14
0
VERTEX
8
OBJECT__20
10
0
20
0
30
0
70
128
71
13
72
15
73
12
0
VERTEX
8
OBJECT__20
10
0
20
0
30
0
70
128
71
11
72
13
73
10
0
VERTEX
8
OBJECT__20
10
0
20
0
30
0
70
128
71
9
72
11
73
8
0
VERTEX
8
OBJECT__20
10
0
20
0
30
0
70
128
71
5
72
9
73
7
0
VERTEX
8
OBJECT__20
10
0
20
0
30
0
70
128
71
4
72
23
73
5
0
VERTEX
8
OBJECT__20
10
0
20
0
30
0
70
128
71
1
72
23
73
4
0
VERTEX
8
OBJECT__20
10
0
20
0
30
0
70
128
71
3
72
24
73
1
0
SEQEND
8
OBJECT__20
0
POLYLINE
8
OBJECT__21
66
1
70
64
71
24
72
22
62
253
0
VERTEX
8
OBJECT__21
10
96.468002
20
7.889000
30
6.327000
70
192
0
VERTEX
8
OBJECT__21
10
96.468002
20
7.889000
30
6.127000
70
192
0
VERTEX
8
OBJECT__21
10
97.601997
20
0.000000
30
6.127000
70
192
0
VERTEX
8
OBJECT__21
10
93.157997
20
15.138000
30
6.327000
70
192
0
VERTEX
8
OBJECT__21
10
93.157997
20
15.138000
30
6.127000
70
192
0
VERTEX
8
OBJECT__21
10
87.939003
20
21.160999
30
6.327000
70
192
0
VERTEX
8
OBJECT__21
10
87.939003
20
21.160999
30
6.127000
70
192
0
VERTEX
8
OBJECT__21
10
81.234001
20
25.469999
30
6.327000
70
192
0
VERTEX
8
OBJECT__21
10
81.234001
20
25.469999
30
6.127000
70
192
0
VERTEX
8
OBJECT__21
10
73.586998
20
27.715000
30
6.327000
70
192
0
VERTEX
8
OBJECT__21
10
73.586998
20
27.715000
30
6.127000
70
192
0
VERTEX
8
OBJECT__21
10
65.617996
20
27.715000
30
6.327000
70
192
0
VERTEX
8
OBJECT__21
10
65.617996
20
27.715000
30
6.127000
70
192
0
VERTEX
8
OBJECT__21
10
57.971001
20
25.469999
30
6.327000
70
192
0
VERTEX
8
OBJECT__21
10
57.971001
20
25.469999
30
6.127000
70
192
0
VERTEX
8
OBJECT__21
10
51.265999
20
21.160999
30
6.327000
70
192
0
VERTEX
8
OBJECT__21
10
51.265999
20
21.160999
30
6.127000
70
192
0
VERTEX
8
OBJECT__21
10
46.047001
20
15.138000
30
6.327000
70
192
0
VERTEX
8
OBJECT__21
10
46.047001
20
15.138000
30
6.127000
70
192
0
VERTEX
8
OBJECT__21
10
42.737000
20
7.889000
30
6.327000
70
192
0
VERTEX
8
OBJECT__21
10
42.737000
20
7.889000
30
6.127000
70
192
0
VERTEX
8
OBJECT__21
10
41.602001
20
0.000000
30
6.327000
70
192
0
VERTEX
8
OBJECT__21
10
41.602001
20
0.000000
30
6.127000
70
192
0
VERTEX
8
OBJECT__21
10
97.601997
20
0.000000
30
6.327000
70
192
0
VERTEX
8
OBJECT__21
10
0
20
0
30
0
70
128
71
1
72
2
73
3
0
VERTEX
8
OBJECT__21
10
0
20
0
30
0
70
128
71
4
72
5
73
2
0
VERTEX
8
OBJECT__21
10
0
20
0
30
0
70
128
71
6
72
7
73
5
0
VERTEX
8
OBJECT__21
10
0
20
0
30
0
70
128
71
8
72
9
73
7
0
VERTEX
8
OBJECT__21
10
0
20
0
30
0
70
128
71
10
72
11
73
9
0
VERTEX
8
OBJECT__21
10
0
20
0
30
0
70
128
71
12
72
13
73
11
0
VERTEX
8
OBJECT__21
10
0
20
0
30
0
70
128
71
14
72
15
73
13
0
VERTEX
8
OBJECT__21
10
0
20
0
30
0
70
128
71
16
72
17
73
15
0
VERTEX
8
OBJECT__21
10
0
20
0
30
0
70
128
71
18
72
19
73
17
0
VERTEX
8
OBJECT__21
10
0
20
0
30
0
70
128
71
20
72
21
73
19
0
VERTEX
8
OBJECT__21
10
0
20
0
30
0
70
128
71
22
72
23
73
21
0
VERTEX
8
OBJECT__21
10
0
20
0
30
0
70
128
71
21
72
20
73
22
0
VERTEX
8
OBJECT__21
10
0
20
0
30
0
70
128
71
19
72
18
73
20
0
VERTEX
8
OBJECT__21
10
0
20
0
30
0
70
128
71
17
72
16
73
18
0
VERTEX
8
OBJECT__21
10
0
20
0
30
0
70
128
71
15
72
14
73
16
0
VERTEX
8
OBJECT__21
10
0
20
0
30
0
70
128
71
13
72
12
73
14
0
VERTEX
8
OBJECT__21
10
0
20
0
30
0
70
128
71
11
72
10
73
12
0
VERTEX
8
OBJECT__21
10
0
20
0
30
0
70
128
71
9
72
8
73
10
0
VERTEX
8
OBJECT__21
10
0
20
0
30
0
70
128
71
7
72
6
73
8
0
VERTEX
8
OBJECT__21
10
0
20
0
30
0
70
128
71
5
72
4
73
6
0
VERTEX
8
OBJECT__21
10
0
20
0
30
0
70
128
71
2
72
1
73
4
0
VERTEX
8
OBJECT__21
10
0
20
0
30
0
70
128
71
3
72
24
73
1
0
SEQEND
8
OBJECT__21
0
POLYLINE
8
OBJECT__22
66
1
70
64
71
46
72
46
62
253
0
VERTEX
8
OBJECT__22
10
99.545998
20
8.023000
30
6.327000
70
192
0
VERTEX
8
OBJECT__22
10
96.468002
20
7.889000
30
6.327000
70
192
0
VERTEX
8
OBJECT__22
10
97.601997
20
0.000000
30
6.327000
70
192
0
VERTEX
8
OBJECT__22
10
96.448997
20
15.500000
30
6.327000
70
192
0
VERTEX
8
OBJECT__22
10
93.157997
20
15.138000
30
6.327000
70
192
0
VERTEX
8
OBJECT__22
10
85.101997
20
26.847000
30
6.327000
70
192
0
VERTEX
8
OBJECT__22
10
81.234001
20
25.469999
30
6.327000
70
192
0
VERTEX
8
OBJECT__22
10
87.939003
20
21.160999
30
6.327000
70
192
0
VERTEX
8
OBJECT__22
10
77.625999
20
29.944000
30
6.327000
70
192
0
VERTEX
8
OBJECT__22
10
73.586998
20
27.715000
30
6.327000
70
192
0
VERTEX
8
OBJECT__22
10
69.601997
20
31.000000
30
6.327000
70
192
0
VERTEX
8
OBJECT__22
10
65.617996
20
27.715000
30
6.327000
70
192
0
VERTEX
8
OBJECT__22
10
91.523003
20
21.920000
30
6.327000
70
192
0
VERTEX
8
OBJECT__22
10
54.102001
20
-26.847000
30
6.327000
70
192
0
VERTEX
8
OBJECT__22
10
57.971001
20
-25.469999
30
6.327000
70
192
0
VERTEX
8
OBJECT__22
10
51.265999
20
-21.160999
30
6.327000
70
192
0
VERTEX
8
OBJECT__22
10
61.578999
20
-29.944000
30
6.327000
70
192
0
VERTEX
8
OBJECT__22
10
65.617996
20
-27.715000
30
6.327000
70
192
0
VERTEX
8
OBJECT__22
10
69.601997
20
-31.000000
30
6.327000
70
192
0
VERTEX
8
OBJECT__22
10
73.586998
20
-27.715000
30
6.327000
70
192
0
VERTEX
8
OBJECT__22
10
61.578999
20
29.944000
30
6.327000
70
192
0
VERTEX
8
OBJECT__22
10
54.102001
20
26.847000
30
6.327000
70
192
0
VERTEX
8
OBJECT__22
10
57.971001
20
25.469999
30
6.327000
70
192
0
VERTEX
8
OBJECT__22
10
47.681999
20
21.920000
30
6.327000
70
192
0
VERTEX
8
OBJECT__22
10
51.265999
20
21.160999
30
6.327000
70
192
0
VERTEX
8
OBJECT__22
10
42.756001
20
-15.500000
30
6.327000
70
192
0
VERTEX
8
OBJECT__22
10
46.047001
20
-15.138000
30
6.327000
70
192
0
VERTEX
8
OBJECT__22
10
42.737000
20
-7.889000
30
6.327000
70
192
0
VERTEX
8
OBJECT__22
10
47.681999
20
-21.920000
30
6.327000
70
192
0
VERTEX
8
OBJECT__22
10
77.625999
20
-29.944000
30
6.327000
70
192
0
VERTEX
8
OBJECT__22
10
85.101997
20
-26.847000
30
6.327000
70
192
0
VERTEX
8
OBJECT__22
10
81.234001
20
-25.469999
30
6.327000
70
192
0
VERTEX
8
OBJECT__22
10
91.523003
20
-21.920000
30
6.327000
70
192
0
VERTEX
8
OBJECT__22
10
87.939003
20
-21.160999
30
6.327000
70
192
0
VERTEX
8
OBJECT__22
10
42.756001
20
15.500000
30
6.327000
70
192
0
VERTEX
8
OBJECT__22
10
46.047001
20
15.138000
30
6.327000
70
192
0
VERTEX
8
OBJECT__22
10
39.659000
20
8.023000
30
6.327000
70
192
0
VERTEX
8
OBJECT__22
10
42.737000
20
7.889000
30
6.327000
70
192
0
VERTEX
8
OBJECT__22
10
96.448997
20
-15.500000
30
6.327000
70
192
0
VERTEX
8
OBJECT__22
10
93.157997
20
-15.138000
30
6.327000
70
192
0
VERTEX
8
OBJECT__22
10
38.602001
20
0.000000
30
6.327000
70
192
0
VERTEX
8
OBJECT__22
10
41.602001
20
0.000000
30
6.327000
70
192
0
VERTEX
8
OBJECT__22
10
39.659000
20
-8.023000
30
6.327000
70
192
0
VERTEX
8
OBJECT__22
10
99.545998
20
-8.023000
30
6.327000
70
192
0
VERTEX
8
OBJECT__22
10
96.468002
20
-7.889000
30
6.327000
70
192
0
VERTEX
8
OBJECT__22
10
100.601997
20
0.000000
30
6.327000
70
192
0
VERTEX
8
OBJECT__22
10
0
20
0
30
0
70
128
71
1
72
2
73
3
0
VERTEX
8
OBJECT__22
10
0
20
0
30
0
70
128
71
4
72
5
73
2
0
VERTEX
8
OBJECT__22
10
0
20
0
30
0
70
128
71
6
72
7
73
8
0
VERTEX
8
OBJECT__22
10
0
20
0
30
0
70
128
71
9
72
10
73
7
0
VERTEX
8
OBJECT__22
10
0
20
0
30
0
70
128
71
11
72
12
73
10
0
VERTEX
8
OBJECT__22
10
0
20
0
30
0
70
128
71
2
72
1
73
4
0
VERTEX
8
OBJECT__22
10
0
20
0
30
0
70
128
71
13
72
8
73
5
0
VERTEX
8
OBJECT__22
10
0
20
0
30
0
70
128
71
7
72
6
73
9
0
VERTEX
8
OBJECT__22
10
0
20
0
30
0
70
128
71
10
72
9
73
11
0
VERTEX
8
OBJECT__22
10
0
20
0
30
0
70
128
71
14
72
15
73
16
0
VERTEX
8
OBJECT__22
10
0
20
0
30
0
70
128
71
17
72
18
73
15
0
VERTEX
8
OBJECT__22
10
0
20
0
30
0
70
128
71
19
72
20
73
18
0
VERTEX
8
OBJECT__22
10
0
20
0
30
0
70
128
71
5
72
4
73
13
0
VERTEX
8
OBJECT__22
10
0
20
0
30
0
70
128
71
11
72
21
73
12
0
VERTEX
8
OBJECT__22
10
0
20
0
30
0
70
128
71
21
72
22
73
23
0
VERTEX
8
OBJECT__22
10
0
20
0
30
0
70
128
71
22
72
24
73
25
0
VERTEX
8
OBJECT__22
10
0
20
0
30
0
70
128
71
26
72
27
73
28
0
VERTEX
8
OBJECT__22
10
0
20
0
30
0
70
128
71
29
72
16
73
27
0
VERTEX
8
OBJECT__22
10
0
20
0
30
0
70
128
71
15
72
14
73
17
0
VERTEX
8
OBJECT__22
10
0
20
0
30
0
70
128
71
18
72
17
73
19
0
VERTEX
8
OBJECT__22
10
0
20
0
30
0
70
128
71
30
72
31
73
32
0
VERTEX
8
OBJECT__22
10
0
20
0
30
0
70
128
71
31
72
33
73
34
0
VERTEX
8
OBJECT__22
10
0
20
0
30
0
70
128
71
8
72
13
73
6
0
VERTEX
8
OBJECT__22
10
0
20
0
30
0
70
128
71
25
72
23
73
22
0
VERTEX
8
OBJECT__22
10
0
20
0
30
0
70
128
71
24
72
35
73
36
0
VERTEX
8
OBJECT__22
10
0
20
0
30
0
70
128
71
35
72
37
73
38
0
VERTEX
8
OBJECT__22
10
0
20
0
30
0
70
128
71
27
72
26
73
29
0
VERTEX
8
OBJECT__22
10
0
20
0
30
0
70
128
71
19
72
30
73
20
0
VERTEX
8
OBJECT__22
10
0
20
0
30
0
70
128
71
34
72
32
73
31
0
VERTEX
8
OBJECT__22
10
0
20
0
30
0
70
128
71
33
72
39
73
40
0
VERTEX
8
OBJECT__22
10
0
20
0
30
0
70
128
71
23
72
12
73
21
0
VERTEX
8
OBJECT__22
10
0
20
0
30
0
70
128
71
38
72
36
73
35
0
VERTEX
8
OBJECT__22
10
0
20
0
30
0
70
128
71
37
72
41
73
42
0
VERTEX
8
OBJECT__22
10
0
20
0
30
0
70
128
71
43
72
28
73
42
0
VERTEX
8
OBJECT__22
10
0
20
0
30
0
70
128
71
16
72
29
73
14
0
VERTEX
8
OBJECT__22
10
0
20
0
30
0
70
128
71
40
72
34
73
33
0
VERTEX
8
OBJECT__22
10
0
20
0
30
0
70
128
71
39
72
44
73
45
0
VERTEX
8
OBJECT__22
10
0
20
0
30
0
70
128
71
44
72
46
73
3
0
VERTEX
8
OBJECT__22
10
0
20
0
30
0
70
128
71
36
72
25
73
24
0
VERTEX
8
OBJECT__22
10
0
20
0
30
0
70
128
71
42
72
41
73
43
0
VERTEX
8
OBJECT__22
10
0
20
0
30
0
70
128
71
32
72
20
73
30
0
VERTEX
8
OBJECT__22
10
0
20
0
30
0
70
128
71
3
72
45
73
44
0
VERTEX
8
OBJECT__22
10
0
20
0
30
0
70
128
71
42
72
38
73
37
0
VERTEX
8
OBJECT__22
10
0
20
0
30
0
70
128
71
45
72
40
73
39
0
VERTEX
8
OBJECT__22
10
0
20
0
30
0
70
128
71
28
72
43
73
26
0
VERTEX
8
OBJECT__22
10
0
20
0
30
0
70
128
71
3
72
46
73
1
0
SEQEND
8
OBJECT__22
0
POLYLINE
8
OBJECT__23
66
1
70
64
71
26
72
24
62
253
0
VERTEX
8
OBJECT__23
10
39.659000
20
-8.023000
30
11.526000
70
192
0
VERTEX
8
OBJECT__23
10
39.659000
20
-8.023000
30
6.327000
70
192
0
VERTEX
8
OBJECT__23
10
38.602001
20
0.000000
30
6.327000
70
192
0
VERTEX
8
OBJECT__23
10
42.756001
20
-15.500000
30
11.526000
70
192
0
VERTEX
8
OBJECT__23
10
42.756001
20
-15.500000
30
6.327000
70
192
0
VERTEX
8
OBJECT__23
10
47.681999
20
-21.920000
30
11.526000
70
192
0
VERTEX
8
OBJECT__23
10
47.681999
20
-21.920000
30
6.327000
70
192
0
VERTEX
8
OBJECT__23
10
54.102001
20
-26.847000
30
6.327000
70
192
0
VERTEX
8
OBJECT__23
10
61.578999
20
-29.944000
30
11.526000
70
192
0
VERTEX
8
OBJECT__23
10
61.578999
20
-29.944000
30
6.327000
70
192
0
VERTEX
8
OBJECT__23
10
69.601997
20
-31.000000
30
6.327000
70
192
0
VERTEX
8
OBJECT__23
10
77.625999
20
-29.944000
30
6.327000
70
192
0
VERTEX
8
OBJECT__23
10
69.601997
20
-31.000000
30
11.526000
70
192
0
VERTEX
8
OBJECT__23
10
85.101997
20
-26.847000
30
11.526000
70
192
0
VERTEX
8
OBJECT__23
10
85.101997
20
-26.847000
30
6.327000
70
192
0
VERTEX
8
OBJECT__23
10
91.523003
20
-21.920000
30
6.327000
70
192
0
VERTEX
8
OBJECT__23
10
96.448997
20
-15.500000
30
11.526000
70
192
0
VERTEX
8
OBJECT__23
10
96.448997
20
-15.500000
30
6.327000
70
192
0
VERTEX
8
OBJECT__23
10
99.545998
20
-8.023000
30
11.526000
70
192
0
VERTEX
8
OBJECT__23
10
99.545998
20
-8.023000
30
6.327000
70
192
0
VERTEX
8
OBJECT__23
10
100.601997
20
0.000000
30
11.526000
70
192
0
VERTEX
8
OBJECT__23
10
100.601997
20
0.000000
30
6.327000
70
192
0
VERTEX
8
OBJECT__23
10
91.523003
20
-21.920000
30
11.526000
70
192
0
VERTEX
8
OBJECT__23
10
77.625999
20
-29.944000
30
11.526000
70
192
0
VERTEX
8
OBJECT__23
10
54.102001
20
-26.847000
30
11.526000
70
192
0
VERTEX
8
OBJECT__23
10
38.602001
20
0.000000
30
11.526000
70
192
0
VERTEX
8
OBJECT__23
10
0
20
0
30
0
70
128
71
1
72
2
73
3
0
VERTEX
8
OBJECT__23
10
0
20
0
30
0
70
128
71
4
72
5
73
2
0
VERTEX
8
OBJECT__23
10
0
20
0
30
0
70
128
71
6
72
7
73
5
0
VERTEX
8
OBJECT__23
10
0
20
0
30
0
70
128
71
8
72
7
73
6
0
VERTEX
8
OBJECT__23
10
0
20
0
30
0
70
128
71
9
72
10
73
8
0
VERTEX
8
OBJECT__23
10
0
20
0
30
0
70
128
71
11
72
10
73
9
0
VERTEX
8
OBJECT__23
10
0
20
0
30
0
70
128
71
12
72
11
73
13
0
VERTEX
8
OBJECT__23
10
0
20
0
30
0
70
128
71
14
72
15
73
12
0
VERTEX
8
OBJECT__23
10
0
20
0
30
0
70
128
71
16
72
15
73
14
0
VERTEX
8
OBJECT__23
10
0
20
0
30
0
70
128
71
17
72
18
73
16
0
VERTEX
8
OBJECT__23
10
0
20
0
30
0
70
128
71
19
72
20
73
18
0
VERTEX
8
OBJECT__23
10
0
20
0
30
0
70
128
71
21
72
22
73
20
0
VERTEX
8
OBJECT__23
10
0
20
0
30
0
70
128
71
20
72
19
73
21
0
VERTEX
8
OBJECT__23
10
0
20
0
30
0
70
128
71
18
72
17
73
19
0
VERTEX
8
OBJECT__23
10
0
20
0
30
0
70
128
71
16
72
23
73
17
0
VERTEX
8
OBJECT__23
10
0
20
0
30
0
70
128
71
14
72
23
73
16
0
VERTEX
8
OBJECT__23
10
0
20
0
30
0
70
128
71
12
72
24
73
14
0
VERTEX
8
OBJECT__23
10
0
20
0
30
0
70
128
71
13
72
24
73
12
0
VERTEX
8
OBJECT__23
10
0
20
0
30
0
70
128
71
9
72
13
73
11
0
VERTEX
8
OBJECT__23
10
0
20
0
30
0
70
128
71
8
72
25
73
9
0
VERTEX
8
OBJECT__23
10
0
20
0
30
0
70
128
71
6
72
25
73
8
0
VERTEX
8
OBJECT__23
10
0
20
0
30
0
70
128
71
5
72
4
73
6
0
VERTEX
8
OBJECT__23
10
0
20
0
30
0
70
128
71
2
72
1
73
4
0
VERTEX
8
OBJECT__23
10
0
20
0
30
0
70
128
71
3
72
26
73
1
0
SEQEND
8
OBJECT__23
0
POLYLINE
8
OBJECT__24
66
1
70
64
71
26
72
24
62
253
0
VERTEX
8
OBJECT__24
10
99.545998
20
8.023000
30
11.526000
70
192
0
VERTEX
8
OBJECT__24
10
99.545998
20
8.023000
30
6.327000
70
192
0
VERTEX
8
OBJECT__24
10
100.601997
20
0.000000
30
6.327000
70
192
0
VERTEX
8
OBJECT__24
10
96.448997
20
15.500000
30
11.526000
70
192
0
VERTEX
8
OBJECT__24
10
96.448997
20
15.500000
30
6.327000
70
192
0
VERTEX
8
OBJECT__24
10
91.523003
20
21.920000
30
11.526000
70
192
0
VERTEX
8
OBJECT__24
10
91.523003
20
21.920000
30
6.327000
70
192
0
VERTEX
8
OBJECT__24
10
85.101997
20
26.847000
30
11.526000
70
192
0
VERTEX
8
OBJECT__24
10
85.101997
20
26.847000
30
6.327000
70
192
0
VERTEX
8
OBJECT__24
10
77.625999
20
29.944000
30
11.526000
70
192
0
VERTEX
8
OBJECT__24
10
77.625999
20
29.944000
30
6.327000
70
192
0
VERTEX
8
OBJECT__24
10
69.601997
20
31.000000
30
11.526000
70
192
0
VERTEX
8
OBJECT__24
10
69.601997
20
31.000000
30
6.327000
70
192
0
VERTEX
8
OBJECT__24
10
61.578999
20
29.944000
30
11.526000
70
192
0
VERTEX
8
OBJECT__24
10
61.578999
20
29.944000
30
6.327000
70
192
0
VERTEX
8
OBJECT__24
10
54.102001
20
26.847000
30
11.526000
70
192
0
VERTEX
8
OBJECT__24
10
54.102001
20
26.847000
30
6.327000
70
192
0
VERTEX
8
OBJECT__24
10
47.681999
20
21.920000
30
11.526000
70
192
0
VERTEX
8
OBJECT__24
10
47.681999
20
21.920000
30
6.327000
70
192
0
VERTEX
8
OBJECT__24
10
42.756001
20
15.500000
30
11.526000
70
192
0
VERTEX
8
OBJECT__24
10
42.756001
20
15.500000
30
6.327000
70
192
0
VERTEX
8
OBJECT__24
10
39.659000
20
8.023000
30
11.526000
70
192
0
VERTEX
8
OBJECT__24
10
39.659000
20
8.023000
30
6.327000
70
192
0
VERTEX
8
OBJECT__24
10
38.602001
20
0.000000
30
11.526000
70
192
0
VERTEX
8
OBJECT__24
10
38.602001
20
0.000000
30
6.327000
70
192
0
VERTEX
8
OBJECT__24
10
100.601997
20
0.000000
30
11.526000
70
192
0
VERTEX
8
OBJECT__24
10
0
20
0
30
0
70
128
71
1
72
2
73
3
0
VERTEX
8
OBJECT__24
10
0
20
0
30
0
70
128
71
4
72
5
73
2
0
VERTEX
8
OBJECT__24
10
0
20
0
30
0
70
128
71
6
72
7
73
5
0
VERTEX
8
OBJECT__24
10
0
20
0
30
0
70
128
71
8
72
9
73
7
0
VERTEX
8
OBJECT__24
10
0
20
0
30
0
70
128
71
10
72
11
73
9
0
VERTEX
8
OBJECT__24
10
0
20
0
30
0
70
128
71
12
72
13
73
11
0
VERTEX
8
OBJECT__24
10
0
20
0
30
0
70
128
71
14
72
15
73
13
0
VERTEX
8
OBJECT__24
10
0
20
0
30
0
70
128
71
16
72
17
73
15
0
VERTEX
8
OBJECT__24
10
0
20
0
30
0
70
128
71
18
72
19
73
17
0
VERTEX
8
OBJECT__24
10
0
20
0
30
0
70
128
71
20
72
21
73
19
0
VERTEX
8
OBJECT__24
10
0
20
0
30
0
70
128
71
22
72
23
73
21
0
VERTEX
8
OBJECT__24
10
0
20
0
30
0
70
128
71
24
72
25
73
23
0
VERTEX
8
OBJECT__24
10
0
20
0
30
0
70
128
71
23
72
22
73
24
0
VERTEX
8
OBJECT__24
10
0
20
0
30
0
70
128
71
21
72
20
73
22
0
VERTEX
8
OBJECT__24
10
0
20
0
30
0
70
128
71
19
72
18
73
20
0
VERTEX
8
OBJECT__24
10
0
20
0
30
0
70
128
71
17
72
16
73
18
0
VERTEX
8
OBJECT__24
10
0
20
0
30
0
70
128
71
15
72
14
73
16
0
VERTEX
8
OBJECT__24
10
0
20
0
30
0
70
128
71
13
72
12
73
14
0
VERTEX
8
OBJECT__24
10
0
20
0
30
0
70
128
71
11
72
10
73
12
0
VERTEX
8
OBJECT__24
10
0
20
0
30
0
70
128
71
9
72
8
73
10
0
VERTEX
8
OBJECT__24
10
0
20
0
30
0
70
128
71
7
72
6
73
8
0
VERTEX
8
OBJECT__24
10
0
20
0
30
0
70
128
71
5
72
4
73
6
0
VERTEX
8
OBJECT__24
10
0
20
0
30
0
70
128
71
2
72
1
73
4
0
VERTEX
8
OBJECT__24
10
0
20
0
30
0
70
128
71
3
72
26
73
1
0
SEQEND
8
OBJECT__24
0
POLYLINE
8
OBJECT__25
66
1
70
64
71
48
72
48
62
253
0
VERTEX
8
OBJECT__25
10
78.402000
20
32.841000
30
11.526000
70
192
0
VERTEX
8
OBJECT__25
10
77.625999
20
29.944000
30
11.526000
70
192
0
VERTEX
8
OBJECT__25
10
85.101997
20
26.847000
30
11.526000
70
192
0
VERTEX
8
OBJECT__25
10
69.601997
20
34.000000
30
11.526000
70
192
0
VERTEX
8
OBJECT__25
10
69.601997
20
31.000000
30
11.526000
70
192
0
VERTEX
8
OBJECT__25
10
60.803001
20
32.841000
30
11.526000
70
192
0
VERTEX
8
OBJECT__25
10
61.578999
20
29.944000
30
11.526000
70
192
0
VERTEX
8
OBJECT__25
10
52.602001
20
29.445000
30
11.526000
70
192
0
VERTEX
8
OBJECT__25
10
54.102001
20
26.847000
30
11.526000
70
192
0
VERTEX
8
OBJECT__25
10
86.601997
20
29.445000
30
11.526000
70
192
0
VERTEX
8
OBJECT__25
10
91.523003
20
21.920000
30
11.526000
70
192
0
VERTEX
8
OBJECT__25
10
45.561001
20
24.042000
30
11.526000
70
192
0
VERTEX
8
OBJECT__25
10
47.681999
20
21.920000
30
11.526000
70
192
0
VERTEX
8
OBJECT__25
10
99.046997
20
17.000000
30
11.526000
70
192
0
VERTEX
8
OBJECT__25
10
96.448997
20
15.500000
30
11.526000
70
192
0
VERTEX
8
OBJECT__25
10
99.545998
20
8.023000
30
11.526000
70
192
0
VERTEX
8
OBJECT__25
10
93.643997
20
24.042000
30
11.526000
70
192
0
VERTEX
8
OBJECT__25
10
102.444000
20
8.800000
30
11.526000
70
192
0
VERTEX
8
OBJECT__25
10
100.601997
20
0.000000
30
11.526000
70
192
0
VERTEX
8
OBJECT__25
10
40.158001
20
17.000000
30
11.526000
70
192
0
VERTEX
8
OBJECT__25
10
42.756001
20
15.500000
30
11.526000
70
192
0
VERTEX
8
OBJECT__25
10
36.761002
20
8.800000
30
11.526000
70
192
0
VERTEX
8
OBJECT__25
10
39.659000
20
8.023000
30
11.526000
70
192
0
VERTEX
8
OBJECT__25
10
35.602001
20
0.000000
30
11.526000
70
192
0
VERTEX
8
OBJECT__25
10
38.602001
20
0.000000
30
11.526000
70
192
0
VERTEX
8
OBJECT__25
10
36.761002
20
-8.800000
30
11.526000
70
192
0
VERTEX
8
OBJECT__25
10
39.659000
20
-8.023000
30
11.526000
70
192
0
VERTEX
8
OBJECT__25
10
45.561001
20
-24.042000
30
11.526000
70
192
0
VERTEX
8
OBJECT__25
10
52.602001
20
-29.445000
30
11.526000
70
192
0
VERTEX
8
OBJECT__25
10
54.102001
20
-26.847000
30
11.526000
70
192
0
VERTEX
8
OBJECT__25
10
60.803001
20
-32.841000
30
11.526000
70
192
0
VERTEX
8
OBJECT__25
10
61.578999
20
-29.944000
30
11.526000
70
192
0
VERTEX
8
OBJECT__25
10
69.601997
20
-34.000000
30
11.526000
70
192
0
VERTEX
8
OBJECT__25
10
78.402000
20
-32.841000
30
11.526000
70
192
0
VERTEX
8
OBJECT__25
10
77.625999
20
-29.944000
30
11.526000
70
192
0
VERTEX
8
OBJECT__25
10
86.601997
20
-29.445000
30
11.526000
70
192
0
VERTEX
8
OBJECT__25
10
85.101997
20
-26.847000
30
11.526000
70
192
0
VERTEX
8
OBJECT__25
10
40.158001
20
-17.000000
30
11.526000
70
192
0
VERTEX
8
OBJECT__25
10
42.756001
20
-15.500000
30
11.526000
70
192
0
VERTEX
8
OBJECT__25
10
47.681999
20
-21.920000
30
11.526000
70
192
0
VERTEX
8
OBJECT__25
10
69.601997
20
-31.000000
30
11.526000
70
192
0
VERTEX
8
OBJECT__25
10
93.643997
20
-24.042000
30
11.526000
70
192
0
VERTEX
8
OBJECT__25
10
91.523003
20
-21.920000
30
11.526000
70
192
0
VERTEX
8
OBJECT__25
10
102.444000
20
-8.800000
30
11.526000
70
192
0
VERTEX
8
OBJECT__25
10
99.545998
20
-8.023000
30
11.526000
70
192
0
VERTEX
8
OBJECT__25
10
96.448997
20
-15.500000
30
11.526000
70
192
0
VERTEX
8
OBJECT__25
10
103.601997
20
0.000000
30
11.526000
70
192
0
VERTEX
8
OBJECT__25
10
99.046997
20
-17.000000
30
11.526000
70
192
0
VERTEX
8
OBJECT__25
10
0
20
0
30
0
70
128
71
1
72
2
73
3
0
VERTEX
8
OBJECT__25
10
0
20
0
30
0
70
128
71
1
72
4
73
5
0
VERTEX
8
OBJECT__25
10
0
20
0
30
0
70
128
71
4
72
6
73
7
0
VERTEX
8
OBJECT__25
10
0
20
0
30
0
70
128
71
6
72
8
73
9
0
VERTEX
8
OBJECT__25
10
0
20
0
30
0
70
128
71
10
72
3
73
11
0
VERTEX
8
OBJECT__25
10
0
20
0
30
0
70
128
71
5
72
2
73
1
0
VERTEX
8
OBJECT__25
10
0
20
0
30
0
70
128
71
9
72
7
73
6
0
VERTEX
8
OBJECT__25
10
0
20
0
30
0
70
128
71
8
72
12
73
13
0
VERTEX
8
OBJECT__25
10
0
20
0
30
0
70
128
71
14
72
15
73
16
0
VERTEX
8
OBJECT__25
10
0
20
0
30
0
70
128
71
17
72
11
73
15
0
VERTEX
8
OBJECT__25
10
0
20
0
30
0
70
128
71
3
72
10
73
1
0
VERTEX
8
OBJECT__25
10
0
20
0
30
0
70
128
71
13
72
9
73
8
0
VERTEX
8
OBJECT__25
10
0
20
0
30
0
70
128
71
18
72
16
73
19
0
VERTEX
8
OBJECT__25
10
0
20
0
30
0
70
128
71
15
72
14
73
17
0
VERTEX
8
OBJECT__25
10
0
20
0
30
0
70
128
71
7
72
5
73
4
0
VERTEX
8
OBJECT__25
10
0
20
0
30
0
70
128
71
20
72
21
73
13
0
VERTEX
8
OBJECT__25
10
0
20
0
30
0
70
128
71
22
72
23
73
21
0
VERTEX
8
OBJECT__25
10
0
20
0
30
0
70
128
71
24
72
25
73
23
0
VERTEX
8
OBJECT__25
10
0
20
0
30
0
70
128
71
16
72
18
73
14
0
VERTEX
8
OBJECT__25
10
0
20
0
30
0
70
128
71
13
72
12
73
20
0
VERTEX
8
OBJECT__25
10
0
20
0
30
0
70
128
71
23
72
22
73
24
0
VERTEX
8
OBJECT__25
10
0
20
0
30
0
70
128
71
26
72
27
73
25
0
VERTEX
8
OBJECT__25
10
0
20
0
30
0
70
128
71
28
72
29
73
30
0
VERTEX
8
OBJECT__25
10
0
20
0
30
0
70
128
71
29
72
31
73
32
0
VERTEX
8
OBJECT__25
10
0
20
0
30
0
70
128
71
33
72
34
73
35
0
VERTEX
8
OBJECT__25
10
0
20
0
30
0
70
128
71
36
72
37
73
35
0
VERTEX
8
OBJECT__25
10
0
20
0
30
0
70
128
71
11
72
17
73
10
0
VERTEX
8
OBJECT__25
10
0
20
0
30
0
70
128
71
25
72
24
73
26
0
VERTEX
8
OBJECT__25
10
0
20
0
30
0
70
128
71
38
72
39
73
27
0
VERTEX
8
OBJECT__25
10
0
20
0
30
0
70
128
71
38
72
28
73
40
0
VERTEX
8
OBJECT__25
10
0
20
0
30
0
70
128
71
32
72
30
73
29
0
VERTEX
8
OBJECT__25
10
0
20
0
30
0
70
128
71
31
72
33
73
41
0
VERTEX
8
OBJECT__25
10
0
20
0
30
0
70
128
71
35
72
34
73
36
0
VERTEX
8
OBJECT__25
10
0
20
0
30
0
70
128
71
42
72
43
73
37
0
VERTEX
8
OBJECT__25
10
0
20
0
30
0
70
128
71
21
72
20
73
22
0
VERTEX
8
OBJECT__25
10
0
20
0
30
0
70
128
71
40
72
39
73
38
0
VERTEX
8
OBJECT__25
10
0
20
0
30
0
70
128
71
41
72
32
73
31
0
VERTEX
8
OBJECT__25
10
0
20
0
30
0
70
128
71
37
72
36
73
42
0
VERTEX
8
OBJECT__25
10
0
20
0
30
0
70
128
71
44
72
45
73
46
0
VERTEX
8
OBJECT__25
10
0
20
0
30
0
70
128
71
44
72
47
73
19
0
VERTEX
8
OBJECT__25
10
0
20
0
30
0
70
128
71
27
72
26
73
38
0
VERTEX
8
OBJECT__25
10
0
20
0
30
0
70
128
71
35
72
41
73
33
0
VERTEX
8
OBJECT__25
10
0
20
0
30
0
70
128
71
48
72
46
73
43
0
VERTEX
8
OBJECT__25
10
0
20
0
30
0
70
128
71
19
72
45
73
44
0
VERTEX
8
OBJECT__25
10
0
20
0
30
0
70
128
71
30
72
40
73
28
0
VERTEX
8
OBJECT__25
10
0
20
0
30
0
70
128
71
46
72
48
73
44
0
VERTEX
8
OBJECT__25
10
0
20
0
30
0
70
128
71
43
72
42
73
48
0
VERTEX
8
OBJECT__25
10
0
20
0
30
0
70
128
71
19
72
47
73
18
0
SEQEND
8
OBJECT__25
0
POLYLINE
8
OBJECT__26
66
1
70
64
71
26
72
24
62
253
0
VERTEX
8
OBJECT__26
10
102.444000
20
-8.800000
30
11.526000
70
192
0
VERTEX
8
OBJECT__26
10
102.444000
20
-8.800000
30
10.576000
70
192
0
VERTEX
8
OBJECT__26
10
103.601997
20
0.000000
30
10.576000
70
192
0
VERTEX
8
OBJECT__26
10
99.046997
20
-17.000000
30
11.526000
70
192
0
VERTEX
8
OBJECT__26
10
99.046997
20
-17.000000
30
10.576000
70
192
0
VERTEX
8
OBJECT__26
10
93.643997
20
-24.042000
30
11.526000
70
192
0
VERTEX
8
OBJECT__26
10
93.643997
20
-24.042000
30
10.576000
70
192
0
VERTEX
8
OBJECT__26
10
86.601997
20
-29.445000
30
11.526000
70
192
0
VERTEX
8
OBJECT__26
10
86.601997
20
-29.445000
30
10.576000
70
192
0
VERTEX
8
OBJECT__26
10
78.402000
20
-32.841000
30
11.526000
70
192
0
VERTEX
8
OBJECT__26
10
78.402000
20
-32.841000
30
10.576000
70
192
0
VERTEX
8
OBJECT__26
10
69.601997
20
-34.000000
30
11.526000
70
192
0
VERTEX
8
OBJECT__26
10
69.601997
20
-34.000000
30
10.576000
70
192
0
VERTEX
8
OBJECT__26
10
60.803001
20
-32.841000
30
11.526000
70
192
0
VERTEX
8
OBJECT__26
10
60.803001
20
-32.841000
30
10.576000
70
192
0
VERTEX
8
OBJECT__26
10
52.602001
20
-29.445000
30
11.526000
70
192
0
VERTEX
8
OBJECT__26
10
52.602001
20
-29.445000
30
10.576000
70
192
0
VERTEX
8
OBJECT__26
10
45.561001
20
-24.042000
30
11.526000
70
192
0
VERTEX
8
OBJECT__26
10
45.561001
20
-24.042000
30
10.576000
70
192
0
VERTEX
8
OBJECT__26
10
40.158001
20
-17.000000
30
11.526000
70
192
0
VERTEX
8
OBJECT__26
10
40.158001
20
-17.000000
30
10.576000
70
192
0
VERTEX
8
OBJECT__26
10
36.761002
20
-8.800000
30
11.526000
70
192
0
VERTEX
8
OBJECT__26
10
36.761002
20
-8.800000
30
10.576000
70
192
0
VERTEX
8
OBJECT__26
10
35.602001
20
0.000000
30
11.526000
70
192
0
VERTEX
8
OBJECT__26
10
35.602001
20
0.000000
30
10.576000
70
192
0
VERTEX
8
OBJECT__26
10
103.601997
20
0.000000
30
11.526000
70
192
0
VERTEX
8
OBJECT__26
10
0
20
0
30
0
70
128
71
1
72
2
73
3
0
VERTEX
8
OBJECT__26
10
0
20
0
30
0
70
128
71
4
72
5
73
2
0
VERTEX
8
OBJECT__26
10
0
20
0
30
0
70
128
71
6
72
7
73
5
0
VERTEX
8
OBJECT__26
10
0
20
0
30
0
70
128
71
8
72
9
73
7
0
VERTEX
8
OBJECT__26
10
0
20
0
30
0
70
128
71
10
72
11
73
9
0
VERTEX
8
OBJECT__26
10
0
20
0
30
0
70
128
71
12
72
13
73
11
0
VERTEX
8
OBJECT__26
10
0
20
0
30
0
70
128
71
14
72
15
73
13
0
VERTEX
8
OBJECT__26
10
0
20
0
30
0
70
128
71
16
72
17
73
15
0
VERTEX
8
OBJECT__26
10
0
20
0
30
0
70
128
71
18
72
19
73
17
0
VERTEX
8
OBJECT__26
10
0
20
0
30
0
70
128
71
20
72
21
73
19
0
VERTEX
8
OBJECT__26
10
0
20
0
30
0
70
128
71
22
72
23
73
21
0
VERTEX
8
OBJECT__26
10
0
20
0
30
0
70
128
71
24
72
25
73
23
0
VERTEX
8
OBJECT__26
10
0
20
0
30
0
70
128
71
23
72
22
73
24
0
VERTEX
8
OBJECT__26
10
0
20
0
30
0
70
128
71
21
72
20
73
22
0
VERTEX
8
OBJECT__26
10
0
20
0
30
0
70
128
71
19
72
18
73
20
0
VERTEX
8
OBJECT__26
10
0
20
0
30
0
70
128
71
17
72
16
73
18
0
VERTEX
8
OBJECT__26
10
0
20
0
30
0
70
128
71
15
72
14
73
16
0
VERTEX
8
OBJECT__26
10
0
20
0
30
0
70
128
71
13
72
12
73
14
0
VERTEX
8
OBJECT__26
10
0
20
0
30
0
70
128
71
11
72
10
73
12
0
VERTEX
8
OBJECT__26
10
0
20
0
30
0
70
128
71
9
72
8
73
10
0
VERTEX
8
OBJECT__26
10
0
20
0
30
0
70
128
71
7
72
6
73
8
0
VERTEX
8
OBJECT__26
10
0
20
0
30
0
70
128
71
5
72
4
73
6
0
VERTEX
8
OBJECT__26
10
0
20
0
30
0
70
128
71
2
72
1
73
4
0
VERTEX
8
OBJECT__26
10
0
20
0
30
0
70
128
71
3
72
26
73
1
0
SEQEND
8
OBJECT__26
0
POLYLINE
8
OBJECT__27
66
1
70
64
71
26
72
24
62
253
0
VERTEX
8
OBJECT__27
10
36.761002
20
8.800000
30
11.526000
70
192
0
VERTEX
8
OBJECT__27
10
36.761002
20
8.800000
30
10.576000
70
192
0
VERTEX
8
OBJECT__27
10
35.602001
20
0.000000
30
10.576000
70
192
0
VERTEX
8
OBJECT__27
10
40.158001
20
17.000000
30
11.526000
70
192
0
VERTEX
8
OBJECT__27
10
40.158001
20
17.000000
30
10.576000
70
192
0
VERTEX
8
OBJECT__27
10
45.561001
20
24.042000
30
11.526000
70
192
0
VERTEX
8
OBJECT__27
10
45.561001
20
24.042000
30
10.576000
70
192
0
VERTEX
8
OBJECT__27
10
52.602001
20
29.445000
30
10.576000
70
192
0
VERTEX
8
OBJECT__27
10
60.803001
20
32.841000
30
11.526000
70
192
0
VERTEX
8
OBJECT__27
10
60.803001
20
32.841000
30
10.576000
70
192
0
VERTEX
8
OBJECT__27
10
69.601997
20
34.000000
30
10.576000
70
192
0
VERTEX
8
OBJECT__27
10
78.402000
20
32.841000
30
10.576000
70
192
0
VERTEX
8
OBJECT__27
10
69.601997
20
34.000000
30
11.526000
70
192
0
VERTEX
8
OBJECT__27
10
86.601997
20
29.445000
30
11.526000
70
192
0
VERTEX
8
OBJECT__27
10
86.601997
20
29.445000
30
10.576000
70
192
0
VERTEX
8
OBJECT__27
10
93.643997
20
24.042000
30
10.576000
70
192
0
VERTEX
8
OBJECT__27
10
99.046997
20
17.000000
30
11.526000
70
192
0
VERTEX
8
OBJECT__27
10
99.046997
20
17.000000
30
10.576000
70
192
0
VERTEX
8
OBJECT__27
10
102.444000
20
8.800000
30
11.526000
70
192
0
VERTEX
8
OBJECT__27
10
102.444000
20
8.800000
30
10.576000
70
192
0
VERTEX
8
OBJECT__27
10
103.601997
20
0.000000
30
11.526000
70
192
0
VERTEX
8
OBJECT__27
10
103.601997
20
0.000000
30
10.576000
70
192
0
VERTEX
8
OBJECT__27
10
93.643997
20
24.042000
30
11.526000
70
192
0
VERTEX
8
OBJECT__27
10
78.402000
20
32.841000
30
11.526000
70
192
0
VERTEX
8
OBJECT__27
10
52.602001
20
29.445000
30
11.526000
70
192
0
VERTEX
8
OBJECT__27
10
35.602001
20
0.000000
30
11.526000
70
192
0
VERTEX
8
OBJECT__27
10
0
20
0
30
0
70
128
71
1
72
2
73
3
0
VERTEX
8
OBJECT__27
10
0
20
0
30
0
70
128
71
4
72
5
73
2
0
VERTEX
8
OBJECT__27
10
0
20
0
30
0
70
128
71
6
72
7
73
5
0
VERTEX
8
OBJECT__27
10
0
20
0
30
0
70
128
71
8
72
7
73
6
0
VERTEX
8
OBJECT__27
10
0
20
0
30
0
70
128
71
9
72
10
73
8
0
VERTEX
8
OBJECT__27
10
0
20
0
30
0
70
128
71
11
72
10
73
9
0
VERTEX
8
OBJECT__27
10
0
20
0
30
0
70
128
71
12
72
11
73
13
0
VERTEX
8
OBJECT__27
10
0
20
0
30
0
70
128
71
14
72
15
73
12
0
VERTEX
8
OBJECT__27
10
0
20
0
30
0
70
128
71
16
72
15
73
14
0
VERTEX
8
OBJECT__27
10
0
20
0
30
0
70
128
71
17
72
18
73
16
0
VERTEX
8
OBJECT__27
10
0
20
0
30
0
70
128
71
19
72
20
73
18
0
VERTEX
8
OBJECT__27
10
0
20
0
30
0
70
128
71
21
72
22
73
20
0
VERTEX
8
OBJECT__27
10
0
20
0
30
0
70
128
71
20
72
19
73
21
0
VERTEX
8
OBJECT__27
10
0
20
0
30
0
70
128
71
18
72
17
73
19
0
VERTEX
8
OBJECT__27
10
0
20
0
30
0
70
128
71
16
72
23
73
17
0
VERTEX
8
OBJECT__27
10
0
20
0
30
0
70
128
71
14
72
23
73
16
0
VERTEX
8
OBJECT__27
10
0
20
0
30
0
70
128
71
12
72
24
73
14
0
VERTEX
8
OBJECT__27
10
0
20
0
30
0
70
128
71
13
72
24
73
12
0
VERTEX
8
OBJECT__27
10
0
20
0
30
0
70
128
71
9
72
13
73
11
0
VERTEX
8
OBJECT__27
10
0
20
0
30
0
70
128
71
8
72
25
73
9
0
VERTEX
8
OBJECT__27
10
0
20
0
30
0
70
128
71
6
72
25
73
8
0
VERTEX
8
OBJECT__27
10
0
20
0
30
0
70
128
71
5
72
4
73
6
0
VERTEX
8
OBJECT__27
10
0
20
0
30
0
70
128
71
2
72
1
73
4
0
VERTEX
8
OBJECT__27
10
0
20
0
30
0
70
128
71
3
72
26
73
1
0
SEQEND
8
OBJECT__27
0
POLYLINE
8
OBJECT__28
66
1
70
64
71
26
72
24
62
253
0
VERTEX
8
OBJECT__28
10
100.463997
20
-8.269000
30
10.576000
70
192
0
VERTEX
8
OBJECT__28
10
100.463997
20
-8.269000
30
-10.524000
70
192
0
VERTEX
8
OBJECT__28
10
101.552002
20
0.000000
30
-10.524000
70
192
0
VERTEX
8
OBJECT__28
10
97.272003
20
-15.975000
30
10.576000
70
192
0
VERTEX
8
OBJECT__28
10
97.272003
20
-15.975000
30
-10.524000
70
192
0
VERTEX
8
OBJECT__28
10
92.195000
20
-22.591999
30
10.576000
70
192
0
VERTEX
8
OBJECT__28
10
92.195000
20
-22.591999
30
-10.524000
70
192
0
VERTEX
8
OBJECT__28
10
85.577003
20
-27.670000
30
10.576000
70
192
0
VERTEX
8
OBJECT__28
10
85.577003
20
-27.670000
30
-10.524000
70
192
0
VERTEX
8
OBJECT__28
10
77.872002
20
-30.861000
30
10.576000
70
192
0
VERTEX
8
OBJECT__28
10
77.872002
20
-30.861000
30
-10.524000
70
192
0
VERTEX
8
OBJECT__28
10
69.601997
20
-31.950001
30
10.576000
70
192
0
VERTEX
8
OBJECT__28
10
69.601997
20
-31.950001
30
-10.524000
70
192
0
VERTEX
8
OBJECT__28
10
61.333000
20
-30.861000
30
10.576000
70
192
0
VERTEX
8
OBJECT__28
10
61.333000
20
-30.861000
30
-10.524000
70
192
0
VERTEX
8
OBJECT__28
10
53.626999
20
-27.670000
30
10.576000
70
192
0
VERTEX
8
OBJECT__28
10
53.626999
20
-27.670000
30
-10.524000
70
192
0
VERTEX
8
OBJECT__28
10
47.009998
20
-22.591999
30
10.576000
70
192
0
VERTEX
8
OBJECT__28
10
47.009998
20
-22.591999
30
-10.524000
70
192
0
VERTEX
8
OBJECT__28
10
41.932999
20
-15.975000
30
10.576000
70
192
0
VERTEX
8
OBJECT__28
10
41.932999
20
-15.975000
30
-10.524000
70
192
0
VERTEX
8
OBJECT__28
10
38.741001
20
-8.269000
30
10.576000
70
192
0
VERTEX
8
OBJECT__28
10
38.741001
20
-8.269000
30
-10.524000
70
192
0
VERTEX
8
OBJECT__28
10
37.652000
20
0.000000
30
10.576000
70
192
0
VERTEX
8
OBJECT__28
10
37.652000
20
0.000000
30
-10.524000
70
192
0
VERTEX
8
OBJECT__28
10
101.552002
20
0.000000
30
10.576000
70
192
0
VERTEX
8
OBJECT__28
10
0
20
0
30
0
70
128
71
1
72
2
73
3
0
VERTEX
8
OBJECT__28
10
0
20
0
30
0
70
128
71
4
72
5
73
2
0
VERTEX
8
OBJECT__28
10
0
20
0
30
0
70
128
71
6
72
7
73
5
0
VERTEX
8
OBJECT__28
10
0
20
0
30
0
70
128
71
8
72
9
73
7
0
VERTEX
8
OBJECT__28
10
0
20
0
30
0
70
128
71
10
72
11
73
9
0
VERTEX
8
OBJECT__28
10
0
20
0
30
0
70
128
71
12
72
13
73
11
0
VERTEX
8
OBJECT__28
10
0
20
0
30
0
70
128
71
14
72
15
73
13
0
VERTEX
8
OBJECT__28
10
0
20
0
30
0
70
128
71
16
72
17
73
15
0
VERTEX
8
OBJECT__28
10
0
20
0
30
0
70
128
71
18
72
19
73
17
0
VERTEX
8
OBJECT__28
10
0
20
0
30
0
70
128
71
20
72
21
73
19
0
VERTEX
8
OBJECT__28
10
0
20
0
30
0
70
128
71
22
72
23
73
21
0
VERTEX
8
OBJECT__28
10
0
20
0
30
0
70
128
71
24
72
25
73
23
0
VERTEX
8
OBJECT__28
10
0
20
0
30
0
70
128
71
23
72
22
73
24
0
VERTEX
8
OBJECT__28
10
0
20
0
30
0
70
128
71
21
72
20
73
22
0
VERTEX
8
OBJECT__28
10
0
20
0
30
0
70
128
71
19
72
18
73
20
0
VERTEX
8
OBJECT__28
10
0
20
0
30
0
70
128
71
17
72
16
73
18
0
VERTEX
8
OBJECT__28
10
0
20
0
30
0
70
128
71
15
72
14
73
16
0
VERTEX
8
OBJECT__28
10
0
20
0
30
0
70
128
71
13
72
12
73
14
0
VERTEX
8
OBJECT__28
10
0
20
0
30
0
70
128
71
11
72
10
73
12
0
VERTEX
8
OBJECT__28
10
0
20
0
30
0
70
128
71
9
72
8
73
10
0
VERTEX
8
OBJECT__28
10
0
20
0
30
0
70
128
71
7
72
6
73
8
0
VERTEX
8
OBJECT__28
10
0
20
0
30
0
70
128
71
5
72
4
73
6
0
VERTEX
8
OBJECT__28
10
0
20
0
30
0
70
128
71
2
72
1
73
4
0
VERTEX
8
OBJECT__28
10
0
20
0
30
0
70
128
71
3
72
26
73
1
0
SEQEND
8
OBJECT__28
0
POLYLINE
8
OBJECT__29
66
1
70
64
71
26
72
24
62
253
0
VERTEX
8
OBJECT__29
10
38.741001
20
8.269000
30
10.576000
70
192
0
VERTEX
8
OBJECT__29
10
38.741001
20
8.269000
30
-10.524000
70
192
0
VERTEX
8
OBJECT__29
10
37.652000
20
0.000000
30
-10.524000
70
192
0
VERTEX
8
OBJECT__29
10
41.932999
20
15.975000
30
10.576000
70
192
0
VERTEX
8
OBJECT__29
10
41.932999
20
15.975000
30
-10.524000
70
192
0
VERTEX
8
OBJECT__29
10
47.009998
20
22.591999
30
10.576000
70
192
0
VERTEX
8
OBJECT__29
10
47.009998
20
22.591999
30
-10.524000
70
192
0
VERTEX
8
OBJECT__29
10
53.626999
20
27.670000
30
-10.524000
70
192
0
VERTEX
8
OBJECT__29
10
61.333000
20
30.861000
30
10.576000
70
192
0
VERTEX
8
OBJECT__29
10
61.333000
20
30.861000
30
-10.524000
70
192
0
VERTEX
8
OBJECT__29
10
69.601997
20
31.950001
30
-10.524000
70
192
0
VERTEX
8
OBJECT__29
10
77.872002
20
30.861000
30
-10.524000
70
192
0
VERTEX
8
OBJECT__29
10
69.601997
20
31.950001
30
10.576000
70
192
0
VERTEX
8
OBJECT__29
10
85.577003
20
27.670000
30
10.576000
70
192
0
VERTEX
8
OBJECT__29
10
85.577003
20
27.670000
30
-10.524000
70
192
0
VERTEX
8
OBJECT__29
10
92.195000
20
22.591999
30
-10.524000
70
192
0
VERTEX
8
OBJECT__29
10
97.272003
20
15.975000
30
10.576000
70
192
0
VERTEX
8
OBJECT__29
10
97.272003
20
15.975000
30
-10.524000
70
192
0
VERTEX
8
OBJECT__29
10
100.463997
20
8.269000
30
10.576000
70
192
0
VERTEX
8
OBJECT__29
10
100.463997
20
8.269000
30
-10.524000
70
192
0
VERTEX
8
OBJECT__29
10
101.552002
20
0.000000
30
10.576000
70
192
0
VERTEX
8
OBJECT__29
10
101.552002
20
0.000000
30
-10.524000
70
192
0
VERTEX
8
OBJECT__29
10
92.195000
20
22.591999
30
10.576000
70
192
0
VERTEX
8
OBJECT__29
10
77.872002
20
30.861000
30
10.576000
70
192
0
VERTEX
8
OBJECT__29
10
53.626999
20
27.670000
30
10.576000
70
192
0
VERTEX
8
OBJECT__29
10
37.652000
20
0.000000
30
10.576000
70
192
0
VERTEX
8
OBJECT__29
10
0
20
0
30
0
70
128
71
1
72
2
73
3
0
VERTEX
8
OBJECT__29
10
0
20
0
30
0
70
128
71
4
72
5
73
2
0
VERTEX
8
OBJECT__29
10
0
20
0
30
0
70
128
71
6
72
7
73
5
0
VERTEX
8
OBJECT__29
10
0
20
0
30
0
70
128
71
8
72
7
73
6
0
VERTEX
8
OBJECT__29
10
0
20
0
30
0
70
128
71
9
72
10
73
8
0
VERTEX
8
OBJECT__29
10
0
20
0
30
0
70
128
71
11
72
10
73
9
0
VERTEX
8
OBJECT__29
10
0
20
0
30
0
70
128
71
12
72
11
73
13
0
VERTEX
8
OBJECT__29
10
0
20
0
30
0
70
128
71
14
72
15
73
12
0
VERTEX
8
OBJECT__29
10
0
20
0
30
0
70
128
71
16
72
15
73
14
0
VERTEX
8
OBJECT__29
10
0
20
0
30
0
70
128
71
17
72
18
73
16
0
VERTEX
8
OBJECT__29
10
0
20
0
30
0
70
128
71
19
72
20
73
18
0
VERTEX
8
OBJECT__29
10
0
20
0
30
0
70
128
71
21
72
22
73
20
0
VERTEX
8
OBJECT__29
10
0
20
0
30
0
70
128
71
20
72
19
73
21
0
VERTEX
8
OBJECT__29
10
0
20
0
30
0
70
128
71
18
72
17
73
19
0
VERTEX
8
OBJECT__29
10
0
20
0
30
0
70
128
71
16
72
23
73
17
0
VERTEX
8
OBJECT__29
10
0
20
0
30
0
70
128
71
14
72
23
73
16
0
VERTEX
8
OBJECT__29
10
0
20
0
30
0
70
128
71
12
72
24
73
14
0
VERTEX
8
OBJECT__29
10
0
20
0
30
0
70
128
71
13
72
24
73
12
0
VERTEX
8
OBJECT__29
10
0
20
0
30
0
70
128
71
9
72
13
73
11
0
VERTEX
8
OBJECT__29
10
0
20
0
30
0
70
128
71
8
72
25
73
9
0
VERTEX
8
OBJECT__29
10
0
20
0
30
0
70
128
71
6
72
25
73
8
0
VERTEX
8
OBJECT__29
10
0
20
0
30
0
70
128
71
5
72
4
73
6
0
VERTEX
8
OBJECT__29
10
0
20
0
30
0
70
128
71
2
72
1
73
4
0
VERTEX
8
OBJECT__29
10
0
20
0
30
0
70
128
71
3
72
26
73
1
0
SEQEND
8
OBJECT__29
0
ENDSEC
0
EOF
