999
Converted by 3D Exploration 
999
XDimension Software, LLC
999
http://www.xdsoft.com/explorer/
0
SECTION
2
HEADER
9
$ACADVER
1
AC1008
9
$UCSORG
10
0.0
20
0.0
30
0.0
9
$UCSXDIR
10
1.0
20
0.0
30
0.0
9
$TILEMODE
70
1
9
$UCSYDIR
10
0.0
20
1.0
30
0.0
9
$EXTMIN
10
0.000000
20
-30.000000
30
-30.000000
9
$EXTMAX
10
426.000000
20
30.000000
30
23.000000
0
ENDSEC
0
SECTION
2
TABLES
0
TABLE
2
LTYPE
70
1
0
LTYPE
2
CONTINUOUS
70
64
3
Solid line
72
65
73
0
40
0.0
0
ENDTAB
0
TABLE
2
LAYER
70
36
0
LAYER
2
OBJECT__0
70
0
62
253
6
CONTINUOUS
0
LAYER
2
OBJECT__1
70
0
62
253
6
CONTINUOUS
0
LAYER
2
OBJECT__3
70
0
62
253
6
CONTINUOUS
0
LAYER
2
OBJECT__4
70
0
62
253
6
CONTINUOUS
0
LAYER
2
OBJECT__5
70
0
62
253
6
CONTINUOUS
0
LAYER
2
OBJECT__6
70
0
62
253
6
CONTINUOUS
0
LAYER
2
OBJECT__7
70
0
62
253
6
CONTINUOUS
0
LAYER
2
OBJECT__8
70
0
62
253
6
CONTINUOUS
0
LAYER
2
OBJECT__9
70
0
62
253
6
CONTINUOUS
0
LAYER
2
OBJECT__10
70
0
62
253
6
CONTINUOUS
0
LAYER
2
OBJECT__11
70
0
62
253
6
CONTINUOUS
0
LAYER
2
OBJECT__12
70
0
62
253
6
CONTINUOUS
0
LAYER
2
OBJECT__13
70
0
62
253
6
CONTINUOUS
0
LAYER
2
OBJECT__14
70
0
62
253
6
CONTINUOUS
0
LAYER
2
OBJECT__15
70
0
62
253
6
CONTINUOUS
0
LAYER
2
OBJECT__16
70
0
62
253
6
CONTINUOUS
0
LAYER
2
OBJECT__18
70
0
62
253
6
CONTINUOUS
0
LAYER
2
OBJECT__19
70
0
62
253
6
CONTINUOUS
0
LAYER
2
OBJECT__21
70
0
62
253
6
CONTINUOUS
0
LAYER
2
OBJECT__22
70
0
62
253
6
CONTINUOUS
0
LAYER
2
OBJECT__23
70
0
62
253
6
CONTINUOUS
0
LAYER
2
OBJECT__24
70
0
62
253
6
CONTINUOUS
0
LAYER
2
OBJECT__25
70
0
62
253
6
CONTINUOUS
0
LAYER
2
OBJECT__26
70
0
62
253
6
CONTINUOUS
0
LAYER
2
OBJECT__28
70
0
62
253
6
CONTINUOUS
0
LAYER
2
OBJECT__29
70
0
62
253
6
CONTINUOUS
0
LAYER
2
OBJECT__30
70
0
62
253
6
CONTINUOUS
0
LAYER
2
OBJECT__32
70
0
62
253
6
CONTINUOUS
0
LAYER
2
OBJECT__33
70
0
62
253
6
CONTINUOUS
0
LAYER
2
OBJECT__34
70
0
62
253
6
CONTINUOUS
0
LAYER
2
OBJECT__35
70
0
62
253
6
CONTINUOUS
0
ENDTAB
0
TABLE
2
STYLE
70
1
0
STYLE
2
STANDARD
70
0
40
0.0
41
1.0
50
0.0
71
0
42
0.2
3
txt
4
1
0
ENDTAB
0
TABLE
2
UCS
70
0
0
ENDTAB
0
ENDSEC
0
SECTION
2
ENTITIES
0
POLYLINE
8
OBJECT__0
66
1
70
64
71
4
72
2
62
253
0
VERTEX
8
OBJECT__0
10
34.000000
20
30.000000
30
-34.799999
70
192
0
VERTEX
8
OBJECT__0
10
34.000000
20
30.000000
30
-18.799999
70
192
0
VERTEX
8
OBJECT__0
10
426.000000
20
30.000000
30
-18.799999
70
192
0
VERTEX
8
OBJECT__0
10
426.000000
20
30.000000
30
-34.799999
70
192
0
VERTEX
8
OBJECT__0
10
0
20
0
30
0
70
128
71
1
72
2
73
3
0
VERTEX
8
OBJECT__0
10
0
20
0
30
0
70
128
71
3
72
4
73
1
0
SEQEND
8
OBJECT__0
0
POLYLINE
8
OBJECT__1
66
1
70
64
71
4
72
2
62
253
0
VERTEX
8
OBJECT__1
10
426.000000
20
30.000000
30
-34.799999
70
192
0
VERTEX
8
OBJECT__1
10
426.000000
20
30.000000
30
-18.799999
70
192
0
VERTEX
8
OBJECT__1
10
426.000000
20
24.000000
30
-18.799999
70
192
0
VERTEX
8
OBJECT__1
10
426.000000
20
24.000000
30
-34.799999
70
192
0
VERTEX
8
OBJECT__1
10
0
20
0
30
0
70
128
71
1
72
2
73
3
0
VERTEX
8
OBJECT__1
10
0
20
0
30
0
70
128
71
3
72
4
73
1
0
SEQEND
8
OBJECT__1
0
POLYLINE
8
OBJECT__3
66
1
70
64
71
4
72
2
62
253
0
VERTEX
8
OBJECT__3
10
34.000000
20
24.000000
30
-18.799999
70
192
0
VERTEX
8
OBJECT__3
10
34.000000
20
24.000000
30
-34.799999
70
192
0
VERTEX
8
OBJECT__3
10
426.000000
20
24.000000
30
-34.799999
70
192
0
VERTEX
8
OBJECT__3
10
426.000000
20
24.000000
30
-18.799999
70
192
0
VERTEX
8
OBJECT__3
10
0
20
0
30
0
70
128
71
1
72
2
73
3
0
VERTEX
8
OBJECT__3
10
0
20
0
30
0
70
128
71
3
72
4
73
1
0
SEQEND
8
OBJECT__3
0
POLYLINE
8
OBJECT__4
66
1
70
64
71
6
72
4
62
253
0
VERTEX
8
OBJECT__4
10
30.464001
20
22.535999
30
-18.799999
70
192
0
VERTEX
8
OBJECT__4
10
30.464001
20
22.535999
30
-34.799999
70
192
0
VERTEX
8
OBJECT__4
10
34.000000
20
24.000000
30
-34.799999
70
192
0
VERTEX
8
OBJECT__4
10
29.000000
20
19.000000
30
-18.799999
70
192
0
VERTEX
8
OBJECT__4
10
29.000000
20
19.000000
30
-34.799999
70
192
0
VERTEX
8
OBJECT__4
10
34.000000
20
24.000000
30
-18.799999
70
192
0
VERTEX
8
OBJECT__4
10
0
20
0
30
0
70
128
71
1
72
2
73
3
0
VERTEX
8
OBJECT__4
10
0
20
0
30
0
70
128
71
4
72
5
73
2
0
VERTEX
8
OBJECT__4
10
0
20
0
30
0
70
128
71
2
72
1
73
4
0
VERTEX
8
OBJECT__4
10
0
20
0
30
0
70
128
71
3
72
6
73
1
0
SEQEND
8
OBJECT__4
0
POLYLINE
8
OBJECT__5
66
1
70
64
71
4
72
2
62
253
0
VERTEX
8
OBJECT__5
10
29.000000
20
-19.000000
30
-18.799999
70
192
0
VERTEX
8
OBJECT__5
10
29.000000
20
-19.000000
30
-34.799999
70
192
0
VERTEX
8
OBJECT__5
10
29.000000
20
19.000000
30
-34.799999
70
192
0
VERTEX
8
OBJECT__5
10
29.000000
20
19.000000
30
-18.799999
70
192
0
VERTEX
8
OBJECT__5
10
0
20
0
30
0
70
128
71
1
72
2
73
3
0
VERTEX
8
OBJECT__5
10
0
20
0
30
0
70
128
71
3
72
4
73
1
0
SEQEND
8
OBJECT__5
0
POLYLINE
8
OBJECT__6
66
1
70
64
71
6
72
4
62
253
0
VERTEX
8
OBJECT__6
10
30.464001
20
-22.535999
30
-18.799999
70
192
0
VERTEX
8
OBJECT__6
10
30.464001
20
-22.535999
30
-34.799999
70
192
0
VERTEX
8
OBJECT__6
10
29.000000
20
-19.000000
30
-34.799999
70
192
0
VERTEX
8
OBJECT__6
10
34.000000
20
-24.000000
30
-18.799999
70
192
0
VERTEX
8
OBJECT__6
10
34.000000
20
-24.000000
30
-34.799999
70
192
0
VERTEX
8
OBJECT__6
10
29.000000
20
-19.000000
30
-18.799999
70
192
0
VERTEX
8
OBJECT__6
10
0
20
0
30
0
70
128
71
1
72
2
73
3
0
VERTEX
8
OBJECT__6
10
0
20
0
30
0
70
128
71
4
72
5
73
2
0
VERTEX
8
OBJECT__6
10
0
20
0
30
0
70
128
71
2
72
1
73
4
0
VERTEX
8
OBJECT__6
10
0
20
0
30
0
70
128
71
3
72
6
73
1
0
SEQEND
8
OBJECT__6
0
POLYLINE
8
OBJECT__7
66
1
70
64
71
4
72
2
62
253
0
VERTEX
8
OBJECT__7
10
34.000000
20
-24.000000
30
-34.799999
70
192
0
VERTEX
8
OBJECT__7
10
34.000000
20
-24.000000
30
-18.799999
70
192
0
VERTEX
8
OBJECT__7
10
426.000000
20
-24.000000
30
-18.799999
70
192
0
VERTEX
8
OBJECT__7
10
426.000000
20
-24.000000
30
-34.799999
70
192
0
VERTEX
8
OBJECT__7
10
0
20
0
30
0
70
128
71
1
72
2
73
3
0
VERTEX
8
OBJECT__7
10
0
20
0
30
0
70
128
71
3
72
4
73
1
0
SEQEND
8
OBJECT__7
0
POLYLINE
8
OBJECT__8
66
1
70
64
71
4
72
2
62
253
0
VERTEX
8
OBJECT__8
10
426.000000
20
-24.000000
30
-34.799999
70
192
0
VERTEX
8
OBJECT__8
10
426.000000
20
-24.000000
30
-18.799999
70
192
0
VERTEX
8
OBJECT__8
10
426.000000
20
-30.000000
30
-18.799999
70
192
0
VERTEX
8
OBJECT__8
10
426.000000
20
-30.000000
30
-34.799999
70
192
0
VERTEX
8
OBJECT__8
10
0
20
0
30
0
70
128
71
1
72
2
73
3
0
VERTEX
8
OBJECT__8
10
0
20
0
30
0
70
128
71
3
72
4
73
1
0
SEQEND
8
OBJECT__8
0
POLYLINE
8
OBJECT__9
66
1
70
64
71
4
72
2
62
253
0
VERTEX
8
OBJECT__9
10
426.000000
20
-30.000000
30
-34.799999
70
192
0
VERTEX
8
OBJECT__9
10
426.000000
20
-30.000000
30
-18.799999
70
192
0
VERTEX
8
OBJECT__9
10
34.000000
20
-30.000000
30
-18.799999
70
192
0
VERTEX
8
OBJECT__9
10
34.000000
20
-30.000000
30
-34.799999
70
192
0
VERTEX
8
OBJECT__9
10
0
20
0
30
0
70
128
71
1
72
2
73
3
0
VERTEX
8
OBJECT__9
10
0
20
0
30
0
70
128
71
3
72
4
73
1
0
SEQEND
8
OBJECT__9
0
POLYLINE
8
OBJECT__10
66
1
70
64
71
16
72
14
62
253
0
VERTEX
8
OBJECT__10
10
23.000000
20
19.000000
30
-18.799999
70
192
0
VERTEX
8
OBJECT__10
10
29.000000
20
19.000000
30
-18.799999
70
192
0
VERTEX
8
OBJECT__10
10
30.464001
20
22.535999
30
-18.799999
70
192
0
VERTEX
8
OBJECT__10
10
23.000000
20
-19.000000
30
-18.799999
70
192
0
VERTEX
8
OBJECT__10
10
29.000000
20
-19.000000
30
-18.799999
70
192
0
VERTEX
8
OBJECT__10
10
26.222000
20
-26.778000
30
-18.799999
70
192
0
VERTEX
8
OBJECT__10
10
30.464001
20
-22.535999
30
-18.799999
70
192
0
VERTEX
8
OBJECT__10
10
34.000000
20
-30.000000
30
-18.799999
70
192
0
VERTEX
8
OBJECT__10
10
34.000000
20
-24.000000
30
-18.799999
70
192
0
VERTEX
8
OBJECT__10
10
426.000000
20
-24.000000
30
-18.799999
70
192
0
VERTEX
8
OBJECT__10
10
426.000000
20
30.000000
30
-18.799999
70
192
0
VERTEX
8
OBJECT__10
10
34.000000
20
30.000000
30
-18.799999
70
192
0
VERTEX
8
OBJECT__10
10
34.000000
20
24.000000
30
-18.799999
70
192
0
VERTEX
8
OBJECT__10
10
26.222000
20
26.778000
30
-18.799999
70
192
0
VERTEX
8
OBJECT__10
10
426.000000
20
-30.000000
30
-18.799999
70
192
0
VERTEX
8
OBJECT__10
10
426.000000
20
24.000000
30
-18.799999
70
192
0
VERTEX
8
OBJECT__10
10
0
20
0
30
0
70
128
71
1
72
2
73
3
0
VERTEX
8
OBJECT__10
10
0
20
0
30
0
70
128
71
4
72
5
73
2
0
VERTEX
8
OBJECT__10
10
0
20
0
30
0
70
128
71
2
72
1
73
4
0
VERTEX
8
OBJECT__10
10
0
20
0
30
0
70
128
71
6
72
7
73
5
0
VERTEX
8
OBJECT__10
10
0
20
0
30
0
70
128
71
6
72
8
73
9
0
VERTEX
8
OBJECT__10
10
0
20
0
30
0
70
128
71
10
72
9
73
8
0
VERTEX
8
OBJECT__10
10
0
20
0
30
0
70
128
71
11
72
12
73
13
0
VERTEX
8
OBJECT__10
10
0
20
0
30
0
70
128
71
14
72
3
73
13
0
VERTEX
8
OBJECT__10
10
0
20
0
30
0
70
128
71
5
72
4
73
6
0
VERTEX
8
OBJECT__10
10
0
20
0
30
0
70
128
71
8
72
15
73
10
0
VERTEX
8
OBJECT__10
10
0
20
0
30
0
70
128
71
13
72
12
73
14
0
VERTEX
8
OBJECT__10
10
0
20
0
30
0
70
128
71
9
72
7
73
6
0
VERTEX
8
OBJECT__10
10
0
20
0
30
0
70
128
71
3
72
14
73
1
0
VERTEX
8
OBJECT__10
10
0
20
0
30
0
70
128
71
13
72
16
73
11
0
SEQEND
8
OBJECT__10
0
POLYLINE
8
OBJECT__11
66
1
70
64
71
16
72
14
62
253
0
VERTEX
8
OBJECT__11
10
23.000000
20
-19.000000
30
-34.799999
70
192
0
VERTEX
8
OBJECT__11
10
23.000000
20
19.000000
30
-34.799999
70
192
0
VERTEX
8
OBJECT__11
10
29.000000
20
19.000000
30
-34.799999
70
192
0
VERTEX
8
OBJECT__11
10
26.222000
20
26.778000
30
-34.799999
70
192
0
VERTEX
8
OBJECT__11
10
30.464001
20
22.535999
30
-34.799999
70
192
0
VERTEX
8
OBJECT__11
10
426.000000
20
-30.000000
30
-34.799999
70
192
0
VERTEX
8
OBJECT__11
10
34.000000
20
-30.000000
30
-34.799999
70
192
0
VERTEX
8
OBJECT__11
10
34.000000
20
-24.000000
30
-34.799999
70
192
0
VERTEX
8
OBJECT__11
10
26.222000
20
-26.778000
30
-34.799999
70
192
0
VERTEX
8
OBJECT__11
10
30.464001
20
-22.535999
30
-34.799999
70
192
0
VERTEX
8
OBJECT__11
10
29.000000
20
-19.000000
30
-34.799999
70
192
0
VERTEX
8
OBJECT__11
10
34.000000
20
30.000000
30
-34.799999
70
192
0
VERTEX
8
OBJECT__11
10
34.000000
20
24.000000
30
-34.799999
70
192
0
VERTEX
8
OBJECT__11
10
426.000000
20
24.000000
30
-34.799999
70
192
0
VERTEX
8
OBJECT__11
10
426.000000
20
30.000000
30
-34.799999
70
192
0
VERTEX
8
OBJECT__11
10
426.000000
20
-24.000000
30
-34.799999
70
192
0
VERTEX
8
OBJECT__11
10
0
20
0
30
0
70
128
71
1
72
2
73
3
0
VERTEX
8
OBJECT__11
10
0
20
0
30
0
70
128
71
2
72
4
73
5
0
VERTEX
8
OBJECT__11
10
0
20
0
30
0
70
128
71
6
72
7
73
8
0
VERTEX
8
OBJECT__11
10
0
20
0
30
0
70
128
71
9
72
10
73
8
0
VERTEX
8
OBJECT__11
10
0
20
0
30
0
70
128
71
9
72
1
73
11
0
VERTEX
8
OBJECT__11
10
0
20
0
30
0
70
128
71
5
72
3
73
2
0
VERTEX
8
OBJECT__11
10
0
20
0
30
0
70
128
71
8
72
7
73
9
0
VERTEX
8
OBJECT__11
10
0
20
0
30
0
70
128
71
3
72
11
73
1
0
VERTEX
8
OBJECT__11
10
0
20
0
30
0
70
128
71
4
72
12
73
13
0
VERTEX
8
OBJECT__11
10
0
20
0
30
0
70
128
71
14
72
13
73
12
0
VERTEX
8
OBJECT__11
10
0
20
0
30
0
70
128
71
11
72
10
73
9
0
VERTEX
8
OBJECT__11
10
0
20
0
30
0
70
128
71
12
72
15
73
14
0
VERTEX
8
OBJECT__11
10
0
20
0
30
0
70
128
71
13
72
5
73
4
0
VERTEX
8
OBJECT__11
10
0
20
0
30
0
70
128
71
8
72
16
73
6
0
SEQEND
8
OBJECT__11
0
POLYLINE
8
OBJECT__12
66
1
70
64
71
4
72
2
62
253
0
VERTEX
8
OBJECT__12
10
23.000000
20
-19.000000
30
-34.799999
70
192
0
VERTEX
8
OBJECT__12
10
23.000000
20
-19.000000
30
-18.799999
70
192
0
VERTEX
8
OBJECT__12
10
23.000000
20
19.000000
30
-18.799999
70
192
0
VERTEX
8
OBJECT__12
10
23.000000
20
19.000000
30
-34.799999
70
192
0
VERTEX
8
OBJECT__12
10
0
20
0
30
0
70
128
71
1
72
2
73
3
0
VERTEX
8
OBJECT__12
10
0
20
0
30
0
70
128
71
3
72
4
73
1
0
SEQEND
8
OBJECT__12
0
POLYLINE
8
OBJECT__13
66
1
70
64
71
6
72
4
62
253
0
VERTEX
8
OBJECT__13
10
26.222000
20
-26.778000
30
-34.799999
70
192
0
VERTEX
8
OBJECT__13
10
26.222000
20
-26.778000
30
-18.799999
70
192
0
VERTEX
8
OBJECT__13
10
23.000000
20
-19.000000
30
-18.799999
70
192
0
VERTEX
8
OBJECT__13
10
34.000000
20
-30.000000
30
-34.799999
70
192
0
VERTEX
8
OBJECT__13
10
34.000000
20
-30.000000
30
-18.799999
70
192
0
VERTEX
8
OBJECT__13
10
23.000000
20
-19.000000
30
-34.799999
70
192
0
VERTEX
8
OBJECT__13
10
0
20
0
30
0
70
128
71
1
72
2
73
3
0
VERTEX
8
OBJECT__13
10
0
20
0
30
0
70
128
71
4
72
5
73
2
0
VERTEX
8
OBJECT__13
10
0
20
0
30
0
70
128
71
2
72
1
73
4
0
VERTEX
8
OBJECT__13
10
0
20
0
30
0
70
128
71
3
72
6
73
1
0
SEQEND
8
OBJECT__13
0
POLYLINE
8
OBJECT__14
66
1
70
64
71
6
72
4
62
253
0
VERTEX
8
OBJECT__14
10
26.222000
20
26.778000
30
-34.799999
70
192
0
VERTEX
8
OBJECT__14
10
26.222000
20
26.778000
30
-18.799999
70
192
0
VERTEX
8
OBJECT__14
10
34.000000
20
30.000000
30
-18.799999
70
192
0
VERTEX
8
OBJECT__14
10
23.000000
20
19.000000
30
-34.799999
70
192
0
VERTEX
8
OBJECT__14
10
23.000000
20
19.000000
30
-18.799999
70
192
0
VERTEX
8
OBJECT__14
10
34.000000
20
30.000000
30
-34.799999
70
192
0
VERTEX
8
OBJECT__14
10
0
20
0
30
0
70
128
71
1
72
2
73
3
0
VERTEX
8
OBJECT__14
10
0
20
0
30
0
70
128
71
4
72
5
73
2
0
VERTEX
8
OBJECT__14
10
0
20
0
30
0
70
128
71
2
72
1
73
4
0
VERTEX
8
OBJECT__14
10
0
20
0
30
0
70
128
71
3
72
6
73
1
0
SEQEND
8
OBJECT__14
0
POLYLINE
8
OBJECT__15
66
1
70
64
71
14
72
14
62
253
0
VERTEX
8
OBJECT__15
10
36.698002
20
-5.395000
30
-15.800000
70
192
0
VERTEX
8
OBJECT__15
10
34.099998
20
0.000000
30
-15.800000
70
192
0
VERTEX
8
OBJECT__15
10
34.099998
20
0.000000
30
-20.799999
70
192
0
VERTEX
8
OBJECT__15
10
42.535000
20
-6.727000
30
-20.799999
70
192
0
VERTEX
8
OBJECT__15
10
42.535000
20
-6.727000
30
-15.800000
70
192
0
VERTEX
8
OBJECT__15
10
47.216999
20
-2.994000
30
-20.799999
70
192
0
VERTEX
8
OBJECT__15
10
47.216999
20
2.994000
30
-20.799999
70
192
0
VERTEX
8
OBJECT__15
10
47.216999
20
2.994000
30
-15.800000
70
192
0
VERTEX
8
OBJECT__15
10
47.216999
20
-2.994000
30
-15.800000
70
192
0
VERTEX
8
OBJECT__15
10
42.535000
20
6.727000
30
-20.799999
70
192
0
VERTEX
8
OBJECT__15
10
42.535000
20
6.727000
30
-15.800000
70
192
0
VERTEX
8
OBJECT__15
10
36.698002
20
5.395000
30
-20.799999
70
192
0
VERTEX
8
OBJECT__15
10
36.698002
20
5.395000
30
-15.800000
70
192
0
VERTEX
8
OBJECT__15
10
36.698002
20
-5.395000
30
-20.799999
70
192
0
VERTEX
8
OBJECT__15
10
0
20
0
30
0
70
128
71
1
72
2
73
3
0
VERTEX
8
OBJECT__15
10
0
20
0
30
0
70
128
71
4
72
5
73
1
0
VERTEX
8
OBJECT__15
10
0
20
0
30
0
70
128
71
5
72
4
73
6
0
VERTEX
8
OBJECT__15
10
0
20
0
30
0
70
128
71
7
72
8
73
9
0
VERTEX
8
OBJECT__15
10
0
20
0
30
0
70
128
71
10
72
11
73
8
0
VERTEX
8
OBJECT__15
10
0
20
0
30
0
70
128
71
12
72
13
73
11
0
VERTEX
8
OBJECT__15
10
0
20
0
30
0
70
128
71
12
72
3
73
2
0
VERTEX
8
OBJECT__15
10
0
20
0
30
0
70
128
71
2
72
13
73
12
0
VERTEX
8
OBJECT__15
10
0
20
0
30
0
70
128
71
11
72
10
73
12
0
VERTEX
8
OBJECT__15
10
0
20
0
30
0
70
128
71
8
72
7
73
10
0
VERTEX
8
OBJECT__15
10
0
20
0
30
0
70
128
71
9
72
6
73
7
0
VERTEX
8
OBJECT__15
10
0
20
0
30
0
70
128
71
6
72
9
73
5
0
VERTEX
8
OBJECT__15
10
0
20
0
30
0
70
128
71
1
72
14
73
4
0
VERTEX
8
OBJECT__15
10
0
20
0
30
0
70
128
71
3
72
14
73
1
0
SEQEND
8
OBJECT__15
0
POLYLINE
8
OBJECT__16
66
1
70
64
71
6
72
4
62
253
0
VERTEX
8
OBJECT__16
10
45.000000
20
0.000000
30
-34.799999
70
192
0
VERTEX
8
OBJECT__16
10
43.000000
20
-3.464000
30
-34.799999
70
192
0
VERTEX
8
OBJECT__16
10
39.000000
20
-3.464000
30
-34.799999
70
192
0
VERTEX
8
OBJECT__16
10
37.000000
20
0.000000
30
-34.799999
70
192
0
VERTEX
8
OBJECT__16
10
39.000000
20
3.464000
30
-34.799999
70
192
0
VERTEX
8
OBJECT__16
10
43.000000
20
3.464000
30
-34.799999
70
192
0
VERTEX
8
OBJECT__16
10
0
20
0
30
0
70
128
71
1
72
2
73
3
0
VERTEX
8
OBJECT__16
10
0
20
0
30
0
70
128
71
1
72
4
73
5
0
VERTEX
8
OBJECT__16
10
0
20
0
30
0
70
128
71
5
72
6
73
1
0
VERTEX
8
OBJECT__16
10
0
20
0
30
0
70
128
71
3
72
4
73
1
0
SEQEND
8
OBJECT__16
0
POLYLINE
8
OBJECT__18
66
1
70
64
71
4
72
2
62
253
0
VERTEX
8
OBJECT__18
10
0.000000
20
23.000000
30
-23.000000
70
192
0
VERTEX
8
OBJECT__18
10
0.000000
20
23.000000
30
23.000000
70
192
0
VERTEX
8
OBJECT__18
10
7.000000
20
23.000000
30
23.000000
70
192
0
VERTEX
8
OBJECT__18
10
7.000000
20
23.000000
30
-23.000000
70
192
0
VERTEX
8
OBJECT__18
10
0
20
0
30
0
70
128
71
1
72
2
73
3
0
VERTEX
8
OBJECT__18
10
0
20
0
30
0
70
128
71
3
72
4
73
1
0
SEQEND
8
OBJECT__18
0
POLYLINE
8
OBJECT__19
66
1
70
64
71
4
72
2
62
253
0
VERTEX
8
OBJECT__19
10
0.000000
20
-23.000000
30
23.000000
70
192
0
VERTEX
8
OBJECT__19
10
7.000000
20
-23.000000
30
23.000000
70
192
0
VERTEX
8
OBJECT__19
10
7.000000
20
23.000000
30
23.000000
70
192
0
VERTEX
8
OBJECT__19
10
0.000000
20
23.000000
30
23.000000
70
192
0
VERTEX
8
OBJECT__19
10
0
20
0
30
0
70
128
71
1
72
2
73
3
0
VERTEX
8
OBJECT__19
10
0
20
0
30
0
70
128
71
3
72
4
73
1
0
SEQEND
8
OBJECT__19
0
POLYLINE
8
OBJECT__21
66
1
70
64
71
4
72
2
62
253
0
VERTEX
8
OBJECT__21
10
0.000000
20
-23.000000
30
23.000000
70
192
0
VERTEX
8
OBJECT__21
10
0.000000
20
-23.000000
30
-23.000000
70
192
0
VERTEX
8
OBJECT__21
10
7.000000
20
-23.000000
30
-23.000000
70
192
0
VERTEX
8
OBJECT__21
10
7.000000
20
-23.000000
30
23.000000
70
192
0
VERTEX
8
OBJECT__21
10
0
20
0
30
0
70
128
71
1
72
2
73
3
0
VERTEX
8
OBJECT__21
10
0
20
0
30
0
70
128
71
3
72
4
73
1
0
SEQEND
8
OBJECT__21
0
POLYLINE
8
OBJECT__22
66
1
70
64
71
4
72
2
62
253
0
VERTEX
8
OBJECT__22
10
0.000000
20
-23.000000
30
-23.000000
70
192
0
VERTEX
8
OBJECT__22
10
0.000000
20
23.000000
30
-23.000000
70
192
0
VERTEX
8
OBJECT__22
10
7.000000
20
23.000000
30
-23.000000
70
192
0
VERTEX
8
OBJECT__22
10
7.000000
20
-23.000000
30
-23.000000
70
192
0
VERTEX
8
OBJECT__22
10
0
20
0
30
0
70
128
71
1
72
2
73
3
0
VERTEX
8
OBJECT__22
10
0
20
0
30
0
70
128
71
3
72
4
73
1
0
SEQEND
8
OBJECT__22
0
POLYLINE
8
OBJECT__23
66
1
70
64
71
4
72
2
62
253
0
VERTEX
8
OBJECT__23
10
7.000000
20
-23.000000
30
-23.000000
70
192
0
VERTEX
8
OBJECT__23
10
7.000000
20
23.000000
30
-23.000000
70
192
0
VERTEX
8
OBJECT__23
10
7.000000
20
23.000000
30
23.000000
70
192
0
VERTEX
8
OBJECT__23
10
7.000000
20
-23.000000
30
23.000000
70
192
0
VERTEX
8
OBJECT__23
10
0
20
0
30
0
70
128
71
1
72
2
73
3
0
VERTEX
8
OBJECT__23
10
0
20
0
30
0
70
128
71
3
72
4
73
1
0
SEQEND
8
OBJECT__23
0
POLYLINE
8
OBJECT__24
66
1
70
64
71
4
72
2
62
253
0
VERTEX
8
OBJECT__24
10
0.000000
20
-23.000000
30
23.000000
70
192
0
VERTEX
8
OBJECT__24
10
0.000000
20
23.000000
30
23.000000
70
192
0
VERTEX
8
OBJECT__24
10
0.000000
20
23.000000
30
-23.000000
70
192
0
VERTEX
8
OBJECT__24
10
0.000000
20
-23.000000
30
-23.000000
70
192
0
VERTEX
8
OBJECT__24
10
0
20
0
30
0
70
128
71
1
72
2
73
3
0
VERTEX
8
OBJECT__24
10
0
20
0
30
0
70
128
71
3
72
4
73
1
0
SEQEND
8
OBJECT__24
0
POLYLINE
8
OBJECT__25
66
1
70
64
71
23
72
23
62
253
0
VERTEX
8
OBJECT__25
10
7.000000
20
9.732000
30
15.343000
70
192
0
VERTEX
8
OBJECT__25
10
7.000000
20
0.000000
30
18.200001
70
192
0
VERTEX
8
OBJECT__25
10
52.000000
20
0.000000
30
18.200001
70
192
0
VERTEX
8
OBJECT__25
10
7.000000
20
16.372999
30
7.677000
70
192
0
VERTEX
8
OBJECT__25
10
52.000000
20
9.732000
30
15.343000
70
192
0
VERTEX
8
OBJECT__25
10
52.000000
20
17.816999
30
-2.362000
70
192
0
VERTEX
8
OBJECT__25
10
7.000000
20
17.816999
30
-2.362000
70
192
0
VERTEX
8
OBJECT__25
10
52.000000
20
13.603000
30
-11.587000
70
192
0
VERTEX
8
OBJECT__25
10
7.000000
20
13.603000
30
-11.587000
70
192
0
VERTEX
8
OBJECT__25
10
52.000000
20
5.071000
30
-17.070999
70
192
0
VERTEX
8
OBJECT__25
10
7.000000
20
5.071000
30
-17.070999
70
192
0
VERTEX
8
OBJECT__25
10
7.000000
20
-5.071000
30
-17.070999
70
192
0
VERTEX
8
OBJECT__25
10
52.000000
20
0.000000
30
-17.799999
70
192
0
VERTEX
8
OBJECT__25
10
52.000000
20
-5.071000
30
-17.070999
70
192
0
VERTEX
8
OBJECT__25
10
52.000000
20
-13.603000
30
-11.587000
70
192
0
VERTEX
8
OBJECT__25
10
52.000000
20
-17.816999
30
-2.362000
70
192
0
VERTEX
8
OBJECT__25
10
7.000000
20
-17.816999
30
-2.362000
70
192
0
VERTEX
8
OBJECT__25
10
7.000000
20
-13.603000
30
-11.587000
70
192
0
VERTEX
8
OBJECT__25
10
52.000000
20
-16.372999
30
7.677000
70
192
0
VERTEX
8
OBJECT__25
10
7.000000
20
-16.372999
30
7.677000
70
192
0
VERTEX
8
OBJECT__25
10
7.000000
20
-9.732000
30
15.343000
70
192
0
VERTEX
8
OBJECT__25
10
52.000000
20
-9.732000
30
15.343000
70
192
0
VERTEX
8
OBJECT__25
10
52.000000
20
16.372999
30
7.677000
70
192
0
VERTEX
8
OBJECT__25
10
0
20
0
30
0
70
128
71
1
72
2
73
3
0
VERTEX
8
OBJECT__25
10
0
20
0
30
0
70
128
71
4
72
1
73
5
0
VERTEX
8
OBJECT__25
10
0
20
0
30
0
70
128
71
6
72
7
73
4
0
VERTEX
8
OBJECT__25
10
0
20
0
30
0
70
128
71
8
72
9
73
7
0
VERTEX
8
OBJECT__25
10
0
20
0
30
0
70
128
71
10
72
11
73
9
0
VERTEX
8
OBJECT__25
10
0
20
0
30
0
70
128
71
12
72
11
73
13
0
VERTEX
8
OBJECT__25
10
0
20
0
30
0
70
128
71
11
72
10
73
13
0
VERTEX
8
OBJECT__25
10
0
20
0
30
0
70
128
71
12
72
14
73
15
0
VERTEX
8
OBJECT__25
10
0
20
0
30
0
70
128
71
16
72
17
73
18
0
VERTEX
8
OBJECT__25
10
0
20
0
30
0
70
128
71
19
72
20
73
17
0
VERTEX
8
OBJECT__25
10
0
20
0
30
0
70
128
71
21
72
20
73
19
0
VERTEX
8
OBJECT__25
10
0
20
0
30
0
70
128
71
2
72
21
73
22
0
VERTEX
8
OBJECT__25
10
0
20
0
30
0
70
128
71
22
72
3
73
2
0
VERTEX
8
OBJECT__25
10
0
20
0
30
0
70
128
71
19
72
22
73
21
0
VERTEX
8
OBJECT__25
10
0
20
0
30
0
70
128
71
17
72
16
73
19
0
VERTEX
8
OBJECT__25
10
0
20
0
30
0
70
128
71
18
72
15
73
16
0
VERTEX
8
OBJECT__25
10
0
20
0
30
0
70
128
71
15
72
18
73
12
0
VERTEX
8
OBJECT__25
10
0
20
0
30
0
70
128
71
13
72
14
73
12
0
VERTEX
8
OBJECT__25
10
0
20
0
30
0
70
128
71
9
72
8
73
10
0
VERTEX
8
OBJECT__25
10
0
20
0
30
0
70
128
71
7
72
6
73
8
0
VERTEX
8
OBJECT__25
10
0
20
0
30
0
70
128
71
4
72
23
73
6
0
VERTEX
8
OBJECT__25
10
0
20
0
30
0
70
128
71
5
72
23
73
4
0
VERTEX
8
OBJECT__25
10
0
20
0
30
0
70
128
71
3
72
5
73
1
0
SEQEND
8
OBJECT__25
0
POLYLINE
8
OBJECT__26
66
1
70
64
71
38
72
38
62
253
0
VERTEX
8
OBJECT__26
10
52.000000
20
9.732000
30
15.343000
70
192
0
VERTEX
8
OBJECT__26
10
52.000000
20
0.000000
30
18.200001
70
192
0
VERTEX
8
OBJECT__26
10
55.838001
20
1.882000
30
18.101000
70
192
0
VERTEX
8
OBJECT__26
10
55.838001
20
0.000000
30
18.200001
70
192
0
VERTEX
8
OBJECT__26
10
55.838001
20
9.000000
30
15.788000
70
192
0
VERTEX
8
OBJECT__26
10
55.838001
20
9.626000
30
15.225000
70
192
0
VERTEX
8
OBJECT__26
10
55.838001
20
14.562000
30
10.780000
70
192
0
VERTEX
8
OBJECT__26
10
52.000000
20
16.372999
30
7.677000
70
192
0
VERTEX
8
OBJECT__26
10
52.000000
20
17.816999
30
-2.362000
70
192
0
VERTEX
8
OBJECT__26
10
55.838001
20
17.607000
30
3.942000
70
192
0
VERTEX
8
OBJECT__26
10
55.838001
20
16.014999
30
7.518000
70
192
0
VERTEX
8
OBJECT__26
10
55.838001
20
17.607000
30
-3.542000
70
192
0
VERTEX
8
OBJECT__26
10
55.838001
20
14.562000
30
-10.380000
70
192
0
VERTEX
8
OBJECT__26
10
52.000000
20
13.603000
30
-11.587000
70
192
0
VERTEX
8
OBJECT__26
10
55.838001
20
17.607000
30
-2.362000
70
192
0
VERTEX
8
OBJECT__26
10
55.838001
20
13.432000
30
-11.397000
70
192
0
VERTEX
8
OBJECT__26
10
55.838001
20
9.000000
30
-15.388000
70
192
0
VERTEX
8
OBJECT__26
10
52.000000
20
5.071000
30
-17.070999
70
192
0
VERTEX
8
OBJECT__26
10
55.838001
20
-5.061000
30
-16.972000
70
192
0
VERTEX
8
OBJECT__26
10
52.000000
20
-5.071000
30
-17.070999
70
192
0
VERTEX
8
OBJECT__26
10
52.000000
20
0.000000
30
-17.799999
70
192
0
VERTEX
8
OBJECT__26
10
55.838001
20
4.952000
30
-16.704000
70
192
0
VERTEX
8
OBJECT__26
10
55.838001
20
1.882000
30
-17.701000
70
192
0
VERTEX
8
OBJECT__26
10
55.838001
20
-5.562000
30
-16.919001
70
192
0
VERTEX
8
OBJECT__26
10
55.838001
20
-12.044000
30
-13.177000
70
192
0
VERTEX
8
OBJECT__26
10
52.000000
20
-13.603000
30
-11.587000
70
192
0
VERTEX
8
OBJECT__26
10
55.838001
20
-13.339000
30
-11.395000
70
192
0
VERTEX
8
OBJECT__26
10
55.838001
20
-16.444000
30
-7.121000
70
192
0
VERTEX
8
OBJECT__26
10
52.000000
20
-17.816999
30
-2.362000
70
192
0
VERTEX
8
OBJECT__26
10
52.000000
20
-16.372999
30
7.677000
70
192
0
VERTEX
8
OBJECT__26
10
55.838001
20
-18.000000
30
0.200000
70
192
0
VERTEX
8
OBJECT__26
10
55.838001
20
-16.444000
30
7.521000
70
192
0
VERTEX
8
OBJECT__26
10
55.838001
20
-17.471001
30
-2.288000
70
192
0
VERTEX
8
OBJECT__26
10
55.838001
20
-16.344999
30
7.657000
70
192
0
VERTEX
8
OBJECT__26
10
55.838001
20
-12.044000
30
13.577000
70
192
0
VERTEX
8
OBJECT__26
10
52.000000
20
-9.732000
30
15.343000
70
192
0
VERTEX
8
OBJECT__26
10
55.838001
20
-5.562000
30
17.319000
70
192
0
VERTEX
8
OBJECT__26
10
55.838001
20
-9.545000
30
15.020000
70
192
0
VERTEX
8
OBJECT__26
10
0
20
0
30
0
70
128
71
1
72
2
73
3
0
VERTEX
8
OBJECT__26
10
0
20
0
30
0
70
128
71
2
72
4
73
3
0
VERTEX
8
OBJECT__26
10
0
20
0
30
0
70
128
71
3
72
5
73
1
0
VERTEX
8
OBJECT__26
10
0
20
0
30
0
70
128
71
1
72
6
73
7
0
VERTEX
8
OBJECT__26
10
0
20
0
30
0
70
128
71
7
72
8
73
1
0
VERTEX
8
OBJECT__26
10
0
20
0
30
0
70
128
71
9
72
8
73
10
0
VERTEX
8
OBJECT__26
10
0
20
0
30
0
70
128
71
8
72
11
73
10
0
VERTEX
8
OBJECT__26
10
0
20
0
30
0
70
128
71
9
72
12
73
13
0
VERTEX
8
OBJECT__26
10
0
20
0
30
0
70
128
71
13
72
14
73
9
0
VERTEX
8
OBJECT__26
10
0
20
0
30
0
70
128
71
9
72
15
73
12
0
VERTEX
8
OBJECT__26
10
0
20
0
30
0
70
128
71
14
72
16
73
17
0
VERTEX
8
OBJECT__26
10
0
20
0
30
0
70
128
71
17
72
18
73
14
0
VERTEX
8
OBJECT__26
10
0
20
0
30
0
70
128
71
19
72
20
73
21
0
VERTEX
8
OBJECT__26
10
0
20
0
30
0
70
128
71
18
72
22
73
23
0
VERTEX
8
OBJECT__26
10
0
20
0
30
0
70
128
71
23
72
21
73
18
0
VERTEX
8
OBJECT__26
10
0
20
0
30
0
70
128
71
20
72
24
73
25
0
VERTEX
8
OBJECT__26
10
0
20
0
30
0
70
128
71
25
72
26
73
20
0
VERTEX
8
OBJECT__26
10
0
20
0
30
0
70
128
71
20
72
19
73
24
0
VERTEX
8
OBJECT__26
10
0
20
0
30
0
70
128
71
26
72
27
73
28
0
VERTEX
8
OBJECT__26
10
0
20
0
30
0
70
128
71
28
72
29
73
26
0
VERTEX
8
OBJECT__26
10
0
20
0
30
0
70
128
71
30
72
29
73
31
0
VERTEX
8
OBJECT__26
10
0
20
0
30
0
70
128
71
31
72
32
73
30
0
VERTEX
8
OBJECT__26
10
0
20
0
30
0
70
128
71
29
72
33
73
31
0
VERTEX
8
OBJECT__26
10
0
20
0
30
0
70
128
71
30
72
34
73
35
0
VERTEX
8
OBJECT__26
10
0
20
0
30
0
70
128
71
35
72
36
73
30
0
VERTEX
8
OBJECT__26
10
0
20
0
30
0
70
128
71
2
72
36
73
37
0
VERTEX
8
OBJECT__26
10
0
20
0
30
0
70
128
71
36
72
38
73
37
0
VERTEX
8
OBJECT__26
10
0
20
0
30
0
70
128
71
37
72
4
73
2
0
VERTEX
8
OBJECT__26
10
0
20
0
30
0
70
128
71
35
72
38
73
36
0
VERTEX
8
OBJECT__26
10
0
20
0
30
0
70
128
71
32
72
34
73
30
0
VERTEX
8
OBJECT__26
10
0
20
0
30
0
70
128
71
28
72
33
73
29
0
VERTEX
8
OBJECT__26
10
0
20
0
30
0
70
128
71
25
72
27
73
26
0
VERTEX
8
OBJECT__26
10
0
20
0
30
0
70
128
71
21
72
23
73
19
0
VERTEX
8
OBJECT__26
10
0
20
0
30
0
70
128
71
17
72
22
73
18
0
VERTEX
8
OBJECT__26
10
0
20
0
30
0
70
128
71
13
72
16
73
14
0
VERTEX
8
OBJECT__26
10
0
20
0
30
0
70
128
71
10
72
15
73
9
0
VERTEX
8
OBJECT__26
10
0
20
0
30
0
70
128
71
7
72
11
73
8
0
VERTEX
8
OBJECT__26
10
0
20
0
30
0
70
128
71
5
72
6
73
1
0
SEQEND
8
OBJECT__26
0
POLYLINE
8
OBJECT__28
66
1
70
64
71
27
72
26
62
253
0
VERTEX
8
OBJECT__28
10
56.000000
20
0.000000
30
0.200000
70
192
0
VERTEX
8
OBJECT__28
10
55.838001
20
-18.000000
30
0.200000
70
192
0
VERTEX
8
OBJECT__28
10
55.838001
20
-17.471001
30
-2.288000
70
192
0
VERTEX
8
OBJECT__28
10
55.838001
20
-16.444000
30
-7.121000
70
192
0
VERTEX
8
OBJECT__28
10
55.838001
20
-13.339000
30
-11.395000
70
192
0
VERTEX
8
OBJECT__28
10
55.838001
20
-5.562000
30
-16.919001
70
192
0
VERTEX
8
OBJECT__28
10
55.838001
20
-5.061000
30
-16.972000
70
192
0
VERTEX
8
OBJECT__28
10
55.838001
20
1.882000
30
-17.701000
70
192
0
VERTEX
8
OBJECT__28
10
55.838001
20
4.952000
30
-16.704000
70
192
0
VERTEX
8
OBJECT__28
10
55.838001
20
9.000000
30
-15.388000
70
192
0
VERTEX
8
OBJECT__28
10
55.838001
20
13.432000
30
-11.397000
70
192
0
VERTEX
8
OBJECT__28
10
55.838001
20
17.607000
30
-3.542000
70
192
0
VERTEX
8
OBJECT__28
10
55.838001
20
17.607000
30
-2.362000
70
192
0
VERTEX
8
OBJECT__28
10
55.838001
20
17.607000
30
3.942000
70
192
0
VERTEX
8
OBJECT__28
10
55.838001
20
16.014999
30
7.518000
70
192
0
VERTEX
8
OBJECT__28
10
55.838001
20
14.562000
30
10.780000
70
192
0
VERTEX
8
OBJECT__28
10
55.838001
20
9.626000
30
15.225000
70
192
0
VERTEX
8
OBJECT__28
10
55.838001
20
1.882000
30
18.101000
70
192
0
VERTEX
8
OBJECT__28
10
55.838001
20
0.000000
30
18.200001
70
192
0
VERTEX
8
OBJECT__28
10
55.838001
20
-5.562000
30
17.319000
70
192
0
VERTEX
8
OBJECT__28
10
55.838001
20
-9.545000
30
15.020000
70
192
0
VERTEX
8
OBJECT__28
10
55.838001
20
-12.044000
30
13.577000
70
192
0
VERTEX
8
OBJECT__28
10
55.838001
20
-16.344999
30
7.657000
70
192
0
VERTEX
8
OBJECT__28
10
55.838001
20
-16.444000
30
7.521000
70
192
0
VERTEX
8
OBJECT__28
10
55.838001
20
9.000000
30
15.788000
70
192
0
VERTEX
8
OBJECT__28
10
55.838001
20
14.562000
30
-10.380000
70
192
0
VERTEX
8
OBJECT__28
10
55.838001
20
-12.044000
30
-13.177000
70
192
0
VERTEX
8
OBJECT__28
10
0
20
0
30
0
70
128
71
1
72
2
73
3
0
VERTEX
8
OBJECT__28
10
0
20
0
30
0
70
128
71
1
72
4
73
5
0
VERTEX
8
OBJECT__28
10
0
20
0
30
0
70
128
71
1
72
6
73
7
0
VERTEX
8
OBJECT__28
10
0
20
0
30
0
70
128
71
1
72
8
73
9
0
VERTEX
8
OBJECT__28
10
0
20
0
30
0
70
128
71
1
72
10
73
11
0
VERTEX
8
OBJECT__28
10
0
20
0
30
0
70
128
71
1
72
12
73
13
0
VERTEX
8
OBJECT__28
10
0
20
0
30
0
70
128
71
1
72
14
73
15
0
VERTEX
8
OBJECT__28
10
0
20
0
30
0
70
128
71
1
72
16
73
17
0
VERTEX
8
OBJECT__28
10
0
20
0
30
0
70
128
71
1
72
18
73
19
0
VERTEX
8
OBJECT__28
10
0
20
0
30
0
70
128
71
1
72
20
73
21
0
VERTEX
8
OBJECT__28
10
0
20
0
30
0
70
128
71
1
72
22
73
23
0
VERTEX
8
OBJECT__28
10
0
20
0
30
0
70
128
71
1
72
24
73
2
0
VERTEX
8
OBJECT__28
10
0
20
0
30
0
70
128
71
23
72
24
73
1
0
VERTEX
8
OBJECT__28
10
0
20
0
30
0
70
128
71
21
72
22
73
1
0
VERTEX
8
OBJECT__28
10
0
20
0
30
0
70
128
71
19
72
20
73
1
0
VERTEX
8
OBJECT__28
10
0
20
0
30
0
70
128
71
1
72
25
73
18
0
VERTEX
8
OBJECT__28
10
0
20
0
30
0
70
128
71
17
72
25
73
1
0
VERTEX
8
OBJECT__28
10
0
20
0
30
0
70
128
71
15
72
16
73
1
0
VERTEX
8
OBJECT__28
10
0
20
0
30
0
70
128
71
13
72
14
73
1
0
VERTEX
8
OBJECT__28
10
0
20
0
30
0
70
128
71
1
72
26
73
12
0
VERTEX
8
OBJECT__28
10
0
20
0
30
0
70
128
71
11
72
26
73
1
0
VERTEX
8
OBJECT__28
10
0
20
0
30
0
70
128
71
9
72
10
73
1
0
VERTEX
8
OBJECT__28
10
0
20
0
30
0
70
128
71
7
72
8
73
1
0
VERTEX
8
OBJECT__28
10
0
20
0
30
0
70
128
71
1
72
27
73
6
0
VERTEX
8
OBJECT__28
10
0
20
0
30
0
70
128
71
5
72
27
73
1
0
VERTEX
8
OBJECT__28
10
0
20
0
30
0
70
128
71
3
72
4
73
1
0
SEQEND
8
OBJECT__28
0
POLYLINE
8
OBJECT__29
66
1
70
64
71
4
72
2
62
253
0
VERTEX
8
OBJECT__29
10
23.000000
20
-2.500000
30
-18.799999
70
192
0
VERTEX
8
OBJECT__29
10
23.000000
20
2.500000
30
-18.799999
70
192
0
VERTEX
8
OBJECT__29
10
23.000000
20
2.500000
30
-34.799999
70
192
0
VERTEX
8
OBJECT__29
10
23.000000
20
-2.500000
30
-34.799999
70
192
0
VERTEX
8
OBJECT__29
10
0
20
0
30
0
70
128
71
1
72
2
73
3
0
VERTEX
8
OBJECT__29
10
0
20
0
30
0
70
128
71
3
72
4
73
1
0
SEQEND
8
OBJECT__29
0
POLYLINE
8
OBJECT__30
66
1
70
64
71
14
72
12
62
253
0
VERTEX
8
OBJECT__30
10
41.000000
20
-15.000000
30
-18.799999
70
192
0
VERTEX
8
OBJECT__30
10
26.209999
20
2.500000
30
-18.799999
70
192
0
VERTEX
8
OBJECT__30
10
26.209999
20
-2.500000
30
-18.799999
70
192
0
VERTEX
8
OBJECT__30
10
29.000000
20
9.000000
30
-18.799999
70
192
0
VERTEX
8
OBJECT__30
10
49.817001
20
-12.135000
30
-18.799999
70
192
0
VERTEX
8
OBJECT__30
10
55.265999
20
-4.635000
30
-18.799999
70
192
0
VERTEX
8
OBJECT__30
10
55.265999
20
4.635000
30
-18.799999
70
192
0
VERTEX
8
OBJECT__30
10
49.817001
20
12.135000
30
-18.799999
70
192
0
VERTEX
8
OBJECT__30
10
29.000000
20
-9.000000
30
-18.799999
70
192
0
VERTEX
8
OBJECT__30
10
23.000000
20
-2.500000
30
-18.799999
70
192
0
VERTEX
8
OBJECT__30
10
41.000000
20
15.000000
30
-18.799999
70
192
0
VERTEX
8
OBJECT__30
10
23.000000
20
2.500000
30
-18.799999
70
192
0
VERTEX
8
OBJECT__30
10
29.000000
20
15.000000
30
-18.799999
70
192
0
VERTEX
8
OBJECT__30
10
29.000000
20
-15.000000
30
-18.799999
70
192
0
VERTEX
8
OBJECT__30
10
0
20
0
30
0
70
128
71
1
72
2
73
3
0
VERTEX
8
OBJECT__30
10
0
20
0
30
0
70
128
71
4
72
5
73
6
0
VERTEX
8
OBJECT__30
10
0
20
0
30
0
70
128
71
5
72
4
73
2
0
VERTEX
8
OBJECT__30
10
0
20
0
30
0
70
128
71
4
72
7
73
8
0
VERTEX
8
OBJECT__30
10
0
20
0
30
0
70
128
71
3
72
9
73
1
0
VERTEX
8
OBJECT__30
10
0
20
0
30
0
70
128
71
10
72
3
73
2
0
VERTEX
8
OBJECT__30
10
0
20
0
30
0
70
128
71
2
72
1
73
5
0
VERTEX
8
OBJECT__30
10
0
20
0
30
0
70
128
71
8
72
11
73
4
0
VERTEX
8
OBJECT__30
10
0
20
0
30
0
70
128
71
2
72
12
73
10
0
VERTEX
8
OBJECT__30
10
0
20
0
30
0
70
128
71
11
72
13
73
4
0
VERTEX
8
OBJECT__30
10
0
20
0
30
0
70
128
71
6
72
7
73
4
0
VERTEX
8
OBJECT__30
10
0
20
0
30
0
70
128
71
9
72
14
73
1
0
SEQEND
8
OBJECT__30
0
POLYLINE
8
OBJECT__32
66
1
70
64
71
14
72
12
62
253
0
VERTEX
8
OBJECT__32
10
41.000000
20
15.000000
30
-34.799999
70
192
0
VERTEX
8
OBJECT__32
10
26.209999
20
-2.500000
30
-34.799999
70
192
0
VERTEX
8
OBJECT__32
10
26.209999
20
2.500000
30
-34.799999
70
192
0
VERTEX
8
OBJECT__32
10
55.265999
20
4.635000
30
-34.799999
70
192
0
VERTEX
8
OBJECT__32
10
55.265999
20
-4.635000
30
-34.799999
70
192
0
VERTEX
8
OBJECT__32
10
29.000000
20
-9.000000
30
-34.799999
70
192
0
VERTEX
8
OBJECT__32
10
49.817001
20
12.135000
30
-34.799999
70
192
0
VERTEX
8
OBJECT__32
10
49.817001
20
-12.135000
30
-34.799999
70
192
0
VERTEX
8
OBJECT__32
10
29.000000
20
9.000000
30
-34.799999
70
192
0
VERTEX
8
OBJECT__32
10
23.000000
20
2.500000
30
-34.799999
70
192
0
VERTEX
8
OBJECT__32
10
41.000000
20
-15.000000
30
-34.799999
70
192
0
VERTEX
8
OBJECT__32
10
23.000000
20
-2.500000
30
-34.799999
70
192
0
VERTEX
8
OBJECT__32
10
29.000000
20
-15.000000
30
-34.799999
70
192
0
VERTEX
8
OBJECT__32
10
29.000000
20
15.000000
30
-34.799999
70
192
0
VERTEX
8
OBJECT__32
10
0
20
0
30
0
70
128
71
1
72
2
73
3
0
VERTEX
8
OBJECT__32
10
0
20
0
30
0
70
128
71
4
72
5
73
6
0
VERTEX
8
OBJECT__32
10
0
20
0
30
0
70
128
71
2
72
1
73
7
0
VERTEX
8
OBJECT__32
10
0
20
0
30
0
70
128
71
6
72
5
73
8
0
VERTEX
8
OBJECT__32
10
0
20
0
30
0
70
128
71
3
72
9
73
1
0
VERTEX
8
OBJECT__32
10
0
20
0
30
0
70
128
71
10
72
3
73
2
0
VERTEX
8
OBJECT__32
10
0
20
0
30
0
70
128
71
7
72
4
73
2
0
VERTEX
8
OBJECT__32
10
0
20
0
30
0
70
128
71
8
72
11
73
6
0
VERTEX
8
OBJECT__32
10
0
20
0
30
0
70
128
71
2
72
12
73
10
0
VERTEX
8
OBJECT__32
10
0
20
0
30
0
70
128
71
11
72
13
73
6
0
VERTEX
8
OBJECT__32
10
0
20
0
30
0
70
128
71
6
72
2
73
4
0
VERTEX
8
OBJECT__32
10
0
20
0
30
0
70
128
71
9
72
14
73
1
0
SEQEND
8
OBJECT__32
0
POLYLINE
8
OBJECT__33
66
1
70
64
71
12
72
10
62
253
0
VERTEX
8
OBJECT__33
10
49.817001
20
-12.135000
30
-34.799999
70
192
0
VERTEX
8
OBJECT__33
10
49.817001
20
-12.135000
30
-18.799999
70
192
0
VERTEX
8
OBJECT__33
10
41.000000
20
-15.000000
30
-18.799999
70
192
0
VERTEX
8
OBJECT__33
10
55.265999
20
-4.635000
30
-34.799999
70
192
0
VERTEX
8
OBJECT__33
10
55.265999
20
-4.635000
30
-18.799999
70
192
0
VERTEX
8
OBJECT__33
10
55.265999
20
4.635000
30
-34.799999
70
192
0
VERTEX
8
OBJECT__33
10
55.265999
20
4.635000
30
-18.799999
70
192
0
VERTEX
8
OBJECT__33
10
49.817001
20
12.135000
30
-34.799999
70
192
0
VERTEX
8
OBJECT__33
10
49.817001
20
12.135000
30
-18.799999
70
192
0
VERTEX
8
OBJECT__33
10
41.000000
20
15.000000
30
-34.799999
70
192
0
VERTEX
8
OBJECT__33
10
41.000000
20
15.000000
30
-18.799999
70
192
0
VERTEX
8
OBJECT__33
10
41.000000
20
-15.000000
30
-34.799999
70
192
0
VERTEX
8
OBJECT__33
10
0
20
0
30
0
70
128
71
1
72
2
73
3
0
VERTEX
8
OBJECT__33
10
0
20
0
30
0
70
128
71
4
72
5
73
2
0
VERTEX
8
OBJECT__33
10
0
20
0
30
0
70
128
71
6
72
7
73
5
0
VERTEX
8
OBJECT__33
10
0
20
0
30
0
70
128
71
8
72
9
73
7
0
VERTEX
8
OBJECT__33
10
0
20
0
30
0
70
128
71
10
72
11
73
9
0
VERTEX
8
OBJECT__33
10
0
20
0
30
0
70
128
71
9
72
8
73
10
0
VERTEX
8
OBJECT__33
10
0
20
0
30
0
70
128
71
7
72
6
73
8
0
VERTEX
8
OBJECT__33
10
0
20
0
30
0
70
128
71
5
72
4
73
6
0
VERTEX
8
OBJECT__33
10
0
20
0
30
0
70
128
71
2
72
1
73
4
0
VERTEX
8
OBJECT__33
10
0
20
0
30
0
70
128
71
3
72
12
73
1
0
SEQEND
8
OBJECT__33
0
POLYLINE
8
OBJECT__34
66
1
70
64
71
4
72
2
62
253
0
VERTEX
8
OBJECT__34
10
41.000000
20
-15.000000
30
-34.799999
70
192
0
VERTEX
8
OBJECT__34
10
41.000000
20
-15.000000
30
-18.799999
70
192
0
VERTEX
8
OBJECT__34
10
29.000000
20
-15.000000
30
-18.799999
70
192
0
VERTEX
8
OBJECT__34
10
29.000000
20
-15.000000
30
-34.799999
70
192
0
VERTEX
8
OBJECT__34
10
0
20
0
30
0
70
128
71
1
72
2
73
3
0
VERTEX
8
OBJECT__34
10
0
20
0
30
0
70
128
71
3
72
4
73
1
0
SEQEND
8
OBJECT__34
0
POLYLINE
8
OBJECT__35
66
1
70
64
71
4
72
2
62
253
0
VERTEX
8
OBJECT__35
10
41.000000
20
15.000000
30
-18.799999
70
192
0
VERTEX
8
OBJECT__35
10
41.000000
20
15.000000
30
-34.799999
70
192
0
VERTEX
8
OBJECT__35
10
29.000000
20
15.000000
30
-34.799999
70
192
0
VERTEX
8
OBJECT__35
10
29.000000
20
15.000000
30
-18.799999
70
192
0
VERTEX
8
OBJECT__35
10
0
20
0
30
0
70
128
71
1
72
2
73
3
0
VERTEX
8
OBJECT__35
10
0
20
0
30
0
70
128
71
3
72
4
73
1
0
SEQEND
8
OBJECT__35
0
ENDSEC
0
EOF
