999
Converted by 3D Exploration 
999
XDimension Software, LLC
999
http://www.xdsoft.com/explorer/
0
SECTION
2
HEADER
9
$ACADVER
1
AC1008
9
$UCSORG
10
0.0
20
0.0
30
0.0
9
$UCSXDIR
10
1.0
20
0.0
30
0.0
9
$TILEMODE
70
1
9
$UCSYDIR
10
0.0
20
1.0
30
0.0
9
$EXTMIN
10
-40.000000
20
-23.000000
30
-23.000000
9
$EXTMAX
10
17.900000
20
23.000000
30
23.000000
0
ENDSEC
0
SECTION
2
TABLES
0
TABLE
2
LTYPE
70
1
0
LTYPE
2
CONTINUOUS
70
64
3
Solid line
72
65
73
0
40
0.0
0
ENDTAB
0
TABLE
2
LAYER
70
26
0
LAYER
2
OBJECT__0
70
0
62
253
6
CONTINUOUS
0
LAYER
2
OBJECT__1
70
0
62
253
6
CONTINUOUS
0
LAYER
2
OBJECT__3
70
0
62
253
6
CONTINUOUS
0
LAYER
2
OBJECT__4
70
0
62
253
6
CONTINUOUS
0
LAYER
2
OBJECT__5
70
0
62
253
6
CONTINUOUS
0
LAYER
2
OBJECT__6
70
0
62
253
6
CONTINUOUS
0
LAYER
2
OBJECT__7
70
0
62
253
6
CONTINUOUS
0
LAYER
2
OBJECT__8
70
0
62
253
6
CONTINUOUS
0
LAYER
2
OBJECT__9
70
0
62
253
6
CONTINUOUS
0
LAYER
2
OBJECT__10
70
0
62
253
6
CONTINUOUS
0
LAYER
2
OBJECT__12
70
0
62
253
6
CONTINUOUS
0
LAYER
2
OBJECT__13
70
0
62
253
6
CONTINUOUS
0
LAYER
2
OBJECT__14
70
0
62
253
6
CONTINUOUS
0
LAYER
2
OBJECT__15
70
0
62
253
6
CONTINUOUS
0
LAYER
2
OBJECT__16
70
0
62
253
6
CONTINUOUS
0
LAYER
2
OBJECT__17
70
0
62
253
6
CONTINUOUS
0
LAYER
2
OBJECT__18
70
0
62
253
6
CONTINUOUS
0
LAYER
2
OBJECT__19
70
0
62
253
6
CONTINUOUS
0
LAYER
2
OBJECT__20
70
0
62
253
6
CONTINUOUS
0
LAYER
2
OBJECT__21
70
0
62
253
6
CONTINUOUS
0
LAYER
2
OBJECT__22
70
0
62
253
6
CONTINUOUS
0
LAYER
2
OBJECT__23
70
0
62
253
6
CONTINUOUS
0
LAYER
2
OBJECT__24
70
0
62
253
6
CONTINUOUS
0
ENDTAB
0
TABLE
2
STYLE
70
1
0
STYLE
2
STANDARD
70
0
40
0.0
41
1.0
50
0.0
71
0
42
0.2
3
txt
4
1
0
ENDTAB
0
TABLE
2
UCS
70
0
0
ENDTAB
0
ENDSEC
0
SECTION
2
ENTITIES
0
POLYLINE
8
OBJECT__0
66
1
70
64
71
11
72
9
62
253
0
VERTEX
8
OBJECT__0
10
2.000000
20
5.562000
30
17.118999
70
192
0
VERTEX
8
OBJECT__0
10
2.000000
20
14.562000
30
-10.580000
70
192
0
VERTEX
8
OBJECT__0
10
2.000000
20
18.000000
30
0.000000
70
192
0
VERTEX
8
OBJECT__0
10
2.000000
20
-5.562000
30
-17.118999
70
192
0
VERTEX
8
OBJECT__0
10
2.000000
20
-14.562000
30
10.580000
70
192
0
VERTEX
8
OBJECT__0
10
2.000000
20
-18.000000
30
0.000000
70
192
0
VERTEX
8
OBJECT__0
10
2.000000
20
5.562000
30
-17.118999
70
192
0
VERTEX
8
OBJECT__0
10
2.000000
20
-5.562000
30
17.118999
70
192
0
VERTEX
8
OBJECT__0
10
2.000000
20
0.000000
30
18.000000
70
192
0
VERTEX
8
OBJECT__0
10
2.000000
20
14.562000
30
10.580000
70
192
0
VERTEX
8
OBJECT__0
10
2.000000
20
-14.562000
30
-10.580000
70
192
0
VERTEX
8
OBJECT__0
10
0
20
0
30
0
70
128
71
1
72
2
73
3
0
VERTEX
8
OBJECT__0
10
0
20
0
30
0
70
128
71
4
72
5
73
6
0
VERTEX
8
OBJECT__0
10
0
20
0
30
0
70
128
71
1
72
7
73
2
0
VERTEX
8
OBJECT__0
10
0
20
0
30
0
70
128
71
4
72
8
73
5
0
VERTEX
8
OBJECT__0
10
0
20
0
30
0
70
128
71
1
72
4
73
7
0
VERTEX
8
OBJECT__0
10
0
20
0
30
0
70
128
71
4
72
9
73
8
0
VERTEX
8
OBJECT__0
10
0
20
0
30
0
70
128
71
3
72
10
73
1
0
VERTEX
8
OBJECT__0
10
0
20
0
30
0
70
128
71
1
72
9
73
4
0
VERTEX
8
OBJECT__0
10
0
20
0
30
0
70
128
71
6
72
11
73
4
0
SEQEND
8
OBJECT__0
0
POLYLINE
8
OBJECT__1
66
1
70
64
71
21
72
21
62
253
0
VERTEX
8
OBJECT__1
10
2.000000
20
-14.562000
30
10.580000
70
192
0
VERTEX
8
OBJECT__1
10
-33.000000
20
-14.562000
30
10.580000
70
192
0
VERTEX
8
OBJECT__1
10
-33.000000
20
-18.000000
30
0.000000
70
192
0
VERTEX
8
OBJECT__1
10
2.000000
20
-5.562000
30
17.118999
70
192
0
VERTEX
8
OBJECT__1
10
-33.000000
20
-5.562000
30
17.118999
70
192
0
VERTEX
8
OBJECT__1
10
-33.000000
20
5.562000
30
17.118999
70
192
0
VERTEX
8
OBJECT__1
10
2.000000
20
0.000000
30
18.000000
70
192
0
VERTEX
8
OBJECT__1
10
2.000000
20
14.562000
30
10.580000
70
192
0
VERTEX
8
OBJECT__1
10
-33.000000
20
14.562000
30
10.580000
70
192
0
VERTEX
8
OBJECT__1
10
2.000000
20
18.000000
30
0.000000
70
192
0
VERTEX
8
OBJECT__1
10
-33.000000
20
18.000000
30
0.000000
70
192
0
VERTEX
8
OBJECT__1
10
2.000000
20
14.562000
30
-10.580000
70
192
0
VERTEX
8
OBJECT__1
10
-33.000000
20
14.562000
30
-10.580000
70
192
0
VERTEX
8
OBJECT__1
10
2.000000
20
5.562000
30
-17.118999
70
192
0
VERTEX
8
OBJECT__1
10
-33.000000
20
5.562000
30
-17.118999
70
192
0
VERTEX
8
OBJECT__1
10
2.000000
20
-5.562000
30
-17.118999
70
192
0
VERTEX
8
OBJECT__1
10
-33.000000
20
-5.562000
30
-17.118999
70
192
0
VERTEX
8
OBJECT__1
10
2.000000
20
-14.562000
30
-10.580000
70
192
0
VERTEX
8
OBJECT__1
10
-33.000000
20
-14.562000
30
-10.580000
70
192
0
VERTEX
8
OBJECT__1
10
2.000000
20
-18.000000
30
0.000000
70
192
0
VERTEX
8
OBJECT__1
10
2.000000
20
5.562000
30
17.118999
70
192
0
VERTEX
8
OBJECT__1
10
0
20
0
30
0
70
128
71
1
72
2
73
3
0
VERTEX
8
OBJECT__1
10
0
20
0
30
0
70
128
71
4
72
5
73
2
0
VERTEX
8
OBJECT__1
10
0
20
0
30
0
70
128
71
6
72
5
73
7
0
VERTEX
8
OBJECT__1
10
0
20
0
30
0
70
128
71
5
72
4
73
7
0
VERTEX
8
OBJECT__1
10
0
20
0
30
0
70
128
71
8
72
9
73
6
0
VERTEX
8
OBJECT__1
10
0
20
0
30
0
70
128
71
10
72
11
73
9
0
VERTEX
8
OBJECT__1
10
0
20
0
30
0
70
128
71
12
72
13
73
11
0
VERTEX
8
OBJECT__1
10
0
20
0
30
0
70
128
71
12
72
14
73
15
0
VERTEX
8
OBJECT__1
10
0
20
0
30
0
70
128
71
14
72
16
73
17
0
VERTEX
8
OBJECT__1
10
0
20
0
30
0
70
128
71
16
72
18
73
19
0
VERTEX
8
OBJECT__1
10
0
20
0
30
0
70
128
71
20
72
3
73
19
0
VERTEX
8
OBJECT__1
10
0
20
0
30
0
70
128
71
19
72
18
73
20
0
VERTEX
8
OBJECT__1
10
0
20
0
30
0
70
128
71
19
72
17
73
16
0
VERTEX
8
OBJECT__1
10
0
20
0
30
0
70
128
71
17
72
15
73
14
0
VERTEX
8
OBJECT__1
10
0
20
0
30
0
70
128
71
15
72
13
73
12
0
VERTEX
8
OBJECT__1
10
0
20
0
30
0
70
128
71
11
72
10
73
12
0
VERTEX
8
OBJECT__1
10
0
20
0
30
0
70
128
71
9
72
8
73
10
0
VERTEX
8
OBJECT__1
10
0
20
0
30
0
70
128
71
6
72
21
73
8
0
VERTEX
8
OBJECT__1
10
0
20
0
30
0
70
128
71
7
72
21
73
6
0
VERTEX
8
OBJECT__1
10
0
20
0
30
0
70
128
71
2
72
1
73
4
0
VERTEX
8
OBJECT__1
10
0
20
0
30
0
70
128
71
3
72
20
73
1
0
SEQEND
8
OBJECT__1
0
POLYLINE
8
OBJECT__3
66
1
70
64
71
14
72
14
62
253
0
VERTEX
8
OBJECT__3
10
-33.000000
20
-23.000000
30
23.000000
70
192
0
VERTEX
8
OBJECT__3
10
-33.000000
20
-14.562000
30
10.580000
70
192
0
VERTEX
8
OBJECT__3
10
-33.000000
20
-5.562000
30
17.118999
70
192
0
VERTEX
8
OBJECT__3
10
-33.000000
20
-23.000000
30
-23.000000
70
192
0
VERTEX
8
OBJECT__3
10
-33.000000
20
-18.000000
30
0.000000
70
192
0
VERTEX
8
OBJECT__3
10
-33.000000
20
23.000000
30
-23.000000
70
192
0
VERTEX
8
OBJECT__3
10
-33.000000
20
5.562000
30
-17.118999
70
192
0
VERTEX
8
OBJECT__3
10
-33.000000
20
-14.562000
30
-10.580000
70
192
0
VERTEX
8
OBJECT__3
10
-33.000000
20
-5.562000
30
-17.118999
70
192
0
VERTEX
8
OBJECT__3
10
-33.000000
20
14.562000
30
-10.580000
70
192
0
VERTEX
8
OBJECT__3
10
-33.000000
20
23.000000
30
23.000000
70
192
0
VERTEX
8
OBJECT__3
10
-33.000000
20
18.000000
30
0.000000
70
192
0
VERTEX
8
OBJECT__3
10
-33.000000
20
5.562000
30
17.118999
70
192
0
VERTEX
8
OBJECT__3
10
-33.000000
20
14.562000
30
10.580000
70
192
0
VERTEX
8
OBJECT__3
10
0
20
0
30
0
70
128
71
1
72
2
73
3
0
VERTEX
8
OBJECT__3
10
0
20
0
30
0
70
128
71
1
72
4
73
5
0
VERTEX
8
OBJECT__3
10
0
20
0
30
0
70
128
71
5
72
2
73
1
0
VERTEX
8
OBJECT__3
10
0
20
0
30
0
70
128
71
4
72
6
73
7
0
VERTEX
8
OBJECT__3
10
0
20
0
30
0
70
128
71
4
72
8
73
5
0
VERTEX
8
OBJECT__3
10
0
20
0
30
0
70
128
71
7
72
9
73
4
0
VERTEX
8
OBJECT__3
10
0
20
0
30
0
70
128
71
9
72
8
73
4
0
VERTEX
8
OBJECT__3
10
0
20
0
30
0
70
128
71
6
72
10
73
7
0
VERTEX
8
OBJECT__3
10
0
20
0
30
0
70
128
71
6
72
11
73
12
0
VERTEX
8
OBJECT__3
10
0
20
0
30
0
70
128
71
11
72
13
73
14
0
VERTEX
8
OBJECT__3
10
0
20
0
30
0
70
128
71
12
72
10
73
6
0
VERTEX
8
OBJECT__3
10
0
20
0
30
0
70
128
71
11
72
3
73
13
0
VERTEX
8
OBJECT__3
10
0
20
0
30
0
70
128
71
14
72
12
73
11
0
VERTEX
8
OBJECT__3
10
0
20
0
30
0
70
128
71
3
72
11
73
1
0
SEQEND
8
OBJECT__3
0
POLYLINE
8
OBJECT__4
66
1
70
64
71
4
72
2
62
253
0
VERTEX
8
OBJECT__4
10
-40.000000
20
-23.000000
30
23.000000
70
192
0
VERTEX
8
OBJECT__4
10
-40.000000
20
-23.000000
30
-23.000000
70
192
0
VERTEX
8
OBJECT__4
10
-33.000000
20
-23.000000
30
-23.000000
70
192
0
VERTEX
8
OBJECT__4
10
-33.000000
20
-23.000000
30
23.000000
70
192
0
VERTEX
8
OBJECT__4
10
0
20
0
30
0
70
128
71
1
72
2
73
3
0
VERTEX
8
OBJECT__4
10
0
20
0
30
0
70
128
71
3
72
4
73
1
0
SEQEND
8
OBJECT__4
0
POLYLINE
8
OBJECT__5
66
1
70
64
71
4
72
2
62
253
0
VERTEX
8
OBJECT__5
10
-40.000000
20
-23.000000
30
-23.000000
70
192
0
VERTEX
8
OBJECT__5
10
-40.000000
20
23.000000
30
-23.000000
70
192
0
VERTEX
8
OBJECT__5
10
-33.000000
20
23.000000
30
-23.000000
70
192
0
VERTEX
8
OBJECT__5
10
-33.000000
20
-23.000000
30
-23.000000
70
192
0
VERTEX
8
OBJECT__5
10
0
20
0
30
0
70
128
71
1
72
2
73
3
0
VERTEX
8
OBJECT__5
10
0
20
0
30
0
70
128
71
3
72
4
73
1
0
SEQEND
8
OBJECT__5
0
POLYLINE
8
OBJECT__6
66
1
70
64
71
4
72
2
62
253
0
VERTEX
8
OBJECT__6
10
-40.000000
20
23.000000
30
-23.000000
70
192
0
VERTEX
8
OBJECT__6
10
-40.000000
20
23.000000
30
23.000000
70
192
0
VERTEX
8
OBJECT__6
10
-33.000000
20
23.000000
30
23.000000
70
192
0
VERTEX
8
OBJECT__6
10
-33.000000
20
23.000000
30
-23.000000
70
192
0
VERTEX
8
OBJECT__6
10
0
20
0
30
0
70
128
71
1
72
2
73
3
0
VERTEX
8
OBJECT__6
10
0
20
0
30
0
70
128
71
3
72
4
73
1
0
SEQEND
8
OBJECT__6
0
POLYLINE
8
OBJECT__7
66
1
70
64
71
4
72
2
62
253
0
VERTEX
8
OBJECT__7
10
-40.000000
20
23.000000
30
23.000000
70
192
0
VERTEX
8
OBJECT__7
10
-40.000000
20
-23.000000
30
23.000000
70
192
0
VERTEX
8
OBJECT__7
10
-33.000000
20
-23.000000
30
23.000000
70
192
0
VERTEX
8
OBJECT__7
10
-33.000000
20
23.000000
30
23.000000
70
192
0
VERTEX
8
OBJECT__7
10
0
20
0
30
0
70
128
71
1
72
2
73
3
0
VERTEX
8
OBJECT__7
10
0
20
0
30
0
70
128
71
3
72
4
73
1
0
SEQEND
8
OBJECT__7
0
POLYLINE
8
OBJECT__8
66
1
70
64
71
4
72
2
62
253
0
VERTEX
8
OBJECT__8
10
-40.000000
20
23.000000
30
-23.000000
70
192
0
VERTEX
8
OBJECT__8
10
-40.000000
20
-23.000000
30
-23.000000
70
192
0
VERTEX
8
OBJECT__8
10
-40.000000
20
-23.000000
30
23.000000
70
192
0
VERTEX
8
OBJECT__8
10
-40.000000
20
23.000000
30
23.000000
70
192
0
VERTEX
8
OBJECT__8
10
0
20
0
30
0
70
128
71
1
72
2
73
3
0
VERTEX
8
OBJECT__8
10
0
20
0
30
0
70
128
71
3
72
4
73
1
0
SEQEND
8
OBJECT__8
0
POLYLINE
8
OBJECT__9
66
1
70
64
71
10
72
8
62
253
0
VERTEX
8
OBJECT__9
10
1.900000
20
-5.175000
30
6.489000
70
192
0
VERTEX
8
OBJECT__9
10
1.900000
20
5.175000
30
6.489000
70
192
0
VERTEX
8
OBJECT__9
10
1.900000
20
1.847000
30
8.092000
70
192
0
VERTEX
8
OBJECT__9
10
1.900000
20
7.478000
30
3.601000
70
192
0
VERTEX
8
OBJECT__9
10
1.900000
20
-7.478000
30
3.601000
70
192
0
VERTEX
8
OBJECT__9
10
1.900000
20
-1.847000
30
8.092000
70
192
0
VERTEX
8
OBJECT__9
10
1.900000
20
8.300000
30
-30.000000
70
192
0
VERTEX
8
OBJECT__9
10
1.900000
20
8.300000
30
0.000000
70
192
0
VERTEX
8
OBJECT__9
10
1.900000
20
-8.300000
30
0.000000
70
192
0
VERTEX
8
OBJECT__9
10
1.900000
20
-8.300000
30
-30.000000
70
192
0
VERTEX
8
OBJECT__9
10
0
20
0
30
0
70
128
71
1
72
2
73
3
0
VERTEX
8
OBJECT__9
10
0
20
0
30
0
70
128
71
4
72
1
73
5
0
VERTEX
8
OBJECT__9
10
0
20
0
30
0
70
128
71
1
72
4
73
2
0
VERTEX
8
OBJECT__9
10
0
20
0
30
0
70
128
71
3
72
6
73
1
0
VERTEX
8
OBJECT__9
10
0
20
0
30
0
70
128
71
7
72
8
73
9
0
VERTEX
8
OBJECT__9
10
0
20
0
30
0
70
128
71
9
72
8
73
4
0
VERTEX
8
OBJECT__9
10
0
20
0
30
0
70
128
71
5
72
9
73
4
0
VERTEX
8
OBJECT__9
10
0
20
0
30
0
70
128
71
9
72
10
73
7
0
SEQEND
8
OBJECT__9
0
POLYLINE
8
OBJECT__10
66
1
70
64
71
6
72
4
62
253
0
VERTEX
8
OBJECT__10
10
2.779000
20
8.300000
30
-32.120998
70
192
0
VERTEX
8
OBJECT__10
10
2.779000
20
-8.300000
30
-32.120998
70
192
0
VERTEX
8
OBJECT__10
10
4.900000
20
-8.300000
30
-33.000000
70
192
0
VERTEX
8
OBJECT__10
10
1.900000
20
8.300000
30
-30.000000
70
192
0
VERTEX
8
OBJECT__10
10
1.900000
20
-8.300000
30
-30.000000
70
192
0
VERTEX
8
OBJECT__10
10
4.900000
20
8.300000
30
-33.000000
70
192
0
VERTEX
8
OBJECT__10
10
0
20
0
30
0
70
128
71
1
72
2
73
3
0
VERTEX
8
OBJECT__10
10
0
20
0
30
0
70
128
71
4
72
5
73
2
0
VERTEX
8
OBJECT__10
10
0
20
0
30
0
70
128
71
2
72
1
73
4
0
VERTEX
8
OBJECT__10
10
0
20
0
30
0
70
128
71
3
72
6
73
1
0
SEQEND
8
OBJECT__10
0
POLYLINE
8
OBJECT__12
66
1
70
64
71
4
72
2
62
253
0
VERTEX
8
OBJECT__12
10
4.900000
20
8.300000
30
-33.000000
70
192
0
VERTEX
8
OBJECT__12
10
4.900000
20
-8.300000
30
-33.000000
70
192
0
VERTEX
8
OBJECT__12
10
8.900000
20
-8.300000
30
-33.000000
70
192
0
VERTEX
8
OBJECT__12
10
8.900000
20
8.300000
30
-33.000000
70
192
0
VERTEX
8
OBJECT__12
10
0
20
0
30
0
70
128
71
1
72
2
73
3
0
VERTEX
8
OBJECT__12
10
0
20
0
30
0
70
128
71
3
72
4
73
1
0
SEQEND
8
OBJECT__12
0
POLYLINE
8
OBJECT__13
66
1
70
64
71
6
72
4
62
253
0
VERTEX
8
OBJECT__13
10
11.021000
20
8.300000
30
-32.120998
70
192
0
VERTEX
8
OBJECT__13
10
11.021000
20
-8.300000
30
-32.120998
70
192
0
VERTEX
8
OBJECT__13
10
11.900000
20
-8.300000
30
-30.000000
70
192
0
VERTEX
8
OBJECT__13
10
8.900000
20
8.300000
30
-33.000000
70
192
0
VERTEX
8
OBJECT__13
10
8.900000
20
-8.300000
30
-33.000000
70
192
0
VERTEX
8
OBJECT__13
10
11.900000
20
8.300000
30
-30.000000
70
192
0
VERTEX
8
OBJECT__13
10
0
20
0
30
0
70
128
71
1
72
2
73
3
0
VERTEX
8
OBJECT__13
10
0
20
0
30
0
70
128
71
4
72
5
73
2
0
VERTEX
8
OBJECT__13
10
0
20
0
30
0
70
128
71
2
72
1
73
4
0
VERTEX
8
OBJECT__13
10
0
20
0
30
0
70
128
71
3
72
6
73
1
0
SEQEND
8
OBJECT__13
0
POLYLINE
8
OBJECT__14
66
1
70
64
71
4
72
2
62
253
0
VERTEX
8
OBJECT__14
10
11.900000
20
8.300000
30
-25.000000
70
192
0
VERTEX
8
OBJECT__14
10
11.900000
20
8.300000
30
-30.000000
70
192
0
VERTEX
8
OBJECT__14
10
11.900000
20
-8.300000
30
-30.000000
70
192
0
VERTEX
8
OBJECT__14
10
11.900000
20
-8.300000
30
-25.000000
70
192
0
VERTEX
8
OBJECT__14
10
0
20
0
30
0
70
128
71
1
72
2
73
3
0
VERTEX
8
OBJECT__14
10
0
20
0
30
0
70
128
71
3
72
4
73
1
0
SEQEND
8
OBJECT__14
0
POLYLINE
8
OBJECT__15
66
1
70
64
71
4
72
2
62
253
0
VERTEX
8
OBJECT__15
10
17.900000
20
-8.300000
30
-25.000000
70
192
0
VERTEX
8
OBJECT__15
10
17.900000
20
8.300000
30
-25.000000
70
192
0
VERTEX
8
OBJECT__15
10
11.900000
20
8.300000
30
-25.000000
70
192
0
VERTEX
8
OBJECT__15
10
11.900000
20
-8.300000
30
-25.000000
70
192
0
VERTEX
8
OBJECT__15
10
0
20
0
30
0
70
128
71
1
72
2
73
3
0
VERTEX
8
OBJECT__15
10
0
20
0
30
0
70
128
71
3
72
4
73
1
0
SEQEND
8
OBJECT__15
0
POLYLINE
8
OBJECT__16
66
1
70
64
71
4
72
2
62
253
0
VERTEX
8
OBJECT__16
10
17.900000
20
8.300000
30
-30.000000
70
192
0
VERTEX
8
OBJECT__16
10
17.900000
20
8.300000
30
-25.000000
70
192
0
VERTEX
8
OBJECT__16
10
17.900000
20
-8.300000
30
-25.000000
70
192
0
VERTEX
8
OBJECT__16
10
17.900000
20
-8.300000
30
-30.000000
70
192
0
VERTEX
8
OBJECT__16
10
0
20
0
30
0
70
128
71
1
72
2
73
3
0
VERTEX
8
OBJECT__16
10
0
20
0
30
0
70
128
71
3
72
4
73
1
0
SEQEND
8
OBJECT__16
0
POLYLINE
8
OBJECT__17
66
1
70
64
71
8
72
6
62
253
0
VERTEX
8
OBJECT__17
10
13.400000
20
8.300000
30
-37.793999
70
192
0
VERTEX
8
OBJECT__17
10
13.400000
20
-8.300000
30
-37.793999
70
192
0
VERTEX
8
OBJECT__17
10
8.900000
20
-8.300000
30
-39.000000
70
192
0
VERTEX
8
OBJECT__17
10
16.694000
20
8.300000
30
-34.500000
70
192
0
VERTEX
8
OBJECT__17
10
16.694000
20
-8.300000
30
-34.500000
70
192
0
VERTEX
8
OBJECT__17
10
17.900000
20
8.300000
30
-30.000000
70
192
0
VERTEX
8
OBJECT__17
10
17.900000
20
-8.300000
30
-30.000000
70
192
0
VERTEX
8
OBJECT__17
10
8.900000
20
8.300000
30
-39.000000
70
192
0
VERTEX
8
OBJECT__17
10
0
20
0
30
0
70
128
71
1
72
2
73
3
0
VERTEX
8
OBJECT__17
10
0
20
0
30
0
70
128
71
4
72
5
73
2
0
VERTEX
8
OBJECT__17
10
0
20
0
30
0
70
128
71
6
72
7
73
5
0
VERTEX
8
OBJECT__17
10
0
20
0
30
0
70
128
71
5
72
4
73
6
0
VERTEX
8
OBJECT__17
10
0
20
0
30
0
70
128
71
2
72
1
73
4
0
VERTEX
8
OBJECT__17
10
0
20
0
30
0
70
128
71
3
72
8
73
1
0
SEQEND
8
OBJECT__17
0
POLYLINE
8
OBJECT__18
66
1
70
64
71
4
72
2
62
253
0
VERTEX
8
OBJECT__18
10
4.900000
20
-8.300000
30
-39.000000
70
192
0
VERTEX
8
OBJECT__18
10
4.900000
20
8.300000
30
-39.000000
70
192
0
VERTEX
8
OBJECT__18
10
8.900000
20
8.300000
30
-39.000000
70
192
0
VERTEX
8
OBJECT__18
10
8.900000
20
-8.300000
30
-39.000000
70
192
0
VERTEX
8
OBJECT__18
10
0
20
0
30
0
70
128
71
1
72
2
73
3
0
VERTEX
8
OBJECT__18
10
0
20
0
30
0
70
128
71
3
72
4
73
1
0
SEQEND
8
OBJECT__18
0
POLYLINE
8
OBJECT__19
66
1
70
64
71
18
72
16
62
253
0
VERTEX
8
OBJECT__19
10
0.400000
20
8.300000
30
-37.793999
70
192
0
VERTEX
8
OBJECT__19
10
2.779000
20
8.300000
30
-32.120998
70
192
0
VERTEX
8
OBJECT__19
10
4.900000
20
8.300000
30
-33.000000
70
192
0
VERTEX
8
OBJECT__19
10
13.400000
20
8.300000
30
-37.793999
70
192
0
VERTEX
8
OBJECT__19
10
8.900000
20
8.300000
30
-39.000000
70
192
0
VERTEX
8
OBJECT__19
10
8.900000
20
8.300000
30
-33.000000
70
192
0
VERTEX
8
OBJECT__19
10
4.900000
20
8.300000
30
-39.000000
70
192
0
VERTEX
8
OBJECT__19
10
17.900000
20
8.300000
30
-25.000000
70
192
0
VERTEX
8
OBJECT__19
10
17.900000
20
8.300000
30
-30.000000
70
192
0
VERTEX
8
OBJECT__19
10
11.900000
20
8.300000
30
-30.000000
70
192
0
VERTEX
8
OBJECT__19
10
16.694000
20
8.300000
30
-34.500000
70
192
0
VERTEX
8
OBJECT__19
10
11.021000
20
8.300000
30
-32.120998
70
192
0
VERTEX
8
OBJECT__19
10
-2.894000
20
8.300000
30
-34.500000
70
192
0
VERTEX
8
OBJECT__19
10
-4.100000
20
8.300000
30
-30.000000
70
192
0
VERTEX
8
OBJECT__19
10
1.900000
20
8.300000
30
-30.000000
70
192
0
VERTEX
8
OBJECT__19
10
1.900000
20
8.300000
30
0.000000
70
192
0
VERTEX
8
OBJECT__19
10
-4.100000
20
8.300000
30
0.000000
70
192
0
VERTEX
8
OBJECT__19
10
11.900000
20
8.300000
30
-25.000000
70
192
0
VERTEX
8
OBJECT__19
10
0
20
0
30
0
70
128
71
1
72
2
73
3
0
VERTEX
8
OBJECT__19
10
0
20
0
30
0
70
128
71
4
72
5
73
6
0
VERTEX
8
OBJECT__19
10
0
20
0
30
0
70
128
71
5
72
7
73
3
0
VERTEX
8
OBJECT__19
10
0
20
0
30
0
70
128
71
3
72
7
73
1
0
VERTEX
8
OBJECT__19
10
0
20
0
30
0
70
128
71
8
72
9
73
10
0
VERTEX
8
OBJECT__19
10
0
20
0
30
0
70
128
71
11
72
12
73
10
0
VERTEX
8
OBJECT__19
10
0
20
0
30
0
70
128
71
12
72
11
73
4
0
VERTEX
8
OBJECT__19
10
0
20
0
30
0
70
128
71
1
72
13
73
2
0
VERTEX
8
OBJECT__19
10
0
20
0
30
0
70
128
71
10
72
9
73
11
0
VERTEX
8
OBJECT__19
10
0
20
0
30
0
70
128
71
3
72
6
73
5
0
VERTEX
8
OBJECT__19
10
0
20
0
30
0
70
128
71
13
72
14
73
15
0
VERTEX
8
OBJECT__19
10
0
20
0
30
0
70
128
71
16
72
15
73
14
0
VERTEX
8
OBJECT__19
10
0
20
0
30
0
70
128
71
6
72
12
73
4
0
VERTEX
8
OBJECT__19
10
0
20
0
30
0
70
128
71
14
72
17
73
16
0
VERTEX
8
OBJECT__19
10
0
20
0
30
0
70
128
71
15
72
2
73
13
0
VERTEX
8
OBJECT__19
10
0
20
0
30
0
70
128
71
10
72
18
73
8
0
SEQEND
8
OBJECT__19
0
POLYLINE
8
OBJECT__20
66
1
70
64
71
18
72
16
62
253
0
VERTEX
8
OBJECT__20
10
-2.894000
20
-8.300000
30
-34.500000
70
192
0
VERTEX
8
OBJECT__20
10
2.779000
20
-8.300000
30
-32.120998
70
192
0
VERTEX
8
OBJECT__20
10
1.900000
20
-8.300000
30
-30.000000
70
192
0
VERTEX
8
OBJECT__20
10
0.400000
20
-8.300000
30
-37.793999
70
192
0
VERTEX
8
OBJECT__20
10
4.900000
20
-8.300000
30
-39.000000
70
192
0
VERTEX
8
OBJECT__20
10
4.900000
20
-8.300000
30
-33.000000
70
192
0
VERTEX
8
OBJECT__20
10
8.900000
20
-8.300000
30
-39.000000
70
192
0
VERTEX
8
OBJECT__20
10
13.400000
20
-8.300000
30
-37.793999
70
192
0
VERTEX
8
OBJECT__20
10
11.021000
20
-8.300000
30
-32.120998
70
192
0
VERTEX
8
OBJECT__20
10
8.900000
20
-8.300000
30
-33.000000
70
192
0
VERTEX
8
OBJECT__20
10
-4.100000
20
-8.300000
30
0.000000
70
192
0
VERTEX
8
OBJECT__20
10
-4.100000
20
-8.300000
30
-30.000000
70
192
0
VERTEX
8
OBJECT__20
10
16.694000
20
-8.300000
30
-34.500000
70
192
0
VERTEX
8
OBJECT__20
10
17.900000
20
-8.300000
30
-30.000000
70
192
0
VERTEX
8
OBJECT__20
10
11.900000
20
-8.300000
30
-30.000000
70
192
0
VERTEX
8
OBJECT__20
10
11.900000
20
-8.300000
30
-25.000000
70
192
0
VERTEX
8
OBJECT__20
10
17.900000
20
-8.300000
30
-25.000000
70
192
0
VERTEX
8
OBJECT__20
10
1.900000
20
-8.300000
30
0.000000
70
192
0
VERTEX
8
OBJECT__20
10
0
20
0
30
0
70
128
71
1
72
2
73
3
0
VERTEX
8
OBJECT__20
10
0
20
0
30
0
70
128
71
4
72
5
73
6
0
VERTEX
8
OBJECT__20
10
0
20
0
30
0
70
128
71
6
72
5
73
7
0
VERTEX
8
OBJECT__20
10
0
20
0
30
0
70
128
71
8
72
9
73
10
0
VERTEX
8
OBJECT__20
10
0
20
0
30
0
70
128
71
11
72
12
73
3
0
VERTEX
8
OBJECT__20
10
0
20
0
30
0
70
128
71
3
72
12
73
1
0
VERTEX
8
OBJECT__20
10
0
20
0
30
0
70
128
71
7
72
10
73
6
0
VERTEX
8
OBJECT__20
10
0
20
0
30
0
70
128
71
10
72
7
73
8
0
VERTEX
8
OBJECT__20
10
0
20
0
30
0
70
128
71
1
72
4
73
2
0
VERTEX
8
OBJECT__20
10
0
20
0
30
0
70
128
71
8
72
13
73
9
0
VERTEX
8
OBJECT__20
10
0
20
0
30
0
70
128
71
13
72
14
73
15
0
VERTEX
8
OBJECT__20
10
0
20
0
30
0
70
128
71
16
72
15
73
14
0
VERTEX
8
OBJECT__20
10
0
20
0
30
0
70
128
71
6
72
2
73
4
0
VERTEX
8
OBJECT__20
10
0
20
0
30
0
70
128
71
14
72
17
73
16
0
VERTEX
8
OBJECT__20
10
0
20
0
30
0
70
128
71
15
72
9
73
13
0
VERTEX
8
OBJECT__20
10
0
20
0
30
0
70
128
71
3
72
18
73
11
0
SEQEND
8
OBJECT__20
0
POLYLINE
8
OBJECT__21
66
1
70
64
71
8
72
6
62
253
0
VERTEX
8
OBJECT__21
10
-2.894000
20
8.300000
30
-34.500000
70
192
0
VERTEX
8
OBJECT__21
10
-2.894000
20
-8.300000
30
-34.500000
70
192
0
VERTEX
8
OBJECT__21
10
-4.100000
20
-8.300000
30
-30.000000
70
192
0
VERTEX
8
OBJECT__21
10
0.400000
20
8.300000
30
-37.793999
70
192
0
VERTEX
8
OBJECT__21
10
0.400000
20
-8.300000
30
-37.793999
70
192
0
VERTEX
8
OBJECT__21
10
4.900000
20
8.300000
30
-39.000000
70
192
0
VERTEX
8
OBJECT__21
10
4.900000
20
-8.300000
30
-39.000000
70
192
0
VERTEX
8
OBJECT__21
10
-4.100000
20
8.300000
30
-30.000000
70
192
0
VERTEX
8
OBJECT__21
10
0
20
0
30
0
70
128
71
1
72
2
73
3
0
VERTEX
8
OBJECT__21
10
0
20
0
30
0
70
128
71
4
72
5
73
2
0
VERTEX
8
OBJECT__21
10
0
20
0
30
0
70
128
71
6
72
7
73
5
0
VERTEX
8
OBJECT__21
10
0
20
0
30
0
70
128
71
5
72
4
73
6
0
VERTEX
8
OBJECT__21
10
0
20
0
30
0
70
128
71
2
72
1
73
4
0
VERTEX
8
OBJECT__21
10
0
20
0
30
0
70
128
71
3
72
8
73
1
0
SEQEND
8
OBJECT__21
0
POLYLINE
8
OBJECT__22
66
1
70
64
71
10
72
8
62
253
0
VERTEX
8
OBJECT__22
10
-4.100000
20
5.175000
30
6.489000
70
192
0
VERTEX
8
OBJECT__22
10
-4.100000
20
-5.175000
30
6.489000
70
192
0
VERTEX
8
OBJECT__22
10
-4.100000
20
-1.847000
30
8.092000
70
192
0
VERTEX
8
OBJECT__22
10
-4.100000
20
-8.300000
30
0.000000
70
192
0
VERTEX
8
OBJECT__22
10
-4.100000
20
-7.478000
30
3.601000
70
192
0
VERTEX
8
OBJECT__22
10
-4.100000
20
7.478000
30
3.601000
70
192
0
VERTEX
8
OBJECT__22
10
-4.100000
20
1.847000
30
8.092000
70
192
0
VERTEX
8
OBJECT__22
10
-4.100000
20
8.300000
30
-30.000000
70
192
0
VERTEX
8
OBJECT__22
10
-4.100000
20
-8.300000
30
-30.000000
70
192
0
VERTEX
8
OBJECT__22
10
-4.100000
20
8.300000
30
0.000000
70
192
0
VERTEX
8
OBJECT__22
10
0
20
0
30
0
70
128
71
1
72
2
73
3
0
VERTEX
8
OBJECT__22
10
0
20
0
30
0
70
128
71
1
72
4
73
5
0
VERTEX
8
OBJECT__22
10
0
20
0
30
0
70
128
71
4
72
1
73
6
0
VERTEX
8
OBJECT__22
10
0
20
0
30
0
70
128
71
5
72
2
73
1
0
VERTEX
8
OBJECT__22
10
0
20
0
30
0
70
128
71
3
72
7
73
1
0
VERTEX
8
OBJECT__22
10
0
20
0
30
0
70
128
71
8
72
9
73
4
0
VERTEX
8
OBJECT__22
10
0
20
0
30
0
70
128
71
4
72
10
73
8
0
VERTEX
8
OBJECT__22
10
0
20
0
30
0
70
128
71
6
72
10
73
4
0
SEQEND
8
OBJECT__22
0
POLYLINE
8
OBJECT__23
66
1
70
64
71
32
72
32
62
253
0
VERTEX
8
OBJECT__23
10
6.000000
20
6.888000
30
16.629999
70
192
0
VERTEX
8
OBJECT__23
10
2.000000
20
6.888000
30
16.629999
70
192
0
VERTEX
8
OBJECT__23
10
2.000000
20
0.000000
30
18.000000
70
192
0
VERTEX
8
OBJECT__23
10
6.000000
20
12.728000
30
12.728000
70
192
0
VERTEX
8
OBJECT__23
10
2.000000
20
12.728000
30
12.728000
70
192
0
VERTEX
8
OBJECT__23
10
6.000000
20
16.629999
30
6.888000
70
192
0
VERTEX
8
OBJECT__23
10
2.000000
20
16.629999
30
6.888000
70
192
0
VERTEX
8
OBJECT__23
10
6.000000
20
18.000000
30
0.000000
70
192
0
VERTEX
8
OBJECT__23
10
2.000000
20
18.000000
30
0.000000
70
192
0
VERTEX
8
OBJECT__23
10
6.000000
20
16.629999
30
-6.888000
70
192
0
VERTEX
8
OBJECT__23
10
2.000000
20
16.629999
30
-6.888000
70
192
0
VERTEX
8
OBJECT__23
10
6.000000
20
12.728000
30
-12.728000
70
192
0
VERTEX
8
OBJECT__23
10
2.000000
20
12.728000
30
-12.728000
70
192
0
VERTEX
8
OBJECT__23
10
6.000000
20
6.888000
30
-16.629999
70
192
0
VERTEX
8
OBJECT__23
10
2.000000
20
6.888000
30
-16.629999
70
192
0
VERTEX
8
OBJECT__23
10
6.000000
20
0.000000
30
-18.000000
70
192
0
VERTEX
8
OBJECT__23
10
2.000000
20
0.000000
30
-18.000000
70
192
0
VERTEX
8
OBJECT__23
10
6.000000
20
-6.888000
30
-16.629999
70
192
0
VERTEX
8
OBJECT__23
10
2.000000
20
-6.888000
30
-16.629999
70
192
0
VERTEX
8
OBJECT__23
10
6.000000
20
-12.728000
30
-12.728000
70
192
0
VERTEX
8
OBJECT__23
10
2.000000
20
-12.728000
30
-12.728000
70
192
0
VERTEX
8
OBJECT__23
10
6.000000
20
-16.629999
30
-6.888000
70
192
0
VERTEX
8
OBJECT__23
10
2.000000
20
-16.629999
30
-6.888000
70
192
0
VERTEX
8
OBJECT__23
10
6.000000
20
-18.000000
30
0.000000
70
192
0
VERTEX
8
OBJECT__23
10
2.000000
20
-18.000000
30
0.000000
70
192
0
VERTEX
8
OBJECT__23
10
6.000000
20
-16.629999
30
6.888000
70
192
0
VERTEX
8
OBJECT__23
10
2.000000
20
-16.629999
30
6.888000
70
192
0
VERTEX
8
OBJECT__23
10
6.000000
20
-12.728000
30
12.728000
70
192
0
VERTEX
8
OBJECT__23
10
2.000000
20
-12.728000
30
12.728000
70
192
0
VERTEX
8
OBJECT__23
10
6.000000
20
-6.888000
30
16.629999
70
192
0
VERTEX
8
OBJECT__23
10
2.000000
20
-6.888000
30
16.629999
70
192
0
VERTEX
8
OBJECT__23
10
6.000000
20
0.000000
30
18.000000
70
192
0
VERTEX
8
OBJECT__23
10
0
20
0
30
0
70
128
71
1
72
2
73
3
0
VERTEX
8
OBJECT__23
10
0
20
0
30
0
70
128
71
4
72
5
73
2
0
VERTEX
8
OBJECT__23
10
0
20
0
30
0
70
128
71
6
72
7
73
5
0
VERTEX
8
OBJECT__23
10
0
20
0
30
0
70
128
71
8
72
9
73
7
0
VERTEX
8
OBJECT__23
10
0
20
0
30
0
70
128
71
10
72
11
73
9
0
VERTEX
8
OBJECT__23
10
0
20
0
30
0
70
128
71
12
72
13
73
11
0
VERTEX
8
OBJECT__23
10
0
20
0
30
0
70
128
71
14
72
15
73
13
0
VERTEX
8
OBJECT__23
10
0
20
0
30
0
70
128
71
16
72
17
73
15
0
VERTEX
8
OBJECT__23
10
0
20
0
30
0
70
128
71
18
72
19
73
17
0
VERTEX
8
OBJECT__23
10
0
20
0
30
0
70
128
71
20
72
21
73
19
0
VERTEX
8
OBJECT__23
10
0
20
0
30
0
70
128
71
22
72
23
73
21
0
VERTEX
8
OBJECT__23
10
0
20
0
30
0
70
128
71
24
72
25
73
23
0
VERTEX
8
OBJECT__23
10
0
20
0
30
0
70
128
71
26
72
27
73
25
0
VERTEX
8
OBJECT__23
10
0
20
0
30
0
70
128
71
28
72
29
73
27
0
VERTEX
8
OBJECT__23
10
0
20
0
30
0
70
128
71
30
72
31
73
29
0
VERTEX
8
OBJECT__23
10
0
20
0
30
0
70
128
71
32
72
3
73
31
0
VERTEX
8
OBJECT__23
10
0
20
0
30
0
70
128
71
31
72
30
73
32
0
VERTEX
8
OBJECT__23
10
0
20
0
30
0
70
128
71
29
72
28
73
30
0
VERTEX
8
OBJECT__23
10
0
20
0
30
0
70
128
71
27
72
26
73
28
0
VERTEX
8
OBJECT__23
10
0
20
0
30
0
70
128
71
25
72
24
73
26
0
VERTEX
8
OBJECT__23
10
0
20
0
30
0
70
128
71
23
72
22
73
24
0
VERTEX
8
OBJECT__23
10
0
20
0
30
0
70
128
71
21
72
20
73
22
0
VERTEX
8
OBJECT__23
10
0
20
0
30
0
70
128
71
19
72
18
73
20
0
VERTEX
8
OBJECT__23
10
0
20
0
30
0
70
128
71
17
72
16
73
18
0
VERTEX
8
OBJECT__23
10
0
20
0
30
0
70
128
71
15
72
14
73
16
0
VERTEX
8
OBJECT__23
10
0
20
0
30
0
70
128
71
13
72
12
73
14
0
VERTEX
8
OBJECT__23
10
0
20
0
30
0
70
128
71
11
72
10
73
12
0
VERTEX
8
OBJECT__23
10
0
20
0
30
0
70
128
71
9
72
8
73
10
0
VERTEX
8
OBJECT__23
10
0
20
0
30
0
70
128
71
7
72
6
73
8
0
VERTEX
8
OBJECT__23
10
0
20
0
30
0
70
128
71
5
72
4
73
6
0
VERTEX
8
OBJECT__23
10
0
20
0
30
0
70
128
71
2
72
1
73
4
0
VERTEX
8
OBJECT__23
10
0
20
0
30
0
70
128
71
3
72
32
73
1
0
SEQEND
8
OBJECT__23
0
POLYLINE
8
OBJECT__24
66
1
70
64
71
16
72
14
62
253
0
VERTEX
8
OBJECT__24
10
6.000000
20
0.000000
30
18.000000
70
192
0
VERTEX
8
OBJECT__24
10
6.000000
20
16.629999
30
6.888000
70
192
0
VERTEX
8
OBJECT__24
10
6.000000
20
12.728000
30
12.728000
70
192
0
VERTEX
8
OBJECT__24
10
6.000000
20
18.000000
30
0.000000
70
192
0
VERTEX
8
OBJECT__24
10
6.000000
20
-16.629999
30
-6.888000
70
192
0
VERTEX
8
OBJECT__24
10
6.000000
20
-6.888000
30
-16.629999
70
192
0
VERTEX
8
OBJECT__24
10
6.000000
20
0.000000
30
-18.000000
70
192
0
VERTEX
8
OBJECT__24
10
6.000000
20
6.888000
30
16.629999
70
192
0
VERTEX
8
OBJECT__24
10
6.000000
20
-6.888000
30
16.629999
70
192
0
VERTEX
8
OBJECT__24
10
6.000000
20
12.728000
30
-12.728000
70
192
0
VERTEX
8
OBJECT__24
10
6.000000
20
16.629999
30
-6.888000
70
192
0
VERTEX
8
OBJECT__24
10
6.000000
20
-12.728000
30
-12.728000
70
192
0
VERTEX
8
OBJECT__24
10
6.000000
20
6.888000
30
-16.629999
70
192
0
VERTEX
8
OBJECT__24
10
6.000000
20
-16.629999
30
6.888000
70
192
0
VERTEX
8
OBJECT__24
10
6.000000
20
-18.000000
30
0.000000
70
192
0
VERTEX
8
OBJECT__24
10
6.000000
20
-12.728000
30
12.728000
70
192
0
VERTEX
8
OBJECT__24
10
0
20
0
30
0
70
128
71
1
72
2
73
3
0
VERTEX
8
OBJECT__24
10
0
20
0
30
0
70
128
71
1
72
4
73
2
0
VERTEX
8
OBJECT__24
10
0
20
0
30
0
70
128
71
5
72
6
73
7
0
VERTEX
8
OBJECT__24
10
0
20
0
30
0
70
128
71
3
72
8
73
1
0
VERTEX
8
OBJECT__24
10
0
20
0
30
0
70
128
71
9
72
10
73
11
0
VERTEX
8
OBJECT__24
10
0
20
0
30
0
70
128
71
5
72
12
73
6
0
VERTEX
8
OBJECT__24
10
0
20
0
30
0
70
128
71
13
72
14
73
15
0
VERTEX
8
OBJECT__24
10
0
20
0
30
0
70
128
71
11
72
4
73
9
0
VERTEX
8
OBJECT__24
10
0
20
0
30
0
70
128
71
15
72
5
73
13
0
VERTEX
8
OBJECT__24
10
0
20
0
30
0
70
128
71
13
72
9
73
16
0
VERTEX
8
OBJECT__24
10
0
20
0
30
0
70
128
71
9
72
13
73
10
0
VERTEX
8
OBJECT__24
10
0
20
0
30
0
70
128
71
16
72
14
73
13
0
VERTEX
8
OBJECT__24
10
0
20
0
30
0
70
128
71
7
72
13
73
5
0
VERTEX
8
OBJECT__24
10
0
20
0
30
0
70
128
71
1
72
9
73
4
0
SEQEND
8
OBJECT__24
0
ENDSEC
0
EOF
