999
Converted by 3D Exploration 
999
XDimension Software, LLC
999
http://www.xdsoft.com/explorer/
0
SECTION
2
HEADER
9
$ACADVER
1
AC1008
9
$UCSORG
10
0.0
20
0.0
30
0.0
9
$UCSXDIR
10
1.0
20
0.0
30
0.0
9
$TILEMODE
70
1
9
$UCSYDIR
10
0.0
20
1.0
30
0.0
9
$EXTMIN
10
0.000000
20
-78.500000
30
-78.500000
9
$EXTMAX
10
90.781998
20
78.500000
30
23.000000
0
ENDSEC
0
SECTION
2
TABLES
0
TABLE
2
LTYPE
70
1
0
LTYPE
2
CONTINUOUS
70
64
3
Solid line
72
65
73
0
40
0.0
0
ENDTAB
0
TABLE
2
LAYER
70
34
0
LAYER
2
OBJECT__0
70
0
62
253
6
CONTINUOUS
0
LAYER
2
OBJECT__1
70
0
62
253
6
CONTINUOUS
0
LAYER
2
OBJECT__3
70
0
62
253
6
CONTINUOUS
0
LAYER
2
OBJECT__4
70
0
62
253
6
CONTINUOUS
0
LAYER
2
OBJECT__5
70
0
62
253
6
CONTINUOUS
0
LAYER
2
OBJECT__6
70
0
62
253
6
CONTINUOUS
0
LAYER
2
OBJECT__7
70
0
62
253
6
CONTINUOUS
0
LAYER
2
OBJECT__8
70
0
62
253
6
CONTINUOUS
0
LAYER
2
OBJECT__9
70
0
62
253
6
CONTINUOUS
0
LAYER
2
OBJECT__10
70
0
62
253
6
CONTINUOUS
0
LAYER
2
OBJECT__11
70
0
62
253
6
CONTINUOUS
0
LAYER
2
OBJECT__12
70
0
62
253
6
CONTINUOUS
0
LAYER
2
OBJECT__13
70
0
62
253
6
CONTINUOUS
0
LAYER
2
OBJECT__14
70
0
62
253
6
CONTINUOUS
0
LAYER
2
OBJECT__15
70
0
62
253
6
CONTINUOUS
0
LAYER
2
OBJECT__16
70
0
62
253
6
CONTINUOUS
0
LAYER
2
OBJECT__17
70
0
62
253
6
CONTINUOUS
0
LAYER
2
OBJECT__18
70
0
62
253
6
CONTINUOUS
0
LAYER
2
OBJECT__19
70
0
62
253
6
CONTINUOUS
0
LAYER
2
OBJECT__20
70
0
62
253
6
CONTINUOUS
0
LAYER
2
OBJECT__21
70
0
62
253
6
CONTINUOUS
0
LAYER
2
OBJECT__22
70
0
62
253
6
CONTINUOUS
0
LAYER
2
OBJECT__23
70
0
62
253
6
CONTINUOUS
0
LAYER
2
OBJECT__24
70
0
62
253
6
CONTINUOUS
0
LAYER
2
OBJECT__25
70
0
62
253
6
CONTINUOUS
0
LAYER
2
OBJECT__27
70
0
62
253
6
CONTINUOUS
0
LAYER
2
OBJECT__28
70
0
62
253
6
CONTINUOUS
0
LAYER
2
OBJECT__29
70
0
62
253
6
CONTINUOUS
0
LAYER
2
OBJECT__30
70
0
62
253
6
CONTINUOUS
0
LAYER
2
OBJECT__31
70
0
62
253
6
CONTINUOUS
0
LAYER
2
OBJECT__32
70
0
62
253
6
CONTINUOUS
0
LAYER
2
OBJECT__33
70
0
62
253
6
CONTINUOUS
0
ENDTAB
0
TABLE
2
STYLE
70
1
0
STYLE
2
STANDARD
70
0
40
0.0
41
1.0
50
0.0
71
0
42
0.2
3
txt
4
1
0
ENDTAB
0
TABLE
2
UCS
70
0
0
ENDTAB
0
ENDSEC
0
SECTION
2
ENTITIES
0
POLYLINE
8
OBJECT__0
66
1
70
64
71
7
72
5
62
253
0
VERTEX
8
OBJECT__0
10
41.900002
20
-8.300000
30
0.000000
70
192
0
VERTEX
8
OBJECT__0
10
41.900002
20
5.869000
30
5.869000
70
192
0
VERTEX
8
OBJECT__0
10
41.900002
20
0.000000
30
8.300000
70
192
0
VERTEX
8
OBJECT__0
10
41.900002
20
8.300000
30
-21.000000
70
192
0
VERTEX
8
OBJECT__0
10
41.900002
20
8.300000
30
0.000000
70
192
0
VERTEX
8
OBJECT__0
10
41.900002
20
-5.869000
30
5.869000
70
192
0
VERTEX
8
OBJECT__0
10
41.900002
20
-8.300000
30
-21.000000
70
192
0
VERTEX
8
OBJECT__0
10
0
20
0
30
0
70
128
71
1
72
2
73
3
0
VERTEX
8
OBJECT__0
10
0
20
0
30
0
70
128
71
4
72
5
73
1
0
VERTEX
8
OBJECT__0
10
0
20
0
30
0
70
128
71
1
72
5
73
2
0
VERTEX
8
OBJECT__0
10
0
20
0
30
0
70
128
71
3
72
6
73
1
0
VERTEX
8
OBJECT__0
10
0
20
0
30
0
70
128
71
1
72
7
73
4
0
SEQEND
8
OBJECT__0
0
POLYLINE
8
OBJECT__1
66
1
70
64
71
4
72
2
62
253
0
VERTEX
8
OBJECT__1
10
41.900002
20
8.300000
30
-21.000000
70
192
0
VERTEX
8
OBJECT__1
10
41.900002
20
-8.300000
30
-21.000000
70
192
0
VERTEX
8
OBJECT__1
10
42.181000
20
-8.300000
30
-22.268000
70
192
0
VERTEX
8
OBJECT__1
10
42.181000
20
8.300000
30
-22.268000
70
192
0
VERTEX
8
OBJECT__1
10
0
20
0
30
0
70
128
71
1
72
2
73
3
0
VERTEX
8
OBJECT__1
10
0
20
0
30
0
70
128
71
3
72
4
73
1
0
SEQEND
8
OBJECT__1
0
POLYLINE
8
OBJECT__3
66
1
70
64
71
6
72
4
62
253
0
VERTEX
8
OBJECT__3
10
41.900002
20
-8.300000
30
-21.000000
70
192
0
VERTEX
8
OBJECT__3
10
41.900002
20
-8.300000
30
0.000000
70
192
0
VERTEX
8
OBJECT__3
10
35.900002
20
-8.300000
30
0.000000
70
192
0
VERTEX
8
OBJECT__3
10
36.743000
20
-8.300000
30
-24.804001
70
192
0
VERTEX
8
OBJECT__3
10
42.181000
20
-8.300000
30
-22.268000
70
192
0
VERTEX
8
OBJECT__3
10
35.900002
20
-8.300000
30
-21.000000
70
192
0
VERTEX
8
OBJECT__3
10
0
20
0
30
0
70
128
71
1
72
2
73
3
0
VERTEX
8
OBJECT__3
10
0
20
0
30
0
70
128
71
4
72
5
73
1
0
VERTEX
8
OBJECT__3
10
0
20
0
30
0
70
128
71
1
72
6
73
4
0
VERTEX
8
OBJECT__3
10
0
20
0
30
0
70
128
71
3
72
6
73
1
0
SEQEND
8
OBJECT__3
0
POLYLINE
8
OBJECT__4
66
1
70
64
71
7
72
5
62
253
0
VERTEX
8
OBJECT__4
10
35.900002
20
-8.300000
30
0.000000
70
192
0
VERTEX
8
OBJECT__4
10
35.900002
20
-5.869000
30
5.869000
70
192
0
VERTEX
8
OBJECT__4
10
35.900002
20
0.000000
30
8.300000
70
192
0
VERTEX
8
OBJECT__4
10
35.900002
20
5.869000
30
5.869000
70
192
0
VERTEX
8
OBJECT__4
10
35.900002
20
8.300000
30
-21.000000
70
192
0
VERTEX
8
OBJECT__4
10
35.900002
20
-8.300000
30
-21.000000
70
192
0
VERTEX
8
OBJECT__4
10
35.900002
20
8.300000
30
0.000000
70
192
0
VERTEX
8
OBJECT__4
10
0
20
0
30
0
70
128
71
1
72
2
73
3
0
VERTEX
8
OBJECT__4
10
0
20
0
30
0
70
128
71
3
72
4
73
1
0
VERTEX
8
OBJECT__4
10
0
20
0
30
0
70
128
71
5
72
6
73
1
0
VERTEX
8
OBJECT__4
10
0
20
0
30
0
70
128
71
1
72
7
73
5
0
VERTEX
8
OBJECT__4
10
0
20
0
30
0
70
128
71
4
72
7
73
1
0
SEQEND
8
OBJECT__4
0
POLYLINE
8
OBJECT__5
66
1
70
64
71
4
72
2
62
253
0
VERTEX
8
OBJECT__5
10
36.743000
20
-8.300000
30
-24.804001
70
192
0
VERTEX
8
OBJECT__5
10
35.900002
20
-8.300000
30
-21.000000
70
192
0
VERTEX
8
OBJECT__5
10
35.900002
20
8.300000
30
-21.000000
70
192
0
VERTEX
8
OBJECT__5
10
36.743000
20
8.300000
30
-24.804001
70
192
0
VERTEX
8
OBJECT__5
10
0
20
0
30
0
70
128
71
1
72
2
73
3
0
VERTEX
8
OBJECT__5
10
0
20
0
30
0
70
128
71
3
72
4
73
1
0
SEQEND
8
OBJECT__5
0
POLYLINE
8
OBJECT__6
66
1
70
64
71
8
72
6
62
253
0
VERTEX
8
OBJECT__6
10
35.900002
20
8.300000
30
-21.000000
70
192
0
VERTEX
8
OBJECT__6
10
41.900002
20
8.300000
30
-21.000000
70
192
0
VERTEX
8
OBJECT__6
10
42.181000
20
8.300000
30
-22.268000
70
192
0
VERTEX
8
OBJECT__6
10
35.900002
20
8.300000
30
0.000000
70
192
0
VERTEX
8
OBJECT__6
10
41.900002
20
8.300000
30
0.000000
70
192
0
VERTEX
8
OBJECT__6
10
48.943001
20
8.300000
30
-36.769001
70
192
0
VERTEX
8
OBJECT__6
10
43.505001
20
8.300000
30
-39.304001
70
192
0
VERTEX
8
OBJECT__6
10
36.743000
20
8.300000
30
-24.804001
70
192
0
VERTEX
8
OBJECT__6
10
0
20
0
30
0
70
128
71
1
72
2
73
3
0
VERTEX
8
OBJECT__6
10
0
20
0
30
0
70
128
71
4
72
5
73
2
0
VERTEX
8
OBJECT__6
10
0
20
0
30
0
70
128
71
6
72
7
73
8
0
VERTEX
8
OBJECT__6
10
0
20
0
30
0
70
128
71
2
72
1
73
4
0
VERTEX
8
OBJECT__6
10
0
20
0
30
0
70
128
71
3
72
8
73
1
0
VERTEX
8
OBJECT__6
10
0
20
0
30
0
70
128
71
8
72
3
73
6
0
SEQEND
8
OBJECT__6
0
POLYLINE
8
OBJECT__7
66
1
70
64
71
4
72
2
62
253
0
VERTEX
8
OBJECT__7
10
36.743000
20
-8.300000
30
-24.804001
70
192
0
VERTEX
8
OBJECT__7
10
36.743000
20
-50.500000
30
-24.804001
70
192
0
VERTEX
8
OBJECT__7
10
42.181000
20
-50.500000
30
-22.268000
70
192
0
VERTEX
8
OBJECT__7
10
42.181000
20
-8.300000
30
-22.268000
70
192
0
VERTEX
8
OBJECT__7
10
0
20
0
30
0
70
128
71
1
72
2
73
3
0
VERTEX
8
OBJECT__7
10
0
20
0
30
0
70
128
71
3
72
4
73
1
0
SEQEND
8
OBJECT__7
0
POLYLINE
8
OBJECT__8
66
1
70
64
71
8
72
6
62
253
0
VERTEX
8
OBJECT__8
10
42.660000
20
-74.749001
30
-37.492001
70
192
0
VERTEX
8
OBJECT__8
10
48.577000
20
-78.500000
30
-50.180000
70
192
0
VERTEX
8
OBJECT__8
10
54.014000
20
-78.500000
30
-47.644001
70
192
0
VERTEX
8
OBJECT__8
10
38.328999
20
-64.500000
30
-28.202999
70
192
0
VERTEX
8
OBJECT__8
10
48.098000
20
-74.749001
30
-34.956001
70
192
0
VERTEX
8
OBJECT__8
10
36.743000
20
-50.500000
30
-24.804001
70
192
0
VERTEX
8
OBJECT__8
10
43.765999
20
-64.500000
30
-25.667999
70
192
0
VERTEX
8
OBJECT__8
10
42.181000
20
-50.500000
30
-22.268000
70
192
0
VERTEX
8
OBJECT__8
10
0
20
0
30
0
70
128
71
1
72
2
73
3
0
VERTEX
8
OBJECT__8
10
0
20
0
30
0
70
128
71
4
72
1
73
5
0
VERTEX
8
OBJECT__8
10
0
20
0
30
0
70
128
71
6
72
4
73
7
0
VERTEX
8
OBJECT__8
10
0
20
0
30
0
70
128
71
7
72
8
73
6
0
VERTEX
8
OBJECT__8
10
0
20
0
30
0
70
128
71
5
72
7
73
4
0
VERTEX
8
OBJECT__8
10
0
20
0
30
0
70
128
71
3
72
5
73
1
0
SEQEND
8
OBJECT__8
0
POLYLINE
8
OBJECT__9
66
1
70
64
71
4
72
2
62
253
0
VERTEX
8
OBJECT__9
10
43.505001
20
8.300000
30
-39.304001
70
192
0
VERTEX
8
OBJECT__9
10
48.943001
20
8.300000
30
-36.769001
70
192
0
VERTEX
8
OBJECT__9
10
48.943001
20
-50.500000
30
-36.769001
70
192
0
VERTEX
8
OBJECT__9
10
43.505001
20
-50.500000
30
-39.304001
70
192
0
VERTEX
8
OBJECT__9
10
0
20
0
30
0
70
128
71
1
72
2
73
3
0
VERTEX
8
OBJECT__9
10
0
20
0
30
0
70
128
71
3
72
4
73
1
0
SEQEND
8
OBJECT__9
0
POLYLINE
8
OBJECT__10
66
1
70
64
71
6
72
4
62
253
0
VERTEX
8
OBJECT__10
10
44.991001
20
-58.985001
30
-42.490002
70
192
0
VERTEX
8
OBJECT__10
10
50.428001
20
-58.985001
30
-39.953999
70
192
0
VERTEX
8
OBJECT__10
10
54.014000
20
-62.500000
30
-47.644001
70
192
0
VERTEX
8
OBJECT__10
10
43.505001
20
-50.500000
30
-39.304001
70
192
0
VERTEX
8
OBJECT__10
10
48.943001
20
-50.500000
30
-36.769001
70
192
0
VERTEX
8
OBJECT__10
10
48.577000
20
-62.500000
30
-50.180000
70
192
0
VERTEX
8
OBJECT__10
10
0
20
0
30
0
70
128
71
1
72
2
73
3
0
VERTEX
8
OBJECT__10
10
0
20
0
30
0
70
128
71
4
72
5
73
2
0
VERTEX
8
OBJECT__10
10
0
20
0
30
0
70
128
71
2
72
1
73
4
0
VERTEX
8
OBJECT__10
10
0
20
0
30
0
70
128
71
3
72
6
73
1
0
SEQEND
8
OBJECT__10
0
POLYLINE
8
OBJECT__11
66
1
70
64
71
4
72
2
62
253
0
VERTEX
8
OBJECT__11
10
73.511002
20
-62.500000
30
-103.652000
70
192
0
VERTEX
8
OBJECT__11
10
48.577000
20
-62.500000
30
-50.180000
70
192
0
VERTEX
8
OBJECT__11
10
54.014000
20
-62.500000
30
-47.644001
70
192
0
VERTEX
8
OBJECT__11
10
78.948997
20
-62.500000
30
-101.116997
70
192
0
VERTEX
8
OBJECT__11
10
0
20
0
30
0
70
128
71
1
72
2
73
3
0
VERTEX
8
OBJECT__11
10
0
20
0
30
0
70
128
71
3
72
4
73
1
0
SEQEND
8
OBJECT__11
0
POLYLINE
8
OBJECT__12
66
1
70
64
71
6
72
4
62
253
0
VERTEX
8
OBJECT__12
10
82.535004
20
-58.985001
30
-108.806999
70
192
0
VERTEX
8
OBJECT__12
10
84.019997
20
-50.500000
30
-111.991997
70
192
0
VERTEX
8
OBJECT__12
10
78.582001
20
-50.500000
30
-114.528000
70
192
0
VERTEX
8
OBJECT__12
10
78.948997
20
-62.500000
30
-101.116997
70
192
0
VERTEX
8
OBJECT__12
10
77.097000
20
-58.985001
30
-111.343002
70
192
0
VERTEX
8
OBJECT__12
10
73.511002
20
-62.500000
30
-103.652000
70
192
0
VERTEX
8
OBJECT__12
10
0
20
0
30
0
70
128
71
1
72
2
73
3
0
VERTEX
8
OBJECT__12
10
0
20
0
30
0
70
128
71
4
72
1
73
5
0
VERTEX
8
OBJECT__12
10
0
20
0
30
0
70
128
71
5
72
6
73
4
0
VERTEX
8
OBJECT__12
10
0
20
0
30
0
70
128
71
3
72
5
73
1
0
SEQEND
8
OBJECT__12
0
POLYLINE
8
OBJECT__13
66
1
70
64
71
4
72
2
62
253
0
VERTEX
8
OBJECT__13
10
84.019997
20
-50.500000
30
-111.991997
70
192
0
VERTEX
8
OBJECT__13
10
84.019997
20
50.500000
30
-111.991997
70
192
0
VERTEX
8
OBJECT__13
10
78.582001
20
50.500000
30
-114.528000
70
192
0
VERTEX
8
OBJECT__13
10
78.582001
20
-50.500000
30
-114.528000
70
192
0
VERTEX
8
OBJECT__13
10
0
20
0
30
0
70
128
71
1
72
2
73
3
0
VERTEX
8
OBJECT__13
10
0
20
0
30
0
70
128
71
3
72
4
73
1
0
SEQEND
8
OBJECT__13
0
POLYLINE
8
OBJECT__14
66
1
70
64
71
6
72
4
62
253
0
VERTEX
8
OBJECT__14
10
73.511002
20
62.500000
30
-103.652000
70
192
0
VERTEX
8
OBJECT__14
10
77.097000
20
58.985001
30
-111.343002
70
192
0
VERTEX
8
OBJECT__14
10
82.535004
20
58.985001
30
-108.806999
70
192
0
VERTEX
8
OBJECT__14
10
84.019997
20
50.500000
30
-111.991997
70
192
0
VERTEX
8
OBJECT__14
10
78.582001
20
50.500000
30
-114.528000
70
192
0
VERTEX
8
OBJECT__14
10
78.948997
20
62.500000
30
-101.116997
70
192
0
VERTEX
8
OBJECT__14
10
0
20
0
30
0
70
128
71
1
72
2
73
3
0
VERTEX
8
OBJECT__14
10
0
20
0
30
0
70
128
71
4
72
3
73
2
0
VERTEX
8
OBJECT__14
10
0
20
0
30
0
70
128
71
2
72
5
73
4
0
VERTEX
8
OBJECT__14
10
0
20
0
30
0
70
128
71
3
72
6
73
1
0
SEQEND
8
OBJECT__14
0
POLYLINE
8
OBJECT__15
66
1
70
64
71
4
72
2
62
253
0
VERTEX
8
OBJECT__15
10
70.553001
20
62.500000
30
-97.307999
70
192
0
VERTEX
8
OBJECT__15
10
73.511002
20
62.500000
30
-103.652000
70
192
0
VERTEX
8
OBJECT__15
10
78.948997
20
62.500000
30
-101.116997
70
192
0
VERTEX
8
OBJECT__15
10
75.990997
20
62.500000
30
-94.772003
70
192
0
VERTEX
8
OBJECT__15
10
0
20
0
30
0
70
128
71
1
72
2
73
3
0
VERTEX
8
OBJECT__15
10
0
20
0
30
0
70
128
71
3
72
4
73
1
0
SEQEND
8
OBJECT__15
0
POLYLINE
8
OBJECT__16
66
1
70
64
71
4
72
2
62
253
0
VERTEX
8
OBJECT__16
10
70.553001
20
62.500000
30
-97.307999
70
192
0
VERTEX
8
OBJECT__16
10
75.990997
20
62.500000
30
-94.772003
70
192
0
VERTEX
8
OBJECT__16
10
75.990997
20
78.500000
30
-94.772003
70
192
0
VERTEX
8
OBJECT__16
10
70.553001
20
78.500000
30
-97.307999
70
192
0
VERTEX
8
OBJECT__16
10
0
20
0
30
0
70
128
71
1
72
2
73
3
0
VERTEX
8
OBJECT__16
10
0
20
0
30
0
70
128
71
3
72
4
73
1
0
SEQEND
8
OBJECT__16
0
POLYLINE
8
OBJECT__17
66
1
70
64
71
4
72
2
62
253
0
VERTEX
8
OBJECT__17
10
73.511002
20
78.500000
30
-103.652000
70
192
0
VERTEX
8
OBJECT__17
10
70.553001
20
78.500000
30
-97.307999
70
192
0
VERTEX
8
OBJECT__17
10
75.990997
20
78.500000
30
-94.772003
70
192
0
VERTEX
8
OBJECT__17
10
78.948997
20
78.500000
30
-101.116997
70
192
0
VERTEX
8
OBJECT__17
10
0
20
0
30
0
70
128
71
1
72
2
73
3
0
VERTEX
8
OBJECT__17
10
0
20
0
30
0
70
128
71
3
72
4
73
1
0
SEQEND
8
OBJECT__17
0
POLYLINE
8
OBJECT__18
66
1
70
64
71
8
72
6
62
253
0
VERTEX
8
OBJECT__18
10
84.865997
20
74.749001
30
-113.805000
70
192
0
VERTEX
8
OBJECT__18
10
79.428001
20
74.749001
30
-116.341003
70
192
0
VERTEX
8
OBJECT__18
10
73.511002
20
78.500000
30
-103.652000
70
192
0
VERTEX
8
OBJECT__18
10
89.196999
20
64.500000
30
-123.093002
70
192
0
VERTEX
8
OBJECT__18
10
83.759003
20
64.500000
30
-125.628998
70
192
0
VERTEX
8
OBJECT__18
10
90.781998
20
50.500000
30
-126.492996
70
192
0
VERTEX
8
OBJECT__18
10
85.344002
20
50.500000
30
-129.029007
70
192
0
VERTEX
8
OBJECT__18
10
78.948997
20
78.500000
30
-101.116997
70
192
0
VERTEX
8
OBJECT__18
10
0
20
0
30
0
70
128
71
1
72
2
73
3
0
VERTEX
8
OBJECT__18
10
0
20
0
30
0
70
128
71
4
72
5
73
2
0
VERTEX
8
OBJECT__18
10
0
20
0
30
0
70
128
71
6
72
7
73
5
0
VERTEX
8
OBJECT__18
10
0
20
0
30
0
70
128
71
5
72
4
73
6
0
VERTEX
8
OBJECT__18
10
0
20
0
30
0
70
128
71
2
72
1
73
4
0
VERTEX
8
OBJECT__18
10
0
20
0
30
0
70
128
71
3
72
8
73
1
0
SEQEND
8
OBJECT__18
0
POLYLINE
8
OBJECT__19
66
1
70
64
71
26
72
24
62
253
0
VERTEX
8
OBJECT__19
10
42.660000
20
-74.749001
30
-37.492001
70
192
0
VERTEX
8
OBJECT__19
10
44.991001
20
-58.985001
30
-42.490002
70
192
0
VERTEX
8
OBJECT__19
10
48.577000
20
-62.500000
30
-50.180000
70
192
0
VERTEX
8
OBJECT__19
10
83.759003
20
64.500000
30
-125.628998
70
192
0
VERTEX
8
OBJECT__19
10
85.344002
20
50.500000
30
-129.029007
70
192
0
VERTEX
8
OBJECT__19
10
78.582001
20
50.500000
30
-114.528000
70
192
0
VERTEX
8
OBJECT__19
10
85.344002
20
-50.500000
30
-129.029007
70
192
0
VERTEX
8
OBJECT__19
10
78.582001
20
-50.500000
30
-114.528000
70
192
0
VERTEX
8
OBJECT__19
10
79.428001
20
-74.749001
30
-116.341003
70
192
0
VERTEX
8
OBJECT__19
10
73.511002
20
-78.500000
30
-103.652000
70
192
0
VERTEX
8
OBJECT__19
10
73.511002
20
-62.500000
30
-103.652000
70
192
0
VERTEX
8
OBJECT__19
10
48.577000
20
-78.500000
30
-50.180000
70
192
0
VERTEX
8
OBJECT__19
10
79.428001
20
74.749001
30
-116.341003
70
192
0
VERTEX
8
OBJECT__19
10
77.097000
20
58.985001
30
-111.343002
70
192
0
VERTEX
8
OBJECT__19
10
73.511002
20
62.500000
30
-103.652000
70
192
0
VERTEX
8
OBJECT__19
10
83.759003
20
-64.500000
30
-125.628998
70
192
0
VERTEX
8
OBJECT__19
10
77.097000
20
-58.985001
30
-111.343002
70
192
0
VERTEX
8
OBJECT__19
10
38.328999
20
-64.500000
30
-28.202999
70
192
0
VERTEX
8
OBJECT__19
10
70.553001
20
62.500000
30
-97.307999
70
192
0
VERTEX
8
OBJECT__19
10
70.553001
20
78.500000
30
-97.307999
70
192
0
VERTEX
8
OBJECT__19
10
73.511002
20
78.500000
30
-103.652000
70
192
0
VERTEX
8
OBJECT__19
10
43.505001
20
-50.500000
30
-39.304001
70
192
0
VERTEX
8
OBJECT__19
10
36.743000
20
-50.500000
30
-24.804001
70
192
0
VERTEX
8
OBJECT__19
10
36.743000
20
-8.300000
30
-24.804001
70
192
0
VERTEX
8
OBJECT__19
10
43.505001
20
8.300000
30
-39.304001
70
192
0
VERTEX
8
OBJECT__19
10
36.743000
20
8.300000
30
-24.804001
70
192
0
VERTEX
8
OBJECT__19
10
0
20
0
30
0
70
128
71
1
72
2
73
3
0
VERTEX
8
OBJECT__19
10
0
20
0
30
0
70
128
71
4
72
5
73
6
0
VERTEX
8
OBJECT__19
10
0
20
0
30
0
70
128
71
7
72
8
73
6
0
VERTEX
8
OBJECT__19
10
0
20
0
30
0
70
128
71
9
72
10
73
11
0
VERTEX
8
OBJECT__19
10
0
20
0
30
0
70
128
71
12
72
3
73
11
0
VERTEX
8
OBJECT__19
10
0
20
0
30
0
70
128
71
3
72
12
73
1
0
VERTEX
8
OBJECT__19
10
0
20
0
30
0
70
128
71
13
72
14
73
15
0
VERTEX
8
OBJECT__19
10
0
20
0
30
0
70
128
71
6
72
5
73
7
0
VERTEX
8
OBJECT__19
10
0
20
0
30
0
70
128
71
16
72
17
73
8
0
VERTEX
8
OBJECT__19
10
0
20
0
30
0
70
128
71
17
72
16
73
9
0
VERTEX
8
OBJECT__19
10
0
20
0
30
0
70
128
71
1
72
18
73
2
0
VERTEX
8
OBJECT__19
10
0
20
0
30
0
70
128
71
19
72
20
73
21
0
VERTEX
8
OBJECT__19
10
0
20
0
30
0
70
128
71
15
72
21
73
13
0
VERTEX
8
OBJECT__19
10
0
20
0
30
0
70
128
71
8
72
7
73
16
0
VERTEX
8
OBJECT__19
10
0
20
0
30
0
70
128
71
11
72
10
73
12
0
VERTEX
8
OBJECT__19
10
0
20
0
30
0
70
128
71
22
72
23
73
24
0
VERTEX
8
OBJECT__19
10
0
20
0
30
0
70
128
71
13
72
4
73
14
0
VERTEX
8
OBJECT__19
10
0
20
0
30
0
70
128
71
11
72
17
73
9
0
VERTEX
8
OBJECT__19
10
0
20
0
30
0
70
128
71
18
72
23
73
22
0
VERTEX
8
OBJECT__19
10
0
20
0
30
0
70
128
71
24
72
25
73
22
0
VERTEX
8
OBJECT__19
10
0
20
0
30
0
70
128
71
6
72
14
73
4
0
VERTEX
8
OBJECT__19
10
0
20
0
30
0
70
128
71
24
72
26
73
25
0
VERTEX
8
OBJECT__19
10
0
20
0
30
0
70
128
71
22
72
2
73
18
0
VERTEX
8
OBJECT__19
10
0
20
0
30
0
70
128
71
21
72
15
73
19
0
SEQEND
8
OBJECT__19
0
POLYLINE
8
OBJECT__20
66
1
70
64
71
26
72
24
62
253
0
VERTEX
8
OBJECT__20
10
48.098000
20
-74.749001
30
-34.956001
70
192
0
VERTEX
8
OBJECT__20
10
54.014000
20
-78.500000
30
-47.644001
70
192
0
VERTEX
8
OBJECT__20
10
54.014000
20
-62.500000
30
-47.644001
70
192
0
VERTEX
8
OBJECT__20
10
48.943001
20
-50.500000
30
-36.769001
70
192
0
VERTEX
8
OBJECT__20
10
48.943001
20
8.300000
30
-36.769001
70
192
0
VERTEX
8
OBJECT__20
10
42.181000
20
-8.300000
30
-22.268000
70
192
0
VERTEX
8
OBJECT__20
10
50.428001
20
-58.985001
30
-39.953999
70
192
0
VERTEX
8
OBJECT__20
10
43.765999
20
-64.500000
30
-25.667999
70
192
0
VERTEX
8
OBJECT__20
10
78.948997
20
-62.500000
30
-101.116997
70
192
0
VERTEX
8
OBJECT__20
10
84.865997
20
-74.749001
30
-113.805000
70
192
0
VERTEX
8
OBJECT__20
10
82.535004
20
-58.985001
30
-108.806999
70
192
0
VERTEX
8
OBJECT__20
10
42.181000
20
8.300000
30
-22.268000
70
192
0
VERTEX
8
OBJECT__20
10
78.948997
20
-78.500000
30
-101.116997
70
192
0
VERTEX
8
OBJECT__20
10
90.781998
20
50.500000
30
-126.492996
70
192
0
VERTEX
8
OBJECT__20
10
84.019997
20
50.500000
30
-111.991997
70
192
0
VERTEX
8
OBJECT__20
10
84.019997
20
-50.500000
30
-111.991997
70
192
0
VERTEX
8
OBJECT__20
10
89.196999
20
64.500000
30
-123.093002
70
192
0
VERTEX
8
OBJECT__20
10
82.535004
20
58.985001
30
-108.806999
70
192
0
VERTEX
8
OBJECT__20
10
42.181000
20
-50.500000
30
-22.268000
70
192
0
VERTEX
8
OBJECT__20
10
89.196999
20
-64.500000
30
-123.093002
70
192
0
VERTEX
8
OBJECT__20
10
90.781998
20
-50.500000
30
-126.492996
70
192
0
VERTEX
8
OBJECT__20
10
84.865997
20
74.749001
30
-113.805000
70
192
0
VERTEX
8
OBJECT__20
10
78.948997
20
78.500000
30
-101.116997
70
192
0
VERTEX
8
OBJECT__20
10
78.948997
20
62.500000
30
-101.116997
70
192
0
VERTEX
8
OBJECT__20
10
75.990997
20
62.500000
30
-94.772003
70
192
0
VERTEX
8
OBJECT__20
10
75.990997
20
78.500000
30
-94.772003
70
192
0
VERTEX
8
OBJECT__20
10
0
20
0
30
0
70
128
71
1
72
2
73
3
0
VERTEX
8
OBJECT__20
10
0
20
0
30
0
70
128
71
4
72
5
73
6
0
VERTEX
8
OBJECT__20
10
0
20
0
30
0
70
128
71
7
72
8
73
1
0
VERTEX
8
OBJECT__20
10
0
20
0
30
0
70
128
71
9
72
3
73
2
0
VERTEX
8
OBJECT__20
10
0
20
0
30
0
70
128
71
10
72
11
73
9
0
VERTEX
8
OBJECT__20
10
0
20
0
30
0
70
128
71
5
72
12
73
6
0
VERTEX
8
OBJECT__20
10
0
20
0
30
0
70
128
71
8
72
7
73
4
0
VERTEX
8
OBJECT__20
10
0
20
0
30
0
70
128
71
2
72
13
73
9
0
VERTEX
8
OBJECT__20
10
0
20
0
30
0
70
128
71
9
72
13
73
10
0
VERTEX
8
OBJECT__20
10
0
20
0
30
0
70
128
71
14
72
15
73
16
0
VERTEX
8
OBJECT__20
10
0
20
0
30
0
70
128
71
17
72
18
73
15
0
VERTEX
8
OBJECT__20
10
0
20
0
30
0
70
128
71
4
72
19
73
8
0
VERTEX
8
OBJECT__20
10
0
20
0
30
0
70
128
71
10
72
20
73
11
0
VERTEX
8
OBJECT__20
10
0
20
0
30
0
70
128
71
20
72
21
73
16
0
VERTEX
8
OBJECT__20
10
0
20
0
30
0
70
128
71
15
72
14
73
17
0
VERTEX
8
OBJECT__20
10
0
20
0
30
0
70
128
71
22
72
23
73
24
0
VERTEX
8
OBJECT__20
10
0
20
0
30
0
70
128
71
3
72
7
73
1
0
VERTEX
8
OBJECT__20
10
0
20
0
30
0
70
128
71
16
72
21
73
14
0
VERTEX
8
OBJECT__20
10
0
20
0
30
0
70
128
71
18
72
17
73
22
0
VERTEX
8
OBJECT__20
10
0
20
0
30
0
70
128
71
25
72
24
73
23
0
VERTEX
8
OBJECT__20
10
0
20
0
30
0
70
128
71
16
72
11
73
20
0
VERTEX
8
OBJECT__20
10
0
20
0
30
0
70
128
71
23
72
26
73
25
0
VERTEX
8
OBJECT__20
10
0
20
0
30
0
70
128
71
24
72
18
73
22
0
VERTEX
8
OBJECT__20
10
0
20
0
30
0
70
128
71
6
72
19
73
4
0
SEQEND
8
OBJECT__20
0
POLYLINE
8
OBJECT__21
66
1
70
64
71
8
72
6
62
253
0
VERTEX
8
OBJECT__21
10
89.196999
20
-64.500000
30
-123.093002
70
192
0
VERTEX
8
OBJECT__21
10
83.759003
20
-64.500000
30
-125.628998
70
192
0
VERTEX
8
OBJECT__21
10
85.344002
20
-50.500000
30
-129.029007
70
192
0
VERTEX
8
OBJECT__21
10
79.428001
20
-74.749001
30
-116.341003
70
192
0
VERTEX
8
OBJECT__21
10
78.948997
20
-78.500000
30
-101.116997
70
192
0
VERTEX
8
OBJECT__21
10
73.511002
20
-78.500000
30
-103.652000
70
192
0
VERTEX
8
OBJECT__21
10
84.865997
20
-74.749001
30
-113.805000
70
192
0
VERTEX
8
OBJECT__21
10
90.781998
20
-50.500000
30
-126.492996
70
192
0
VERTEX
8
OBJECT__21
10
0
20
0
30
0
70
128
71
1
72
2
73
3
0
VERTEX
8
OBJECT__21
10
0
20
0
30
0
70
128
71
4
72
2
73
1
0
VERTEX
8
OBJECT__21
10
0
20
0
30
0
70
128
71
5
72
6
73
4
0
VERTEX
8
OBJECT__21
10
0
20
0
30
0
70
128
71
4
72
7
73
5
0
VERTEX
8
OBJECT__21
10
0
20
0
30
0
70
128
71
1
72
7
73
4
0
VERTEX
8
OBJECT__21
10
0
20
0
30
0
70
128
71
3
72
8
73
1
0
SEQEND
8
OBJECT__21
0
POLYLINE
8
OBJECT__22
66
1
70
64
71
4
72
2
62
253
0
VERTEX
8
OBJECT__22
10
85.344002
20
50.500000
30
-129.029007
70
192
0
VERTEX
8
OBJECT__22
10
90.781998
20
50.500000
30
-126.492996
70
192
0
VERTEX
8
OBJECT__22
10
90.781998
20
-50.500000
30
-126.492996
70
192
0
VERTEX
8
OBJECT__22
10
85.344002
20
-50.500000
30
-129.029007
70
192
0
VERTEX
8
OBJECT__22
10
0
20
0
30
0
70
128
71
1
72
2
73
3
0
VERTEX
8
OBJECT__22
10
0
20
0
30
0
70
128
71
3
72
4
73
1
0
SEQEND
8
OBJECT__22
0
POLYLINE
8
OBJECT__23
66
1
70
64
71
4
72
2
62
253
0
VERTEX
8
OBJECT__23
10
48.577000
20
-78.500000
30
-50.180000
70
192
0
VERTEX
8
OBJECT__23
10
73.511002
20
-78.500000
30
-103.652000
70
192
0
VERTEX
8
OBJECT__23
10
78.948997
20
-78.500000
30
-101.116997
70
192
0
VERTEX
8
OBJECT__23
10
54.014000
20
-78.500000
30
-47.644001
70
192
0
VERTEX
8
OBJECT__23
10
0
20
0
30
0
70
128
71
1
72
2
73
3
0
VERTEX
8
OBJECT__23
10
0
20
0
30
0
70
128
71
3
72
4
73
1
0
SEQEND
8
OBJECT__23
0
POLYLINE
8
OBJECT__24
66
1
70
64
71
12
72
10
62
253
0
VERTEX
8
OBJECT__24
10
46.000000
20
-13.603000
30
11.787000
70
192
0
VERTEX
8
OBJECT__24
10
46.000000
20
-17.816999
30
2.562000
70
192
0
VERTEX
8
OBJECT__24
10
46.000000
20
-16.372999
30
-7.477000
70
192
0
VERTEX
8
OBJECT__24
10
46.000000
20
-9.732000
30
-15.143000
70
192
0
VERTEX
8
OBJECT__24
10
46.000000
20
5.071000
30
17.271000
70
192
0
VERTEX
8
OBJECT__24
10
46.000000
20
16.372999
30
-7.477000
70
192
0
VERTEX
8
OBJECT__24
10
46.000000
20
17.816999
30
2.562000
70
192
0
VERTEX
8
OBJECT__24
10
46.000000
20
0.000000
30
-18.000000
70
192
0
VERTEX
8
OBJECT__24
10
46.000000
20
9.732000
30
-15.143000
70
192
0
VERTEX
8
OBJECT__24
10
46.000000
20
-5.071000
30
17.271000
70
192
0
VERTEX
8
OBJECT__24
10
46.000000
20
0.000000
30
18.000000
70
192
0
VERTEX
8
OBJECT__24
10
46.000000
20
13.603000
30
11.787000
70
192
0
VERTEX
8
OBJECT__24
10
0
20
0
30
0
70
128
71
1
72
2
73
3
0
VERTEX
8
OBJECT__24
10
0
20
0
30
0
70
128
71
3
72
4
73
1
0
VERTEX
8
OBJECT__24
10
0
20
0
30
0
70
128
71
5
72
6
73
7
0
VERTEX
8
OBJECT__24
10
0
20
0
30
0
70
128
71
5
72
8
73
9
0
VERTEX
8
OBJECT__24
10
0
20
0
30
0
70
128
71
8
72
10
73
1
0
VERTEX
8
OBJECT__24
10
0
20
0
30
0
70
128
71
9
72
6
73
5
0
VERTEX
8
OBJECT__24
10
0
20
0
30
0
70
128
71
8
72
11
73
10
0
VERTEX
8
OBJECT__24
10
0
20
0
30
0
70
128
71
7
72
12
73
5
0
VERTEX
8
OBJECT__24
10
0
20
0
30
0
70
128
71
5
72
11
73
8
0
VERTEX
8
OBJECT__24
10
0
20
0
30
0
70
128
71
4
72
8
73
1
0
SEQEND
8
OBJECT__24
0
POLYLINE
8
OBJECT__25
66
1
70
64
71
35
72
35
62
253
0
VERTEX
8
OBJECT__25
10
46.000000
20
0.000000
30
-18.000000
70
192
0
VERTEX
8
OBJECT__25
10
46.000000
20
-9.732000
30
-15.143000
70
192
0
VERTEX
8
OBJECT__25
10
42.000000
20
-7.477000
30
-16.372999
70
192
0
VERTEX
8
OBJECT__25
10
42.000000
20
-9.374000
30
-14.730000
70
192
0
VERTEX
8
OBJECT__25
10
46.000000
20
-16.372999
30
-7.477000
70
192
0
VERTEX
8
OBJECT__25
10
42.000000
20
-15.143000
30
-9.732000
70
192
0
VERTEX
8
OBJECT__25
10
42.000000
20
-15.850000
30
-7.324000
70
192
0
VERTEX
8
OBJECT__25
10
46.000000
20
-17.816999
30
2.562000
70
192
0
VERTEX
8
OBJECT__25
10
42.000000
20
-18.000000
30
0.000000
70
192
0
VERTEX
8
OBJECT__25
10
42.000000
20
-17.292999
30
2.408000
70
192
0
VERTEX
8
OBJECT__25
10
46.000000
20
-13.603000
30
11.787000
70
192
0
VERTEX
8
OBJECT__25
10
42.000000
20
-15.143000
30
9.732000
70
192
0
VERTEX
8
OBJECT__25
10
42.000000
20
-13.246000
30
11.375000
70
192
0
VERTEX
8
OBJECT__25
10
46.000000
20
-5.071000
30
17.271000
70
192
0
VERTEX
8
OBJECT__25
10
42.000000
20
-7.477000
30
16.372999
70
192
0
VERTEX
8
OBJECT__25
10
42.000000
20
-4.993000
30
16.914000
70
192
0
VERTEX
8
OBJECT__25
10
46.000000
20
0.000000
30
18.000000
70
192
0
VERTEX
8
OBJECT__25
10
46.000000
20
5.071000
30
17.271000
70
192
0
VERTEX
8
OBJECT__25
10
42.000000
20
2.562000
30
17.816999
70
192
0
VERTEX
8
OBJECT__25
10
42.000000
20
4.844000
30
16.774000
70
192
0
VERTEX
8
OBJECT__25
10
42.000000
20
0.000000
30
18.000000
70
192
0
VERTEX
8
OBJECT__25
10
46.000000
20
13.603000
30
11.787000
70
192
0
VERTEX
8
OBJECT__25
10
42.000000
20
11.787000
30
13.603000
70
192
0
VERTEX
8
OBJECT__25
10
42.000000
20
13.144000
30
11.492000
70
192
0
VERTEX
8
OBJECT__25
10
46.000000
20
17.816999
30
2.562000
70
192
0
VERTEX
8
OBJECT__25
10
42.000000
20
17.271000
30
5.071000
70
192
0
VERTEX
8
OBJECT__25
10
42.000000
20
17.271000
30
2.562000
70
192
0
VERTEX
8
OBJECT__25
10
46.000000
20
16.372999
30
-7.477000
70
192
0
VERTEX
8
OBJECT__25
10
42.000000
20
17.271000
30
-5.071000
70
192
0
VERTEX
8
OBJECT__25
10
42.000000
20
15.914000
30
-7.182000
70
192
0
VERTEX
8
OBJECT__25
10
46.000000
20
9.732000
30
-15.143000
70
192
0
VERTEX
8
OBJECT__25
10
42.000000
20
11.787000
30
-13.603000
70
192
0
VERTEX
8
OBJECT__25
10
42.000000
20
9.505000
30
-14.646000
70
192
0
VERTEX
8
OBJECT__25
10
42.000000
20
2.562000
30
-17.816999
70
192
0
VERTEX
8
OBJECT__25
10
42.000000
20
0.078000
30
-17.459999
70
192
0
VERTEX
8
OBJECT__25
10
0
20
0
30
0
70
128
71
1
72
2
73
3
0
VERTEX
8
OBJECT__25
10
0
20
0
30
0
70
128
71
2
72
4
73
3
0
VERTEX
8
OBJECT__25
10
0
20
0
30
0
70
128
71
2
72
5
73
6
0
VERTEX
8
OBJECT__25
10
0
20
0
30
0
70
128
71
5
72
7
73
6
0
VERTEX
8
OBJECT__25
10
0
20
0
30
0
70
128
71
5
72
8
73
9
0
VERTEX
8
OBJECT__25
10
0
20
0
30
0
70
128
71
8
72
10
73
9
0
VERTEX
8
OBJECT__25
10
0
20
0
30
0
70
128
71
8
72
11
73
12
0
VERTEX
8
OBJECT__25
10
0
20
0
30
0
70
128
71
11
72
13
73
12
0
VERTEX
8
OBJECT__25
10
0
20
0
30
0
70
128
71
11
72
14
73
15
0
VERTEX
8
OBJECT__25
10
0
20
0
30
0
70
128
71
14
72
16
73
15
0
VERTEX
8
OBJECT__25
10
0
20
0
30
0
70
128
71
17
72
18
73
19
0
VERTEX
8
OBJECT__25
10
0
20
0
30
0
70
128
71
18
72
20
73
19
0
VERTEX
8
OBJECT__25
10
0
20
0
30
0
70
128
71
17
72
21
73
16
0
VERTEX
8
OBJECT__25
10
0
20
0
30
0
70
128
71
16
72
14
73
17
0
VERTEX
8
OBJECT__25
10
0
20
0
30
0
70
128
71
18
72
22
73
23
0
VERTEX
8
OBJECT__25
10
0
20
0
30
0
70
128
71
22
72
24
73
23
0
VERTEX
8
OBJECT__25
10
0
20
0
30
0
70
128
71
22
72
25
73
26
0
VERTEX
8
OBJECT__25
10
0
20
0
30
0
70
128
71
25
72
27
73
26
0
VERTEX
8
OBJECT__25
10
0
20
0
30
0
70
128
71
25
72
28
73
29
0
VERTEX
8
OBJECT__25
10
0
20
0
30
0
70
128
71
28
72
30
73
29
0
VERTEX
8
OBJECT__25
10
0
20
0
30
0
70
128
71
28
72
31
73
32
0
VERTEX
8
OBJECT__25
10
0
20
0
30
0
70
128
71
31
72
33
73
32
0
VERTEX
8
OBJECT__25
10
0
20
0
30
0
70
128
71
31
72
1
73
34
0
VERTEX
8
OBJECT__25
10
0
20
0
30
0
70
128
71
1
72
35
73
34
0
VERTEX
8
OBJECT__25
10
0
20
0
30
0
70
128
71
34
72
33
73
31
0
VERTEX
8
OBJECT__25
10
0
20
0
30
0
70
128
71
32
72
30
73
28
0
VERTEX
8
OBJECT__25
10
0
20
0
30
0
70
128
71
29
72
27
73
25
0
VERTEX
8
OBJECT__25
10
0
20
0
30
0
70
128
71
26
72
24
73
22
0
VERTEX
8
OBJECT__25
10
0
20
0
30
0
70
128
71
23
72
20
73
18
0
VERTEX
8
OBJECT__25
10
0
20
0
30
0
70
128
71
19
72
21
73
17
0
VERTEX
8
OBJECT__25
10
0
20
0
30
0
70
128
71
15
72
13
73
11
0
VERTEX
8
OBJECT__25
10
0
20
0
30
0
70
128
71
12
72
10
73
8
0
VERTEX
8
OBJECT__25
10
0
20
0
30
0
70
128
71
9
72
7
73
5
0
VERTEX
8
OBJECT__25
10
0
20
0
30
0
70
128
71
6
72
4
73
2
0
VERTEX
8
OBJECT__25
10
0
20
0
30
0
70
128
71
3
72
35
73
1
0
SEQEND
8
OBJECT__25
0
POLYLINE
8
OBJECT__27
66
1
70
64
71
35
72
35
62
253
0
VERTEX
8
OBJECT__27
10
7.000000
20
-15.143000
30
9.732000
70
192
0
VERTEX
8
OBJECT__27
10
7.000000
20
-18.000000
30
0.000000
70
192
0
VERTEX
8
OBJECT__27
10
42.000000
20
-17.292999
30
2.408000
70
192
0
VERTEX
8
OBJECT__27
10
42.000000
20
-18.000000
30
0.000000
70
192
0
VERTEX
8
OBJECT__27
10
7.000000
20
-7.477000
30
16.372999
70
192
0
VERTEX
8
OBJECT__27
10
42.000000
20
-13.246000
30
11.375000
70
192
0
VERTEX
8
OBJECT__27
10
42.000000
20
-15.143000
30
9.732000
70
192
0
VERTEX
8
OBJECT__27
10
7.000000
20
2.562000
30
17.816999
70
192
0
VERTEX
8
OBJECT__27
10
42.000000
20
-4.993000
30
16.914000
70
192
0
VERTEX
8
OBJECT__27
10
42.000000
20
0.000000
30
18.000000
70
192
0
VERTEX
8
OBJECT__27
10
42.000000
20
-7.477000
30
16.372999
70
192
0
VERTEX
8
OBJECT__27
10
7.000000
20
11.787000
30
13.603000
70
192
0
VERTEX
8
OBJECT__27
10
42.000000
20
4.844000
30
16.774000
70
192
0
VERTEX
8
OBJECT__27
10
42.000000
20
2.562000
30
17.816999
70
192
0
VERTEX
8
OBJECT__27
10
7.000000
20
17.271000
30
5.071000
70
192
0
VERTEX
8
OBJECT__27
10
42.000000
20
13.144000
30
11.492000
70
192
0
VERTEX
8
OBJECT__27
10
42.000000
20
11.787000
30
13.603000
70
192
0
VERTEX
8
OBJECT__27
10
42.000000
20
17.271000
30
-5.071000
70
192
0
VERTEX
8
OBJECT__27
10
7.000000
20
17.271000
30
-5.071000
70
192
0
VERTEX
8
OBJECT__27
10
7.000000
20
18.000000
30
0.000000
70
192
0
VERTEX
8
OBJECT__27
10
42.000000
20
17.271000
30
2.562000
70
192
0
VERTEX
8
OBJECT__27
10
42.000000
20
17.271000
30
5.071000
70
192
0
VERTEX
8
OBJECT__27
10
7.000000
20
11.787000
30
-13.603000
70
192
0
VERTEX
8
OBJECT__27
10
42.000000
20
15.914000
30
-7.182000
70
192
0
VERTEX
8
OBJECT__27
10
7.000000
20
2.562000
30
-17.816999
70
192
0
VERTEX
8
OBJECT__27
10
42.000000
20
9.505000
30
-14.646000
70
192
0
VERTEX
8
OBJECT__27
10
42.000000
20
11.787000
30
-13.603000
70
192
0
VERTEX
8
OBJECT__27
10
7.000000
20
-7.477000
30
-16.372999
70
192
0
VERTEX
8
OBJECT__27
10
42.000000
20
0.078000
30
-17.459999
70
192
0
VERTEX
8
OBJECT__27
10
42.000000
20
2.562000
30
-17.816999
70
192
0
VERTEX
8
OBJECT__27
10
7.000000
20
-15.143000
30
-9.732000
70
192
0
VERTEX
8
OBJECT__27
10
42.000000
20
-9.374000
30
-14.730000
70
192
0
VERTEX
8
OBJECT__27
10
42.000000
20
-7.477000
30
-16.372999
70
192
0
VERTEX
8
OBJECT__27
10
42.000000
20
-15.850000
30
-7.324000
70
192
0
VERTEX
8
OBJECT__27
10
42.000000
20
-15.143000
30
-9.732000
70
192
0
VERTEX
8
OBJECT__27
10
0
20
0
30
0
70
128
71
1
72
2
73
3
0
VERTEX
8
OBJECT__27
10
0
20
0
30
0
70
128
71
2
72
4
73
3
0
VERTEX
8
OBJECT__27
10
0
20
0
30
0
70
128
71
5
72
1
73
6
0
VERTEX
8
OBJECT__27
10
0
20
0
30
0
70
128
71
1
72
7
73
6
0
VERTEX
8
OBJECT__27
10
0
20
0
30
0
70
128
71
8
72
5
73
9
0
VERTEX
8
OBJECT__27
10
0
20
0
30
0
70
128
71
9
72
10
73
8
0
VERTEX
8
OBJECT__27
10
0
20
0
30
0
70
128
71
5
72
11
73
9
0
VERTEX
8
OBJECT__27
10
0
20
0
30
0
70
128
71
12
72
8
73
13
0
VERTEX
8
OBJECT__27
10
0
20
0
30
0
70
128
71
8
72
14
73
13
0
VERTEX
8
OBJECT__27
10
0
20
0
30
0
70
128
71
15
72
12
73
16
0
VERTEX
8
OBJECT__27
10
0
20
0
30
0
70
128
71
12
72
17
73
16
0
VERTEX
8
OBJECT__27
10
0
20
0
30
0
70
128
71
18
72
19
73
20
0
VERTEX
8
OBJECT__27
10
0
20
0
30
0
70
128
71
20
72
21
73
18
0
VERTEX
8
OBJECT__27
10
0
20
0
30
0
70
128
71
15
72
22
73
21
0
VERTEX
8
OBJECT__27
10
0
20
0
30
0
70
128
71
23
72
19
73
24
0
VERTEX
8
OBJECT__27
10
0
20
0
30
0
70
128
71
19
72
18
73
24
0
VERTEX
8
OBJECT__27
10
0
20
0
30
0
70
128
71
25
72
23
73
26
0
VERTEX
8
OBJECT__27
10
0
20
0
30
0
70
128
71
23
72
27
73
26
0
VERTEX
8
OBJECT__27
10
0
20
0
30
0
70
128
71
28
72
25
73
29
0
VERTEX
8
OBJECT__27
10
0
20
0
30
0
70
128
71
25
72
30
73
29
0
VERTEX
8
OBJECT__27
10
0
20
0
30
0
70
128
71
31
72
28
73
32
0
VERTEX
8
OBJECT__27
10
0
20
0
30
0
70
128
71
28
72
33
73
32
0
VERTEX
8
OBJECT__27
10
0
20
0
30
0
70
128
71
2
72
31
73
34
0
VERTEX
8
OBJECT__27
10
0
20
0
30
0
70
128
71
31
72
35
73
34
0
VERTEX
8
OBJECT__27
10
0
20
0
30
0
70
128
71
34
72
4
73
2
0
VERTEX
8
OBJECT__27
10
0
20
0
30
0
70
128
71
32
72
35
73
31
0
VERTEX
8
OBJECT__27
10
0
20
0
30
0
70
128
71
29
72
33
73
28
0
VERTEX
8
OBJECT__27
10
0
20
0
30
0
70
128
71
26
72
30
73
25
0
VERTEX
8
OBJECT__27
10
0
20
0
30
0
70
128
71
24
72
27
73
23
0
VERTEX
8
OBJECT__27
10
0
20
0
30
0
70
128
71
20
72
15
73
21
0
VERTEX
8
OBJECT__27
10
0
20
0
30
0
70
128
71
16
72
22
73
15
0
VERTEX
8
OBJECT__27
10
0
20
0
30
0
70
128
71
13
72
17
73
12
0
VERTEX
8
OBJECT__27
10
0
20
0
30
0
70
128
71
10
72
14
73
8
0
VERTEX
8
OBJECT__27
10
0
20
0
30
0
70
128
71
6
72
11
73
5
0
VERTEX
8
OBJECT__27
10
0
20
0
30
0
70
128
71
3
72
7
73
1
0
SEQEND
8
OBJECT__27
0
POLYLINE
8
OBJECT__28
66
1
70
64
71
16
72
16
62
253
0
VERTEX
8
OBJECT__28
10
7.000000
20
-23.000000
30
23.000000
70
192
0
VERTEX
8
OBJECT__28
10
7.000000
20
-7.477000
30
16.372999
70
192
0
VERTEX
8
OBJECT__28
10
7.000000
20
2.562000
30
17.816999
70
192
0
VERTEX
8
OBJECT__28
10
7.000000
20
-15.143000
30
9.732000
70
192
0
VERTEX
8
OBJECT__28
10
7.000000
20
-23.000000
30
-23.000000
70
192
0
VERTEX
8
OBJECT__28
10
7.000000
20
-18.000000
30
0.000000
70
192
0
VERTEX
8
OBJECT__28
10
7.000000
20
23.000000
30
23.000000
70
192
0
VERTEX
8
OBJECT__28
10
7.000000
20
11.787000
30
13.603000
70
192
0
VERTEX
8
OBJECT__28
10
7.000000
20
17.271000
30
5.071000
70
192
0
VERTEX
8
OBJECT__28
10
7.000000
20
-15.143000
30
-9.732000
70
192
0
VERTEX
8
OBJECT__28
10
7.000000
20
23.000000
30
-23.000000
70
192
0
VERTEX
8
OBJECT__28
10
7.000000
20
2.562000
30
-17.816999
70
192
0
VERTEX
8
OBJECT__28
10
7.000000
20
18.000000
30
0.000000
70
192
0
VERTEX
8
OBJECT__28
10
7.000000
20
-7.477000
30
-16.372999
70
192
0
VERTEX
8
OBJECT__28
10
7.000000
20
17.271000
30
-5.071000
70
192
0
VERTEX
8
OBJECT__28
10
7.000000
20
11.787000
30
-13.603000
70
192
0
VERTEX
8
OBJECT__28
10
0
20
0
30
0
70
128
71
1
72
2
73
3
0
VERTEX
8
OBJECT__28
10
0
20
0
30
0
70
128
71
1
72
4
73
2
0
VERTEX
8
OBJECT__28
10
0
20
0
30
0
70
128
71
1
72
5
73
6
0
VERTEX
8
OBJECT__28
10
0
20
0
30
0
70
128
71
7
72
8
73
9
0
VERTEX
8
OBJECT__28
10
0
20
0
30
0
70
128
71
6
72
4
73
1
0
VERTEX
8
OBJECT__28
10
0
20
0
30
0
70
128
71
7
72
3
73
8
0
VERTEX
8
OBJECT__28
10
0
20
0
30
0
70
128
71
5
72
10
73
6
0
VERTEX
8
OBJECT__28
10
0
20
0
30
0
70
128
71
5
72
11
73
12
0
VERTEX
8
OBJECT__28
10
0
20
0
30
0
70
128
71
11
72
7
73
13
0
VERTEX
8
OBJECT__28
10
0
20
0
30
0
70
128
71
3
72
7
73
1
0
VERTEX
8
OBJECT__28
10
0
20
0
30
0
70
128
71
12
72
14
73
5
0
VERTEX
8
OBJECT__28
10
0
20
0
30
0
70
128
71
13
72
15
73
11
0
VERTEX
8
OBJECT__28
10
0
20
0
30
0
70
128
71
14
72
10
73
5
0
VERTEX
8
OBJECT__28
10
0
20
0
30
0
70
128
71
15
72
16
73
11
0
VERTEX
8
OBJECT__28
10
0
20
0
30
0
70
128
71
16
72
12
73
11
0
VERTEX
8
OBJECT__28
10
0
20
0
30
0
70
128
71
9
72
13
73
7
0
SEQEND
8
OBJECT__28
0
POLYLINE
8
OBJECT__29
66
1
70
64
71
4
72
2
62
253
0
VERTEX
8
OBJECT__29
10
0.000000
20
23.000000
30
23.000000
70
192
0
VERTEX
8
OBJECT__29
10
0.000000
20
-23.000000
30
23.000000
70
192
0
VERTEX
8
OBJECT__29
10
7.000000
20
-23.000000
30
23.000000
70
192
0
VERTEX
8
OBJECT__29
10
7.000000
20
23.000000
30
23.000000
70
192
0
VERTEX
8
OBJECT__29
10
0
20
0
30
0
70
128
71
1
72
2
73
3
0
VERTEX
8
OBJECT__29
10
0
20
0
30
0
70
128
71
3
72
4
73
1
0
SEQEND
8
OBJECT__29
0
POLYLINE
8
OBJECT__30
66
1
70
64
71
4
72
2
62
253
0
VERTEX
8
OBJECT__30
10
0.000000
20
23.000000
30
-23.000000
70
192
0
VERTEX
8
OBJECT__30
10
0.000000
20
-23.000000
30
-23.000000
70
192
0
VERTEX
8
OBJECT__30
10
0.000000
20
-23.000000
30
23.000000
70
192
0
VERTEX
8
OBJECT__30
10
0.000000
20
23.000000
30
23.000000
70
192
0
VERTEX
8
OBJECT__30
10
0
20
0
30
0
70
128
71
1
72
2
73
3
0
VERTEX
8
OBJECT__30
10
0
20
0
30
0
70
128
71
3
72
4
73
1
0
SEQEND
8
OBJECT__30
0
POLYLINE
8
OBJECT__31
66
1
70
64
71
4
72
2
62
253
0
VERTEX
8
OBJECT__31
10
0.000000
20
23.000000
30
-23.000000
70
192
0
VERTEX
8
OBJECT__31
10
0.000000
20
23.000000
30
23.000000
70
192
0
VERTEX
8
OBJECT__31
10
7.000000
20
23.000000
30
23.000000
70
192
0
VERTEX
8
OBJECT__31
10
7.000000
20
23.000000
30
-23.000000
70
192
0
VERTEX
8
OBJECT__31
10
0
20
0
30
0
70
128
71
1
72
2
73
3
0
VERTEX
8
OBJECT__31
10
0
20
0
30
0
70
128
71
3
72
4
73
1
0
SEQEND
8
OBJECT__31
0
POLYLINE
8
OBJECT__32
66
1
70
64
71
4
72
2
62
253
0
VERTEX
8
OBJECT__32
10
0.000000
20
-23.000000
30
-23.000000
70
192
0
VERTEX
8
OBJECT__32
10
0.000000
20
23.000000
30
-23.000000
70
192
0
VERTEX
8
OBJECT__32
10
7.000000
20
23.000000
30
-23.000000
70
192
0
VERTEX
8
OBJECT__32
10
7.000000
20
-23.000000
30
-23.000000
70
192
0
VERTEX
8
OBJECT__32
10
0
20
0
30
0
70
128
71
1
72
2
73
3
0
VERTEX
8
OBJECT__32
10
0
20
0
30
0
70
128
71
3
72
4
73
1
0
SEQEND
8
OBJECT__32
0
POLYLINE
8
OBJECT__33
66
1
70
64
71
4
72
2
62
253
0
VERTEX
8
OBJECT__33
10
0.000000
20
-23.000000
30
23.000000
70
192
0
VERTEX
8
OBJECT__33
10
0.000000
20
-23.000000
30
-23.000000
70
192
0
VERTEX
8
OBJECT__33
10
7.000000
20
-23.000000
30
-23.000000
70
192
0
VERTEX
8
OBJECT__33
10
7.000000
20
-23.000000
30
23.000000
70
192
0
VERTEX
8
OBJECT__33
10
0
20
0
30
0
70
128
71
1
72
2
73
3
0
VERTEX
8
OBJECT__33
10
0
20
0
30
0
70
128
71
3
72
4
73
1
0
SEQEND
8
OBJECT__33
0
ENDSEC
0
EOF
