999
Converted by 3D Exploration 
999
XDimension Software, LLC
999
http://www.xdsoft.com/explorer/
0
SECTION
2
HEADER
9
$ACADVER
1
AC1008
9
$UCSORG
10
0.0
20
0.0
30
0.0
9
$UCSXDIR
10
1.0
20
0.0
30
0.0
9
$TILEMODE
70
1
9
$UCSYDIR
10
0.0
20
1.0
30
0.0
9
$EXTMIN
10
-75.873001
20
-34.216999
30
-34.216999
9
$EXTMAX
10
98.500000
20
465.782990
30
69.452003
0
ENDSEC
0
SECTION
2
TABLES
0
TABLE
2
LTYPE
70
1
0
LTYPE
2
CONTINUOUS
70
64
3
Solid line
72
65
73
0
40
0.0
0
ENDTAB
0
TABLE
2
LAYER
70
249
0
LAYER
2
OBJECT__0
70
0
62
253
6
CONTINUOUS
0
LAYER
2
OBJECT__1
70
0
62
253
6
CONTINUOUS
0
LAYER
2
OBJECT__3
70
0
62
253
6
CONTINUOUS
0
LAYER
2
OBJECT__4
70
0
62
253
6
CONTINUOUS
0
LAYER
2
OBJECT__5
70
0
62
253
6
CONTINUOUS
0
LAYER
2
OBJECT__7
70
0
62
253
6
CONTINUOUS
0
LAYER
2
OBJECT__8
70
0
62
253
6
CONTINUOUS
0
LAYER
2
OBJECT__9
70
0
62
253
6
CONTINUOUS
0
LAYER
2
OBJECT__10
70
0
62
253
6
CONTINUOUS
0
LAYER
2
OBJECT__11
70
0
62
253
6
CONTINUOUS
0
LAYER
2
OBJECT__12
70
0
62
253
6
CONTINUOUS
0
LAYER
2
OBJECT__13
70
0
62
253
6
CONTINUOUS
0
LAYER
2
OBJECT__14
70
0
62
253
6
CONTINUOUS
0
LAYER
2
OBJECT__16
70
0
62
253
6
CONTINUOUS
0
LAYER
2
OBJECT__17
70
0
62
253
6
CONTINUOUS
0
LAYER
2
OBJECT__18
70
0
62
253
6
CONTINUOUS
0
LAYER
2
OBJECT__19
70
0
62
253
6
CONTINUOUS
0
LAYER
2
OBJECT__20
70
0
62
253
6
CONTINUOUS
0
LAYER
2
OBJECT__21
70
0
62
253
6
CONTINUOUS
0
LAYER
2
OBJECT__22
70
0
62
253
6
CONTINUOUS
0
LAYER
2
OBJECT__23
70
0
62
253
6
CONTINUOUS
0
LAYER
2
OBJECT__24
70
0
62
253
6
CONTINUOUS
0
LAYER
2
OBJECT__25
70
0
62
253
6
CONTINUOUS
0
LAYER
2
OBJECT__26
70
0
62
253
6
CONTINUOUS
0
LAYER
2
OBJECT__27
70
0
62
253
6
CONTINUOUS
0
LAYER
2
OBJECT__28
70
0
62
253
6
CONTINUOUS
0
LAYER
2
OBJECT__29
70
0
62
253
6
CONTINUOUS
0
LAYER
2
OBJECT__30
70
0
62
253
6
CONTINUOUS
0
LAYER
2
OBJECT__31
70
0
62
253
6
CONTINUOUS
0
LAYER
2
OBJECT__32
70
0
62
253
6
CONTINUOUS
0
LAYER
2
OBJECT__33
70
0
62
253
6
CONTINUOUS
0
LAYER
2
OBJECT__34
70
0
62
253
6
CONTINUOUS
0
LAYER
2
OBJECT__35
70
0
62
253
6
CONTINUOUS
0
LAYER
2
OBJECT__36
70
0
62
253
6
CONTINUOUS
0
LAYER
2
OBJECT__37
70
0
62
253
6
CONTINUOUS
0
LAYER
2
OBJECT__38
70
0
62
253
6
CONTINUOUS
0
LAYER
2
OBJECT__39
70
0
62
253
6
CONTINUOUS
0
LAYER
2
OBJECT__40
70
0
62
253
6
CONTINUOUS
0
LAYER
2
OBJECT__41
70
0
62
253
6
CONTINUOUS
0
LAYER
2
OBJECT__42
70
0
62
253
6
CONTINUOUS
0
LAYER
2
OBJECT__43
70
0
62
253
6
CONTINUOUS
0
LAYER
2
OBJECT__44
70
0
62
253
6
CONTINUOUS
0
LAYER
2
OBJECT__45
70
0
62
253
6
CONTINUOUS
0
LAYER
2
OBJECT__46
70
0
62
253
6
CONTINUOUS
0
LAYER
2
OBJECT__47
70
0
62
253
6
CONTINUOUS
0
LAYER
2
OBJECT__48
70
0
62
253
6
CONTINUOUS
0
LAYER
2
OBJECT__49
70
0
62
253
6
CONTINUOUS
0
LAYER
2
OBJECT__50
70
0
62
253
6
CONTINUOUS
0
LAYER
2
OBJECT__51
70
0
62
253
6
CONTINUOUS
0
LAYER
2
OBJECT__53
70
0
62
253
6
CONTINUOUS
0
LAYER
2
OBJECT__54
70
0
62
253
6
CONTINUOUS
0
LAYER
2
OBJECT__55
70
0
62
253
6
CONTINUOUS
0
LAYER
2
OBJECT__56
70
0
62
253
6
CONTINUOUS
0
LAYER
2
OBJECT__57
70
0
62
253
6
CONTINUOUS
0
LAYER
2
OBJECT__58
70
0
62
253
6
CONTINUOUS
0
LAYER
2
OBJECT__59
70
0
62
253
6
CONTINUOUS
0
LAYER
2
OBJECT__60
70
0
62
253
6
CONTINUOUS
0
LAYER
2
OBJECT__62
70
0
62
253
6
CONTINUOUS
0
LAYER
2
OBJECT__63
70
0
62
253
6
CONTINUOUS
0
LAYER
2
OBJECT__64
70
0
62
253
6
CONTINUOUS
0
LAYER
2
OBJECT__65
70
0
62
253
6
CONTINUOUS
0
LAYER
2
OBJECT__66
70
0
62
253
6
CONTINUOUS
0
LAYER
2
OBJECT__67
70
0
62
253
6
CONTINUOUS
0
LAYER
2
OBJECT__68
70
0
62
253
6
CONTINUOUS
0
LAYER
2
OBJECT__69
70
0
62
253
6
CONTINUOUS
0
LAYER
2
OBJECT__70
70
0
62
253
6
CONTINUOUS
0
LAYER
2
OBJECT__71
70
0
62
253
6
CONTINUOUS
0
LAYER
2
OBJECT__72
70
0
62
253
6
CONTINUOUS
0
LAYER
2
OBJECT__73
70
0
62
253
6
CONTINUOUS
0
LAYER
2
OBJECT__75
70
0
62
253
6
CONTINUOUS
0
LAYER
2
OBJECT__76
70
0
62
253
6
CONTINUOUS
0
LAYER
2
OBJECT__77
70
0
62
253
6
CONTINUOUS
0
LAYER
2
OBJECT__78
70
0
62
253
6
CONTINUOUS
0
LAYER
2
OBJECT__79
70
0
62
253
6
CONTINUOUS
0
LAYER
2
OBJECT__80
70
0
62
253
6
CONTINUOUS
0
LAYER
2
OBJECT__81
70
0
62
253
6
CONTINUOUS
0
LAYER
2
OBJECT__82
70
0
62
253
6
CONTINUOUS
0
LAYER
2
OBJECT__83
70
0
62
253
6
CONTINUOUS
0
LAYER
2
OBJECT__84
70
0
62
253
6
CONTINUOUS
0
LAYER
2
OBJECT__85
70
0
62
253
6
CONTINUOUS
0
LAYER
2
OBJECT__86
70
0
62
253
6
CONTINUOUS
0
LAYER
2
OBJECT__87
70
0
62
253
6
CONTINUOUS
0
LAYER
2
OBJECT__88
70
0
62
253
6
CONTINUOUS
0
LAYER
2
OBJECT__89
70
0
62
253
6
CONTINUOUS
0
LAYER
2
OBJECT__90
70
0
62
253
6
CONTINUOUS
0
LAYER
2
OBJECT__91
70
0
62
253
6
CONTINUOUS
0
LAYER
2
OBJECT__92
70
0
62
253
6
CONTINUOUS
0
LAYER
2
OBJECT__94
70
0
62
253
6
CONTINUOUS
0
LAYER
2
OBJECT__95
70
0
62
253
6
CONTINUOUS
0
LAYER
2
OBJECT__96
70
0
62
253
6
CONTINUOUS
0
LAYER
2
OBJECT__97
70
0
62
253
6
CONTINUOUS
0
LAYER
2
OBJECT__98
70
0
62
253
6
CONTINUOUS
0
LAYER
2
OBJECT__99
70
0
62
253
6
CONTINUOUS
0
LAYER
2
OBJECT__100
70
0
62
253
6
CONTINUOUS
0
LAYER
2
OBJECT__101
70
0
62
253
6
CONTINUOUS
0
LAYER
2
OBJECT__102
70
0
62
253
6
CONTINUOUS
0
LAYER
2
OBJECT__103
70
0
62
253
6
CONTINUOUS
0
LAYER
2
OBJECT__104
70
0
62
253
6
CONTINUOUS
0
LAYER
2
OBJECT__105
70
0
62
253
6
CONTINUOUS
0
LAYER
2
OBJECT__106
70
0
62
253
6
CONTINUOUS
0
LAYER
2
OBJECT__107
70
0
62
253
6
CONTINUOUS
0
LAYER
2
OBJECT__109
70
0
62
253
6
CONTINUOUS
0
LAYER
2
OBJECT__110
70
0
62
253
6
CONTINUOUS
0
LAYER
2
OBJECT__111
70
0
62
253
6
CONTINUOUS
0
LAYER
2
OBJECT__112
70
0
62
253
6
CONTINUOUS
0
LAYER
2
OBJECT__113
70
0
62
253
6
CONTINUOUS
0
LAYER
2
OBJECT__114
70
0
62
253
6
CONTINUOUS
0
LAYER
2
OBJECT__115
70
0
62
253
6
CONTINUOUS
0
LAYER
2
OBJECT__116
70
0
62
253
6
CONTINUOUS
0
LAYER
2
OBJECT__117
70
0
62
253
6
CONTINUOUS
0
LAYER
2
OBJECT__118
70
0
62
253
6
CONTINUOUS
0
LAYER
2
OBJECT__119
70
0
62
253
6
CONTINUOUS
0
LAYER
2
OBJECT__120
70
0
62
253
6
CONTINUOUS
0
LAYER
2
OBJECT__121
70
0
62
253
6
CONTINUOUS
0
LAYER
2
OBJECT__122
70
0
62
253
6
CONTINUOUS
0
LAYER
2
OBJECT__123
70
0
62
253
6
CONTINUOUS
0
LAYER
2
OBJECT__124
70
0
62
253
6
CONTINUOUS
0
LAYER
2
OBJECT__125
70
0
62
253
6
CONTINUOUS
0
LAYER
2
OBJECT__126
70
0
62
253
6
CONTINUOUS
0
LAYER
2
OBJECT__127
70
0
62
253
6
CONTINUOUS
0
LAYER
2
OBJECT__128
70
0
62
253
6
CONTINUOUS
0
LAYER
2
OBJECT__130
70
0
62
253
6
CONTINUOUS
0
LAYER
2
OBJECT__131
70
0
62
253
6
CONTINUOUS
0
LAYER
2
OBJECT__132
70
0
62
253
6
CONTINUOUS
0
LAYER
2
OBJECT__133
70
0
62
253
6
CONTINUOUS
0
LAYER
2
OBJECT__134
70
0
62
253
6
CONTINUOUS
0
LAYER
2
OBJECT__135
70
0
62
253
6
CONTINUOUS
0
LAYER
2
OBJECT__136
70
0
62
253
6
CONTINUOUS
0
LAYER
2
OBJECT__137
70
0
62
253
6
CONTINUOUS
0
LAYER
2
OBJECT__138
70
0
62
253
6
CONTINUOUS
0
LAYER
2
OBJECT__139
70
0
62
253
6
CONTINUOUS
0
LAYER
2
OBJECT__140
70
0
62
253
6
CONTINUOUS
0
LAYER
2
OBJECT__141
70
0
62
253
6
CONTINUOUS
0
LAYER
2
OBJECT__142
70
0
62
253
6
CONTINUOUS
0
LAYER
2
OBJECT__143
70
0
62
253
6
CONTINUOUS
0
LAYER
2
OBJECT__144
70
0
62
253
6
CONTINUOUS
0
LAYER
2
OBJECT__145
70
0
62
253
6
CONTINUOUS
0
LAYER
2
OBJECT__146
70
0
62
253
6
CONTINUOUS
0
LAYER
2
OBJECT__147
70
0
62
253
6
CONTINUOUS
0
LAYER
2
OBJECT__148
70
0
62
253
6
CONTINUOUS
0
LAYER
2
OBJECT__150
70
0
62
253
6
CONTINUOUS
0
LAYER
2
OBJECT__151
70
0
62
253
6
CONTINUOUS
0
LAYER
2
OBJECT__152
70
0
62
253
6
CONTINUOUS
0
LAYER
2
OBJECT__153
70
0
62
253
6
CONTINUOUS
0
LAYER
2
OBJECT__154
70
0
62
253
6
CONTINUOUS
0
LAYER
2
OBJECT__155
70
0
62
253
6
CONTINUOUS
0
LAYER
2
OBJECT__156
70
0
62
253
6
CONTINUOUS
0
LAYER
2
OBJECT__157
70
0
62
253
6
CONTINUOUS
0
LAYER
2
OBJECT__158
70
0
62
253
6
CONTINUOUS
0
LAYER
2
OBJECT__159
70
0
62
253
6
CONTINUOUS
0
LAYER
2
OBJECT__160
70
0
62
253
6
CONTINUOUS
0
LAYER
2
OBJECT__161
70
0
62
253
6
CONTINUOUS
0
LAYER
2
OBJECT__162
70
0
62
253
6
CONTINUOUS
0
LAYER
2
OBJECT__163
70
0
62
253
6
CONTINUOUS
0
LAYER
2
OBJECT__164
70
0
62
253
6
CONTINUOUS
0
LAYER
2
OBJECT__166
70
0
62
253
6
CONTINUOUS
0
LAYER
2
OBJECT__167
70
0
62
253
6
CONTINUOUS
0
LAYER
2
OBJECT__168
70
0
62
253
6
CONTINUOUS
0
LAYER
2
OBJECT__169
70
0
62
253
6
CONTINUOUS
0
LAYER
2
OBJECT__170
70
0
62
253
6
CONTINUOUS
0
LAYER
2
OBJECT__171
70
0
62
253
6
CONTINUOUS
0
LAYER
2
OBJECT__172
70
0
62
253
6
CONTINUOUS
0
LAYER
2
OBJECT__173
70
0
62
253
6
CONTINUOUS
0
LAYER
2
OBJECT__174
70
0
62
253
6
CONTINUOUS
0
LAYER
2
OBJECT__175
70
0
62
253
6
CONTINUOUS
0
LAYER
2
OBJECT__176
70
0
62
253
6
CONTINUOUS
0
LAYER
2
OBJECT__177
70
0
62
253
6
CONTINUOUS
0
LAYER
2
OBJECT__178
70
0
62
253
6
CONTINUOUS
0
LAYER
2
OBJECT__179
70
0
62
253
6
CONTINUOUS
0
LAYER
2
OBJECT__180
70
0
62
253
6
CONTINUOUS
0
LAYER
2
OBJECT__181
70
0
62
253
6
CONTINUOUS
0
LAYER
2
OBJECT__182
70
0
62
253
6
CONTINUOUS
0
LAYER
2
OBJECT__183
70
0
62
253
6
CONTINUOUS
0
LAYER
2
OBJECT__184
70
0
62
253
6
CONTINUOUS
0
LAYER
2
OBJECT__185
70
0
62
253
6
CONTINUOUS
0
LAYER
2
OBJECT__187
70
0
62
253
6
CONTINUOUS
0
LAYER
2
OBJECT__188
70
0
62
253
6
CONTINUOUS
0
LAYER
2
OBJECT__189
70
0
62
253
6
CONTINUOUS
0
LAYER
2
OBJECT__190
70
0
62
253
6
CONTINUOUS
0
LAYER
2
OBJECT__191
70
0
62
253
6
CONTINUOUS
0
LAYER
2
OBJECT__192
70
0
62
253
6
CONTINUOUS
0
LAYER
2
OBJECT__193
70
0
62
253
6
CONTINUOUS
0
LAYER
2
OBJECT__194
70
0
62
253
6
CONTINUOUS
0
LAYER
2
OBJECT__195
70
0
62
253
6
CONTINUOUS
0
LAYER
2
OBJECT__196
70
0
62
253
6
CONTINUOUS
0
LAYER
2
OBJECT__197
70
0
62
253
6
CONTINUOUS
0
LAYER
2
OBJECT__198
70
0
62
253
6
CONTINUOUS
0
LAYER
2
OBJECT__199
70
0
62
253
6
CONTINUOUS
0
LAYER
2
OBJECT__201
70
0
62
253
6
CONTINUOUS
0
LAYER
2
OBJECT__202
70
0
62
253
6
CONTINUOUS
0
LAYER
2
OBJECT__203
70
0
62
253
6
CONTINUOUS
0
LAYER
2
OBJECT__204
70
0
62
253
6
CONTINUOUS
0
LAYER
2
OBJECT__205
70
0
62
253
6
CONTINUOUS
0
LAYER
2
OBJECT__206
70
0
62
253
6
CONTINUOUS
0
LAYER
2
OBJECT__207
70
0
62
253
6
CONTINUOUS
0
LAYER
2
OBJECT__208
70
0
62
253
6
CONTINUOUS
0
LAYER
2
OBJECT__209
70
0
62
253
6
CONTINUOUS
0
LAYER
2
OBJECT__210
70
0
62
253
6
CONTINUOUS
0
LAYER
2
OBJECT__211
70
0
62
253
6
CONTINUOUS
0
LAYER
2
OBJECT__212
70
0
62
253
6
CONTINUOUS
0
LAYER
2
OBJECT__213
70
0
62
253
6
CONTINUOUS
0
LAYER
2
OBJECT__214
70
0
62
253
6
CONTINUOUS
0
LAYER
2
OBJECT__215
70
0
62
253
6
CONTINUOUS
0
LAYER
2
OBJECT__216
70
0
62
253
6
CONTINUOUS
0
LAYER
2
OBJECT__217
70
0
62
253
6
CONTINUOUS
0
LAYER
2
OBJECT__218
70
0
62
253
6
CONTINUOUS
0
LAYER
2
OBJECT__219
70
0
62
253
6
CONTINUOUS
0
LAYER
2
OBJECT__220
70
0
62
253
6
CONTINUOUS
0
LAYER
2
OBJECT__221
70
0
62
253
6
CONTINUOUS
0
LAYER
2
OBJECT__222
70
0
62
253
6
CONTINUOUS
0
LAYER
2
OBJECT__223
70
0
62
253
6
CONTINUOUS
0
LAYER
2
OBJECT__224
70
0
62
253
6
CONTINUOUS
0
LAYER
2
OBJECT__225
70
0
62
253
6
CONTINUOUS
0
LAYER
2
OBJECT__226
70
0
62
253
6
CONTINUOUS
0
LAYER
2
OBJECT__227
70
0
62
253
6
CONTINUOUS
0
LAYER
2
OBJECT__229
70
0
62
253
6
CONTINUOUS
0
LAYER
2
OBJECT__230
70
0
62
253
6
CONTINUOUS
0
LAYER
2
OBJECT__231
70
0
62
253
6
CONTINUOUS
0
LAYER
2
OBJECT__232
70
0
62
253
6
CONTINUOUS
0
LAYER
2
OBJECT__233
70
0
62
253
6
CONTINUOUS
0
LAYER
2
OBJECT__234
70
0
62
253
6
CONTINUOUS
0
LAYER
2
OBJECT__235
70
0
62
253
6
CONTINUOUS
0
LAYER
2
OBJECT__236
70
0
62
253
6
CONTINUOUS
0
LAYER
2
OBJECT__238
70
0
62
253
6
CONTINUOUS
0
LAYER
2
OBJECT__239
70
0
62
253
6
CONTINUOUS
0
LAYER
2
OBJECT__240
70
0
62
253
6
CONTINUOUS
0
LAYER
2
OBJECT__242
70
0
62
253
6
CONTINUOUS
0
LAYER
2
OBJECT__243
70
0
62
253
6
CONTINUOUS
0
LAYER
2
OBJECT__244
70
0
62
253
6
CONTINUOUS
0
LAYER
2
OBJECT__245
70
0
62
253
6
CONTINUOUS
0
LAYER
2
OBJECT__246
70
0
62
253
6
CONTINUOUS
0
LAYER
2
OBJECT__247
70
0
62
253
6
CONTINUOUS
0
LAYER
2
OBJECT__248
70
0
62
253
6
CONTINUOUS
0
ENDTAB
0
TABLE
2
STYLE
70
1
0
STYLE
2
STANDARD
70
0
40
0.0
41
1.0
50
0.0
71
0
42
0.2
3
txt
4
1
0
ENDTAB
0
TABLE
2
UCS
70
0
0
ENDTAB
0
ENDSEC
0
SECTION
2
ENTITIES
0
POLYLINE
8
OBJECT__0
66
1
70
64
71
4
72
2
62
253
0
VERTEX
8
OBJECT__0
10
-2.500000
20
462.335999
30
-1077.547974
70
192
0
VERTEX
8
OBJECT__0
10
-47.500000
20
462.335999
30
-1077.547974
70
192
0
VERTEX
8
OBJECT__0
10
-47.500000
20
462.335999
30
-645.547974
70
192
0
VERTEX
8
OBJECT__0
10
-2.500000
20
462.335999
30
-645.547974
70
192
0
VERTEX
8
OBJECT__0
10
0
20
0
30
0
70
128
71
1
72
2
73
3
0
VERTEX
8
OBJECT__0
10
0
20
0
30
0
70
128
71
3
72
4
73
1
0
SEQEND
8
OBJECT__0
0
POLYLINE
8
OBJECT__1
66
1
70
64
71
4
72
2
62
253
0
VERTEX
8
OBJECT__1
10
-2.500000
20
462.335999
30
-1077.547974
70
192
0
VERTEX
8
OBJECT__1
10
-2.500000
20
462.335999
30
-645.547974
70
192
0
VERTEX
8
OBJECT__1
10
-2.500000
20
437.282990
30
-645.547974
70
192
0
VERTEX
8
OBJECT__1
10
-2.500000
20
437.282990
30
-1077.547974
70
192
0
VERTEX
8
OBJECT__1
10
0
20
0
30
0
70
128
71
1
72
2
73
3
0
VERTEX
8
OBJECT__1
10
0
20
0
30
0
70
128
71
3
72
4
73
1
0
SEQEND
8
OBJECT__1
0
POLYLINE
8
OBJECT__3
66
1
70
64
71
4
72
2
62
253
0
VERTEX
8
OBJECT__3
10
-2.500000
20
437.282990
30
-1077.547974
70
192
0
VERTEX
8
OBJECT__3
10
-2.500000
20
437.282990
30
-645.547974
70
192
0
VERTEX
8
OBJECT__3
10
-47.500000
20
437.282990
30
-645.547974
70
192
0
VERTEX
8
OBJECT__3
10
-47.500000
20
437.282990
30
-1077.547974
70
192
0
VERTEX
8
OBJECT__3
10
0
20
0
30
0
70
128
71
1
72
2
73
3
0
VERTEX
8
OBJECT__3
10
0
20
0
30
0
70
128
71
3
72
4
73
1
0
SEQEND
8
OBJECT__3
0
POLYLINE
8
OBJECT__4
66
1
70
64
71
4
72
2
62
253
0
VERTEX
8
OBJECT__4
10
-28.316999
20
-4.217000
30
-418.022003
70
192
0
VERTEX
8
OBJECT__4
10
-30.000000
20
-4.217000
30
-418.022003
70
192
0
VERTEX
8
OBJECT__4
10
-30.000000
20
435.782990
30
-418.022003
70
192
0
VERTEX
8
OBJECT__4
10
-28.316999
20
435.782990
30
-418.022003
70
192
0
VERTEX
8
OBJECT__4
10
0
20
0
30
0
70
128
71
1
72
2
73
3
0
VERTEX
8
OBJECT__4
10
0
20
0
30
0
70
128
71
3
72
4
73
1
0
SEQEND
8
OBJECT__4
0
POLYLINE
8
OBJECT__5
66
1
70
64
71
4
72
2
62
253
0
VERTEX
8
OBJECT__5
10
-28.316999
20
435.782990
30
-418.022003
70
192
0
VERTEX
8
OBJECT__5
10
-28.000000
20
435.782990
30
-418.048004
70
192
0
VERTEX
8
OBJECT__5
10
-28.000000
20
-4.217000
30
-418.048004
70
192
0
VERTEX
8
OBJECT__5
10
-28.316999
20
-4.217000
30
-418.022003
70
192
0
VERTEX
8
OBJECT__5
10
0
20
0
30
0
70
128
71
1
72
2
73
3
0
VERTEX
8
OBJECT__5
10
0
20
0
30
0
70
128
71
3
72
4
73
1
0
SEQEND
8
OBJECT__5
0
POLYLINE
8
OBJECT__7
66
1
70
64
71
4
72
2
62
253
0
VERTEX
8
OBJECT__7
10
-28.000000
20
-4.217000
30
-418.048004
70
192
0
VERTEX
8
OBJECT__7
10
-28.000000
20
435.782990
30
-418.048004
70
192
0
VERTEX
8
OBJECT__7
10
-2.000000
20
435.782990
30
-418.048004
70
192
0
VERTEX
8
OBJECT__7
10
-2.000000
20
-4.217000
30
-418.048004
70
192
0
VERTEX
8
OBJECT__7
10
0
20
0
30
0
70
128
71
1
72
2
73
3
0
VERTEX
8
OBJECT__7
10
0
20
0
30
0
70
128
71
3
72
4
73
1
0
SEQEND
8
OBJECT__7
0
POLYLINE
8
OBJECT__8
66
1
70
64
71
4
72
2
62
253
0
VERTEX
8
OBJECT__8
10
-2.000000
20
435.782990
30
-418.048004
70
192
0
VERTEX
8
OBJECT__8
10
-1.683000
20
435.782990
30
-418.022003
70
192
0
VERTEX
8
OBJECT__8
10
-1.683000
20
-4.217000
30
-418.022003
70
192
0
VERTEX
8
OBJECT__8
10
-2.000000
20
-4.217000
30
-418.048004
70
192
0
VERTEX
8
OBJECT__8
10
0
20
0
30
0
70
128
71
1
72
2
73
3
0
VERTEX
8
OBJECT__8
10
0
20
0
30
0
70
128
71
3
72
4
73
1
0
SEQEND
8
OBJECT__8
0
POLYLINE
8
OBJECT__9
66
1
70
64
71
4
72
2
62
253
0
VERTEX
8
OBJECT__9
10
0.000000
20
-4.217000
30
-418.022003
70
192
0
VERTEX
8
OBJECT__9
10
-1.683000
20
-4.217000
30
-418.022003
70
192
0
VERTEX
8
OBJECT__9
10
-1.683000
20
435.782990
30
-418.022003
70
192
0
VERTEX
8
OBJECT__9
10
0.000000
20
435.782990
30
-418.022003
70
192
0
VERTEX
8
OBJECT__9
10
0
20
0
30
0
70
128
71
1
72
2
73
3
0
VERTEX
8
OBJECT__9
10
0
20
0
30
0
70
128
71
3
72
4
73
1
0
SEQEND
8
OBJECT__9
0
POLYLINE
8
OBJECT__10
66
1
70
64
71
4
72
2
62
253
0
VERTEX
8
OBJECT__10
10
0.000000
20
-4.217000
30
-393.048004
70
192
0
VERTEX
8
OBJECT__10
10
0.000000
20
-4.217000
30
-418.022003
70
192
0
VERTEX
8
OBJECT__10
10
0.000000
20
435.782990
30
-418.022003
70
192
0
VERTEX
8
OBJECT__10
10
0.000000
20
435.782990
30
-393.048004
70
192
0
VERTEX
8
OBJECT__10
10
0
20
0
30
0
70
128
71
1
72
2
73
3
0
VERTEX
8
OBJECT__10
10
0
20
0
30
0
70
128
71
3
72
4
73
1
0
SEQEND
8
OBJECT__10
0
POLYLINE
8
OBJECT__11
66
1
70
64
71
4
72
2
62
253
0
VERTEX
8
OBJECT__11
10
0.000000
20
-4.217000
30
-393.048004
70
192
0
VERTEX
8
OBJECT__11
10
0.000000
20
435.782990
30
-393.048004
70
192
0
VERTEX
8
OBJECT__11
10
-30.000000
20
435.782990
30
-393.048004
70
192
0
VERTEX
8
OBJECT__11
10
-30.000000
20
-4.217000
30
-393.048004
70
192
0
VERTEX
8
OBJECT__11
10
0
20
0
30
0
70
128
71
1
72
2
73
3
0
VERTEX
8
OBJECT__11
10
0
20
0
30
0
70
128
71
3
72
4
73
1
0
SEQEND
8
OBJECT__11
0
POLYLINE
8
OBJECT__12
66
1
70
64
71
4
72
2
62
253
0
VERTEX
8
OBJECT__12
10
-30.000000
20
-4.217000
30
-418.022003
70
192
0
VERTEX
8
OBJECT__12
10
-30.000000
20
-4.217000
30
-393.048004
70
192
0
VERTEX
8
OBJECT__12
10
-30.000000
20
435.782990
30
-393.048004
70
192
0
VERTEX
8
OBJECT__12
10
-30.000000
20
435.782990
30
-418.022003
70
192
0
VERTEX
8
OBJECT__12
10
0
20
0
30
0
70
128
71
1
72
2
73
3
0
VERTEX
8
OBJECT__12
10
0
20
0
30
0
70
128
71
3
72
4
73
1
0
SEQEND
8
OBJECT__12
0
POLYLINE
8
OBJECT__13
66
1
70
64
71
8
72
8
62
253
0
VERTEX
8
OBJECT__13
10
-14.400000
20
254.244995
30
-556.478027
70
192
0
VERTEX
8
OBJECT__13
10
-14.400000
20
254.244995
30
-557.018005
70
192
0
VERTEX
8
OBJECT__13
10
-9.500000
20
249.345001
30
-557.018005
70
192
0
VERTEX
8
OBJECT__13
10
-9.500000
20
259.144989
30
-556.478027
70
192
0
VERTEX
8
OBJECT__13
10
-9.500000
20
259.144989
30
-557.018005
70
192
0
VERTEX
8
OBJECT__13
10
-4.600000
20
254.244995
30
-556.478027
70
192
0
VERTEX
8
OBJECT__13
10
-4.600000
20
254.244995
30
-557.018005
70
192
0
VERTEX
8
OBJECT__13
10
-9.500000
20
249.345001
30
-556.478027
70
192
0
VERTEX
8
OBJECT__13
10
0
20
0
30
0
70
128
71
1
72
2
73
3
0
VERTEX
8
OBJECT__13
10
0
20
0
30
0
70
128
71
4
72
5
73
2
0
VERTEX
8
OBJECT__13
10
0
20
0
30
0
70
128
71
6
72
7
73
5
0
VERTEX
8
OBJECT__13
10
0
20
0
30
0
70
128
71
8
72
3
73
7
0
VERTEX
8
OBJECT__13
10
0
20
0
30
0
70
128
71
7
72
6
73
8
0
VERTEX
8
OBJECT__13
10
0
20
0
30
0
70
128
71
5
72
4
73
6
0
VERTEX
8
OBJECT__13
10
0
20
0
30
0
70
128
71
2
72
1
73
4
0
VERTEX
8
OBJECT__13
10
0
20
0
30
0
70
128
71
3
72
8
73
1
0
SEQEND
8
OBJECT__13
0
POLYLINE
8
OBJECT__14
66
1
70
64
71
6
72
4
62
253
0
VERTEX
8
OBJECT__14
10
-6.198000
20
186.182999
30
-568.351990
70
192
0
VERTEX
8
OBJECT__14
10
-12.802000
20
186.182999
30
-568.351990
70
192
0
VERTEX
8
OBJECT__14
10
-11.766000
20
186.182999
30
-569.838989
70
192
0
VERTEX
8
OBJECT__14
10
-13.170000
20
186.182999
30
-567.783020
70
192
0
VERTEX
8
OBJECT__14
10
-7.234000
20
186.182999
30
-569.838989
70
192
0
VERTEX
8
OBJECT__14
10
-5.830000
20
186.182999
30
-567.783020
70
192
0
VERTEX
8
OBJECT__14
10
0
20
0
30
0
70
128
71
1
72
2
73
3
0
VERTEX
8
OBJECT__14
10
0
20
0
30
0
70
128
71
1
72
4
73
2
0
VERTEX
8
OBJECT__14
10
0
20
0
30
0
70
128
71
3
72
5
73
1
0
VERTEX
8
OBJECT__14
10
0
20
0
30
0
70
128
71
1
72
6
73
4
0
SEQEND
8
OBJECT__14
0
POLYLINE
8
OBJECT__16
66
1
70
64
71
4
72
2
62
253
0
VERTEX
8
OBJECT__16
10
-7.234000
20
186.182999
30
-569.838989
70
192
0
VERTEX
8
OBJECT__16
10
-11.766000
20
186.182999
30
-569.838989
70
192
0
VERTEX
8
OBJECT__16
10
-11.766000
20
186.322998
30
-570.471985
70
192
0
VERTEX
8
OBJECT__16
10
-7.234000
20
186.322998
30
-570.471985
70
192
0
VERTEX
8
OBJECT__16
10
0
20
0
30
0
70
128
71
1
72
2
73
3
0
VERTEX
8
OBJECT__16
10
0
20
0
30
0
70
128
71
3
72
4
73
1
0
SEQEND
8
OBJECT__16
0
POLYLINE
8
OBJECT__17
66
1
70
64
71
26
72
24
62
253
0
VERTEX
8
OBJECT__17
10
-11.766000
20
222.028000
30
-587.541992
70
192
0
VERTEX
8
OBJECT__17
10
-11.766000
20
229.259003
30
-586.322021
70
192
0
VERTEX
8
OBJECT__17
10
-7.234000
20
229.259003
30
-586.322021
70
192
0
VERTEX
8
OBJECT__17
10
-11.766000
20
240.167999
30
-577.356018
70
192
0
VERTEX
8
OBJECT__17
10
-7.234000
20
240.167999
30
-577.356018
70
192
0
VERTEX
8
OBJECT__17
10
-11.766000
20
201.431000
30
-584.924988
70
192
0
VERTEX
8
OBJECT__17
10
-11.766000
20
212.757004
30
-589.106995
70
192
0
VERTEX
8
OBJECT__17
10
-7.234000
20
212.757004
30
-589.106995
70
192
0
VERTEX
8
OBJECT__17
10
-7.234000
20
222.028000
30
-587.541992
70
192
0
VERTEX
8
OBJECT__17
10
-11.766000
20
186.322998
30
-570.471985
70
192
0
VERTEX
8
OBJECT__17
10
-11.766000
20
197.057999
30
-583.310974
70
192
0
VERTEX
8
OBJECT__17
10
-7.234000
20
197.057999
30
-583.310974
70
192
0
VERTEX
8
OBJECT__17
10
-7.234000
20
201.431000
30
-584.924988
70
192
0
VERTEX
8
OBJECT__17
10
-7.691000
20
248.210999
30
-558.916992
70
192
0
VERTEX
8
OBJECT__17
10
-7.234000
20
248.059998
30
-560.546997
70
192
0
VERTEX
8
OBJECT__17
10
-11.307000
20
248.121994
30
-559.974976
70
192
0
VERTEX
8
OBJECT__17
10
-7.234000
20
242.188004
30
-575.695984
70
192
0
VERTEX
8
OBJECT__17
10
-11.553000
20
248.082001
30
-560.357971
70
192
0
VERTEX
8
OBJECT__17
10
-11.766000
20
242.188004
30
-575.695984
70
192
0
VERTEX
8
OBJECT__17
10
-11.766000
20
248.059998
30
-560.546997
70
192
0
VERTEX
8
OBJECT__17
10
-11.766000
20
248.259995
30
-557.981995
70
192
0
VERTEX
8
OBJECT__17
10
-7.445000
20
248.233994
30
-558.534973
70
192
0
VERTEX
8
OBJECT__17
10
-7.234000
20
248.259995
30
-557.981995
70
192
0
VERTEX
8
OBJECT__17
10
-7.234000
20
248.244003
30
-558.348999
70
192
0
VERTEX
8
OBJECT__17
10
-11.766000
20
248.244003
30
-558.348999
70
192
0
VERTEX
8
OBJECT__17
10
-7.234000
20
186.322998
30
-570.471985
70
192
0
VERTEX
8
OBJECT__17
10
0
20
0
30
0
70
128
71
1
72
2
73
3
0
VERTEX
8
OBJECT__17
10
0
20
0
30
0
70
128
71
2
72
4
73
5
0
VERTEX
8
OBJECT__17
10
0
20
0
30
0
70
128
71
5
72
3
73
2
0
VERTEX
8
OBJECT__17
10
0
20
0
30
0
70
128
71
6
72
7
73
8
0
VERTEX
8
OBJECT__17
10
0
20
0
30
0
70
128
71
9
72
8
73
7
0
VERTEX
8
OBJECT__17
10
0
20
0
30
0
70
128
71
7
72
1
73
9
0
VERTEX
8
OBJECT__17
10
0
20
0
30
0
70
128
71
10
72
11
73
12
0
VERTEX
8
OBJECT__17
10
0
20
0
30
0
70
128
71
13
72
12
73
11
0
VERTEX
8
OBJECT__17
10
0
20
0
30
0
70
128
71
11
72
6
73
13
0
VERTEX
8
OBJECT__17
10
0
20
0
30
0
70
128
71
14
72
15
73
16
0
VERTEX
8
OBJECT__17
10
0
20
0
30
0
70
128
71
15
72
17
73
18
0
VERTEX
8
OBJECT__17
10
0
20
0
30
0
70
128
71
17
72
19
73
20
0
VERTEX
8
OBJECT__17
10
0
20
0
30
0
70
128
71
5
72
4
73
19
0
VERTEX
8
OBJECT__17
10
0
20
0
30
0
70
128
71
19
72
17
73
5
0
VERTEX
8
OBJECT__17
10
0
20
0
30
0
70
128
71
20
72
18
73
17
0
VERTEX
8
OBJECT__17
10
0
20
0
30
0
70
128
71
18
72
16
73
15
0
VERTEX
8
OBJECT__17
10
0
20
0
30
0
70
128
71
21
72
22
73
14
0
VERTEX
8
OBJECT__17
10
0
20
0
30
0
70
128
71
21
72
23
73
24
0
VERTEX
8
OBJECT__17
10
0
20
0
30
0
70
128
71
24
72
22
73
21
0
VERTEX
8
OBJECT__17
10
0
20
0
30
0
70
128
71
14
72
25
73
21
0
VERTEX
8
OBJECT__17
10
0
20
0
30
0
70
128
71
16
72
25
73
14
0
VERTEX
8
OBJECT__17
10
0
20
0
30
0
70
128
71
12
72
26
73
10
0
VERTEX
8
OBJECT__17
10
0
20
0
30
0
70
128
71
8
72
13
73
6
0
VERTEX
8
OBJECT__17
10
0
20
0
30
0
70
128
71
3
72
9
73
1
0
SEQEND
8
OBJECT__17
0
POLYLINE
8
OBJECT__18
66
1
70
64
71
19
72
17
62
253
0
VERTEX
8
OBJECT__18
10
-12.516000
20
242.024994
30
-575.578003
70
192
0
VERTEX
8
OBJECT__18
10
-11.766000
20
242.188004
30
-575.695984
70
192
0
VERTEX
8
OBJECT__18
10
-11.766000
20
240.167999
30
-577.356018
70
192
0
VERTEX
8
OBJECT__18
10
-11.766000
20
229.259003
30
-586.322021
70
192
0
VERTEX
8
OBJECT__18
10
-12.516000
20
229.175995
30
-586.138977
70
192
0
VERTEX
8
OBJECT__18
10
-12.516000
20
238.546997
30
-578.437012
70
192
0
VERTEX
8
OBJECT__18
10
-11.766000
20
222.028000
30
-587.541992
70
192
0
VERTEX
8
OBJECT__18
10
-11.766000
20
212.757004
30
-589.106995
70
192
0
VERTEX
8
OBJECT__18
10
-12.516000
20
212.776001
30
-588.906006
70
192
0
VERTEX
8
OBJECT__18
10
-12.516000
20
220.110992
30
-587.669006
70
192
0
VERTEX
8
OBJECT__18
10
-11.766000
20
201.431000
30
-584.924988
70
192
0
VERTEX
8
OBJECT__18
10
-11.766000
20
197.057999
30
-583.310974
70
192
0
VERTEX
8
OBJECT__18
10
-12.516000
20
197.173004
30
-583.146973
70
192
0
VERTEX
8
OBJECT__18
10
-12.516000
20
199.768997
30
-584.104980
70
192
0
VERTEX
8
OBJECT__18
10
-11.766000
20
186.322998
30
-570.471985
70
192
0
VERTEX
8
OBJECT__18
10
-12.516000
20
186.505005
30
-570.387024
70
192
0
VERTEX
8
OBJECT__18
10
-12.516000
20
247.826996
30
-560.796997
70
192
0
VERTEX
8
OBJECT__18
10
-12.457000
20
247.860001
30
-560.794006
70
192
0
VERTEX
8
OBJECT__18
10
-11.766000
20
248.059998
30
-560.546997
70
192
0
VERTEX
8
OBJECT__18
10
0
20
0
30
0
70
128
71
1
72
2
73
3
0
VERTEX
8
OBJECT__18
10
0
20
0
30
0
70
128
71
4
72
5
73
6
0
VERTEX
8
OBJECT__18
10
0
20
0
30
0
70
128
71
6
72
3
73
4
0
VERTEX
8
OBJECT__18
10
0
20
0
30
0
70
128
71
5
72
4
73
7
0
VERTEX
8
OBJECT__18
10
0
20
0
30
0
70
128
71
8
72
9
73
10
0
VERTEX
8
OBJECT__18
10
0
20
0
30
0
70
128
71
10
72
7
73
8
0
VERTEX
8
OBJECT__18
10
0
20
0
30
0
70
128
71
9
72
8
73
11
0
VERTEX
8
OBJECT__18
10
0
20
0
30
0
70
128
71
12
72
13
73
14
0
VERTEX
8
OBJECT__18
10
0
20
0
30
0
70
128
71
14
72
11
73
12
0
VERTEX
8
OBJECT__18
10
0
20
0
30
0
70
128
71
12
72
15
73
16
0
VERTEX
8
OBJECT__18
10
0
20
0
30
0
70
128
71
2
72
1
73
17
0
VERTEX
8
OBJECT__18
10
0
20
0
30
0
70
128
71
17
72
18
73
2
0
VERTEX
8
OBJECT__18
10
0
20
0
30
0
70
128
71
18
72
19
73
2
0
VERTEX
8
OBJECT__18
10
0
20
0
30
0
70
128
71
16
72
13
73
12
0
VERTEX
8
OBJECT__18
10
0
20
0
30
0
70
128
71
11
72
14
73
9
0
VERTEX
8
OBJECT__18
10
0
20
0
30
0
70
128
71
7
72
10
73
5
0
VERTEX
8
OBJECT__18
10
0
20
0
30
0
70
128
71
3
72
6
73
1
0
SEQEND
8
OBJECT__18
0
POLYLINE
8
OBJECT__19
66
1
70
64
71
19
72
17
62
253
0
VERTEX
8
OBJECT__19
10
-7.234000
20
186.322998
30
-570.471985
70
192
0
VERTEX
8
OBJECT__19
10
-7.234000
20
197.057999
30
-583.310974
70
192
0
VERTEX
8
OBJECT__19
10
-6.484000
20
197.173004
30
-583.146973
70
192
0
VERTEX
8
OBJECT__19
10
-7.234000
20
201.431000
30
-584.924988
70
192
0
VERTEX
8
OBJECT__19
10
-6.484000
20
199.768997
30
-584.104980
70
192
0
VERTEX
8
OBJECT__19
10
-6.484000
20
212.776001
30
-588.906006
70
192
0
VERTEX
8
OBJECT__19
10
-7.234000
20
212.757004
30
-589.106995
70
192
0
VERTEX
8
OBJECT__19
10
-7.234000
20
222.028000
30
-587.541992
70
192
0
VERTEX
8
OBJECT__19
10
-6.484000
20
220.110992
30
-587.669006
70
192
0
VERTEX
8
OBJECT__19
10
-6.484000
20
229.175995
30
-586.138977
70
192
0
VERTEX
8
OBJECT__19
10
-7.234000
20
229.259003
30
-586.322021
70
192
0
VERTEX
8
OBJECT__19
10
-7.234000
20
240.167999
30
-577.356018
70
192
0
VERTEX
8
OBJECT__19
10
-6.484000
20
238.546997
30
-578.437012
70
192
0
VERTEX
8
OBJECT__19
10
-6.484000
20
242.024994
30
-575.578003
70
192
0
VERTEX
8
OBJECT__19
10
-7.234000
20
242.188004
30
-575.695984
70
192
0
VERTEX
8
OBJECT__19
10
-7.234000
20
248.059998
30
-560.546997
70
192
0
VERTEX
8
OBJECT__19
10
-7.178000
20
248.054993
30
-560.585022
70
192
0
VERTEX
8
OBJECT__19
10
-6.484000
20
247.826996
30
-560.796997
70
192
0
VERTEX
8
OBJECT__19
10
-6.484000
20
186.505005
30
-570.387024
70
192
0
VERTEX
8
OBJECT__19
10
0
20
0
30
0
70
128
71
1
72
2
73
3
0
VERTEX
8
OBJECT__19
10
0
20
0
30
0
70
128
71
2
72
4
73
5
0
VERTEX
8
OBJECT__19
10
0
20
0
30
0
70
128
71
6
72
5
73
4
0
VERTEX
8
OBJECT__19
10
0
20
0
30
0
70
128
71
4
72
7
73
6
0
VERTEX
8
OBJECT__19
10
0
20
0
30
0
70
128
71
7
72
8
73
9
0
VERTEX
8
OBJECT__19
10
0
20
0
30
0
70
128
71
10
72
9
73
8
0
VERTEX
8
OBJECT__19
10
0
20
0
30
0
70
128
71
8
72
11
73
10
0
VERTEX
8
OBJECT__19
10
0
20
0
30
0
70
128
71
11
72
12
73
13
0
VERTEX
8
OBJECT__19
10
0
20
0
30
0
70
128
71
14
72
13
73
12
0
VERTEX
8
OBJECT__19
10
0
20
0
30
0
70
128
71
12
72
15
73
14
0
VERTEX
8
OBJECT__19
10
0
20
0
30
0
70
128
71
15
72
16
73
17
0
VERTEX
8
OBJECT__19
10
0
20
0
30
0
70
128
71
17
72
14
73
15
0
VERTEX
8
OBJECT__19
10
0
20
0
30
0
70
128
71
17
72
18
73
14
0
VERTEX
8
OBJECT__19
10
0
20
0
30
0
70
128
71
13
72
10
73
11
0
VERTEX
8
OBJECT__19
10
0
20
0
30
0
70
128
71
9
72
6
73
7
0
VERTEX
8
OBJECT__19
10
0
20
0
30
0
70
128
71
5
72
3
73
2
0
VERTEX
8
OBJECT__19
10
0
20
0
30
0
70
128
71
3
72
19
73
1
0
SEQEND
8
OBJECT__19
0
POLYLINE
8
OBJECT__20
66
1
70
64
71
21
72
19
62
253
0
VERTEX
8
OBJECT__20
10
-13.500000
20
220.210999
30
-588.168030
70
192
0
VERTEX
8
OBJECT__20
10
-12.516000
20
220.110992
30
-587.669006
70
192
0
VERTEX
8
OBJECT__20
10
-12.516000
20
212.776001
30
-588.906006
70
192
0
VERTEX
8
OBJECT__20
10
-12.516000
20
199.768997
30
-584.104980
70
192
0
VERTEX
8
OBJECT__20
10
-13.500000
20
199.843994
30
-584.184998
70
192
0
VERTEX
8
OBJECT__20
10
-13.500000
20
209.692993
30
-587.888977
70
192
0
VERTEX
8
OBJECT__20
10
-12.516000
20
238.546997
30
-578.437012
70
192
0
VERTEX
8
OBJECT__20
10
-12.516000
20
229.175995
30
-586.138977
70
192
0
VERTEX
8
OBJECT__20
10
-13.500000
20
230.242996
30
-584.992004
70
192
0
VERTEX
8
OBJECT__20
10
-13.531000
20
247.287994
30
-560.375000
70
192
0
VERTEX
8
OBJECT__20
10
-12.516000
20
247.826996
30
-560.796997
70
192
0
VERTEX
8
OBJECT__20
10
-13.500000
20
247.205002
30
-561.164001
70
192
0
VERTEX
8
OBJECT__20
10
-13.552000
20
247.175003
30
-561.159973
70
192
0
VERTEX
8
OBJECT__20
10
-13.552000
20
247.278000
30
-560.351990
70
192
0
VERTEX
8
OBJECT__20
10
-12.516000
20
242.024994
30
-575.578003
70
192
0
VERTEX
8
OBJECT__20
10
-13.500000
20
244.326996
30
-570.607971
70
192
0
VERTEX
8
OBJECT__20
10
-13.500000
20
238.684998
30
-578.710022
70
192
0
VERTEX
8
OBJECT__20
10
-12.516000
20
197.173004
30
-583.146973
70
192
0
VERTEX
8
OBJECT__20
10
-12.516000
20
186.505005
30
-570.387024
70
192
0
VERTEX
8
OBJECT__20
10
-13.500000
20
186.483002
30
-568.929016
70
192
0
VERTEX
8
OBJECT__20
10
-13.500000
20
191.912003
30
-577.653015
70
192
0
VERTEX
8
OBJECT__20
10
0
20
0
30
0
70
128
71
1
72
2
73
3
0
VERTEX
8
OBJECT__20
10
0
20
0
30
0
70
128
71
4
72
5
73
6
0
VERTEX
8
OBJECT__20
10
0
20
0
30
0
70
128
71
6
72
3
73
4
0
VERTEX
8
OBJECT__20
10
0
20
0
30
0
70
128
71
7
72
8
73
9
0
VERTEX
8
OBJECT__20
10
0
20
0
30
0
70
128
71
1
72
9
73
8
0
VERTEX
8
OBJECT__20
10
0
20
0
30
0
70
128
71
8
72
2
73
1
0
VERTEX
8
OBJECT__20
10
0
20
0
30
0
70
128
71
10
72
11
73
12
0
VERTEX
8
OBJECT__20
10
0
20
0
30
0
70
128
71
13
72
14
73
10
0
VERTEX
8
OBJECT__20
10
0
20
0
30
0
70
128
71
11
72
15
73
16
0
VERTEX
8
OBJECT__20
10
0
20
0
30
0
70
128
71
17
72
16
73
15
0
VERTEX
8
OBJECT__20
10
0
20
0
30
0
70
128
71
15
72
7
73
17
0
VERTEX
8
OBJECT__20
10
0
20
0
30
0
70
128
71
16
72
12
73
11
0
VERTEX
8
OBJECT__20
10
0
20
0
30
0
70
128
71
5
72
4
73
18
0
VERTEX
8
OBJECT__20
10
0
20
0
30
0
70
128
71
19
72
20
73
21
0
VERTEX
8
OBJECT__20
10
0
20
0
30
0
70
128
71
21
72
18
73
19
0
VERTEX
8
OBJECT__20
10
0
20
0
30
0
70
128
71
18
72
21
73
5
0
VERTEX
8
OBJECT__20
10
0
20
0
30
0
70
128
71
12
72
13
73
10
0
VERTEX
8
OBJECT__20
10
0
20
0
30
0
70
128
71
9
72
17
73
7
0
VERTEX
8
OBJECT__20
10
0
20
0
30
0
70
128
71
3
72
6
73
1
0
SEQEND
8
OBJECT__20
0
POLYLINE
8
OBJECT__21
66
1
70
64
71
20
72
18
62
253
0
VERTEX
8
OBJECT__21
10
-5.500000
20
220.210999
30
-588.168030
70
192
0
VERTEX
8
OBJECT__21
10
-6.484000
20
220.110992
30
-587.669006
70
192
0
VERTEX
8
OBJECT__21
10
-6.484000
20
229.175995
30
-586.138977
70
192
0
VERTEX
8
OBJECT__21
10
-6.484000
20
238.546997
30
-578.437012
70
192
0
VERTEX
8
OBJECT__21
10
-5.500000
20
238.684998
30
-578.710022
70
192
0
VERTEX
8
OBJECT__21
10
-5.500000
20
230.242996
30
-584.992004
70
192
0
VERTEX
8
OBJECT__21
10
-6.484000
20
199.768997
30
-584.104980
70
192
0
VERTEX
8
OBJECT__21
10
-6.484000
20
212.776001
30
-588.906006
70
192
0
VERTEX
8
OBJECT__21
10
-5.500000
20
209.692993
30
-587.888977
70
192
0
VERTEX
8
OBJECT__21
10
-6.484000
20
186.505005
30
-570.387024
70
192
0
VERTEX
8
OBJECT__21
10
-6.484000
20
197.173004
30
-583.146973
70
192
0
VERTEX
8
OBJECT__21
10
-5.500000
20
191.912003
30
-577.653015
70
192
0
VERTEX
8
OBJECT__21
10
-5.500000
20
199.843994
30
-584.184998
70
192
0
VERTEX
8
OBJECT__21
10
-5.500000
20
247.205002
30
-561.164001
70
192
0
VERTEX
8
OBJECT__21
10
-6.484000
20
242.024994
30
-575.578003
70
192
0
VERTEX
8
OBJECT__21
10
-6.484000
20
247.826996
30
-560.796997
70
192
0
VERTEX
8
OBJECT__21
10
-6.361000
20
247.755997
30
-560.794983
70
192
0
VERTEX
8
OBJECT__21
10
-5.448000
20
247.278000
30
-560.351990
70
192
0
VERTEX
8
OBJECT__21
10
-5.448000
20
247.175003
30
-561.159973
70
192
0
VERTEX
8
OBJECT__21
10
-5.500000
20
186.483002
30
-568.929016
70
192
0
VERTEX
8
OBJECT__21
10
0
20
0
30
0
70
128
71
1
72
2
73
3
0
VERTEX
8
OBJECT__21
10
0
20
0
30
0
70
128
71
4
72
5
73
6
0
VERTEX
8
OBJECT__21
10
0
20
0
30
0
70
128
71
6
72
3
73
4
0
VERTEX
8
OBJECT__21
10
0
20
0
30
0
70
128
71
7
72
8
73
9
0
VERTEX
8
OBJECT__21
10
0
20
0
30
0
70
128
71
1
72
9
73
8
0
VERTEX
8
OBJECT__21
10
0
20
0
30
0
70
128
71
8
72
2
73
1
0
VERTEX
8
OBJECT__21
10
0
20
0
30
0
70
128
71
10
72
11
73
12
0
VERTEX
8
OBJECT__21
10
0
20
0
30
0
70
128
71
13
72
12
73
11
0
VERTEX
8
OBJECT__21
10
0
20
0
30
0
70
128
71
11
72
7
73
13
0
VERTEX
8
OBJECT__21
10
0
20
0
30
0
70
128
71
14
72
5
73
15
0
VERTEX
8
OBJECT__21
10
0
20
0
30
0
70
128
71
15
72
16
73
17
0
VERTEX
8
OBJECT__21
10
0
20
0
30
0
70
128
71
5
72
4
73
15
0
VERTEX
8
OBJECT__21
10
0
20
0
30
0
70
128
71
18
72
19
73
14
0
VERTEX
8
OBJECT__21
10
0
20
0
30
0
70
128
71
14
72
17
73
18
0
VERTEX
8
OBJECT__21
10
0
20
0
30
0
70
128
71
15
72
17
73
14
0
VERTEX
8
OBJECT__21
10
0
20
0
30
0
70
128
71
12
72
20
73
10
0
VERTEX
8
OBJECT__21
10
0
20
0
30
0
70
128
71
9
72
13
73
7
0
VERTEX
8
OBJECT__21
10
0
20
0
30
0
70
128
71
3
72
6
73
1
0
SEQEND
8
OBJECT__21
0
POLYLINE
8
OBJECT__22
66
1
70
64
71
46
72
44
62
253
0
VERTEX
8
OBJECT__22
10
-13.500000
20
186.095993
30
-546.213989
70
192
0
VERTEX
8
OBJECT__22
10
-13.500000
20
185.078995
30
-544.653015
70
192
0
VERTEX
8
OBJECT__22
10
-13.500000
20
182.783005
30
-556.747986
70
192
0
VERTEX
8
OBJECT__22
10
-13.500000
20
187.873993
30
-539.138000
70
192
0
VERTEX
8
OBJECT__22
10
-13.500000
20
186.322998
30
-543.023010
70
192
0
VERTEX
8
OBJECT__22
10
-13.500000
20
186.182999
30
-545.713013
70
192
0
VERTEX
8
OBJECT__22
10
-13.500000
20
186.110992
30
-567.322021
70
192
0
VERTEX
8
OBJECT__22
10
-13.500000
20
191.647995
30
-534.242004
70
192
0
VERTEX
8
OBJECT__22
10
-13.500000
20
189.009003
30
-538.325012
70
192
0
VERTEX
8
OBJECT__22
10
-13.500000
20
187.567993
30
-540.617981
70
192
0
VERTEX
8
OBJECT__22
10
-13.500000
20
185.078995
30
-568.841980
70
192
0
VERTEX
8
OBJECT__22
10
-13.500000
20
186.483002
30
-568.929016
70
192
0
VERTEX
8
OBJECT__22
10
-13.500000
20
186.209000
30
-567.781006
70
192
0
VERTEX
8
OBJECT__22
10
-13.500000
20
192.438004
30
-534.137024
70
192
0
VERTEX
8
OBJECT__22
10
-13.500000
20
201.125000
30
-527.741028
70
192
0
VERTEX
8
OBJECT__22
10
-13.500000
20
186.182999
30
-543.656982
70
192
0
VERTEX
8
OBJECT__22
10
-13.500000
20
191.647995
30
-579.254028
70
192
0
VERTEX
8
OBJECT__22
10
-13.500000
20
191.912003
30
-577.653015
70
192
0
VERTEX
8
OBJECT__22
10
-13.500000
20
201.576004
30
-586.533020
70
192
0
VERTEX
8
OBJECT__22
10
-13.500000
20
199.843994
30
-584.184998
70
192
0
VERTEX
8
OBJECT__22
10
-13.500000
20
240.970001
30
-535.426025
70
192
0
VERTEX
8
OBJECT__22
10
-13.500000
20
236.550995
30
-531.101990
70
192
0
VERTEX
8
OBJECT__22
10
-13.500000
20
236.699997
30
-531.872986
70
192
0
VERTEX
8
OBJECT__22
10
-13.500000
20
231.403000
30
-527.677979
70
192
0
VERTEX
8
OBJECT__22
10
-13.500000
20
232.281998
30
-528.747009
70
192
0
VERTEX
8
OBJECT__22
10
-13.500000
20
225.705994
30
-525.275024
70
192
0
VERTEX
8
OBJECT__22
10
-13.500000
20
227.406006
30
-526.396973
70
192
0
VERTEX
8
OBJECT__22
10
-13.500000
20
213.481003
30
-589.666992
70
192
0
VERTEX
8
OBJECT__22
10
-13.500000
20
209.692993
30
-587.888977
70
192
0
VERTEX
8
OBJECT__22
10
-13.500000
20
222.207993
30
-524.888977
70
192
0
VERTEX
8
OBJECT__22
10
-13.500000
20
225.705994
30
-588.219971
70
192
0
VERTEX
8
OBJECT__22
10
-13.500000
20
220.210999
30
-588.168030
70
192
0
VERTEX
8
OBJECT__22
10
-13.500000
20
244.505005
30
-572.997986
70
192
0
VERTEX
8
OBJECT__22
10
-13.500000
20
244.326996
30
-570.607971
70
192
0
VERTEX
8
OBJECT__22
10
-13.500000
20
238.684998
30
-578.710022
70
192
0
VERTEX
8
OBJECT__22
10
-13.500000
20
248.462006
30
-561.340027
70
192
0
VERTEX
8
OBJECT__22
10
-13.500000
20
247.205002
30
-561.164001
70
192
0
VERTEX
8
OBJECT__22
10
-13.500000
20
213.481003
30
-523.828003
70
192
0
VERTEX
8
OBJECT__22
10
-13.500000
20
211.425995
30
-524.541016
70
192
0
VERTEX
8
OBJECT__22
10
-13.500000
20
236.550995
30
-582.393982
70
192
0
VERTEX
8
OBJECT__22
10
-13.500000
20
230.242996
30
-584.992004
70
192
0
VERTEX
8
OBJECT__22
10
-13.500000
20
201.576004
30
-526.961975
70
192
0
VERTEX
8
OBJECT__22
10
-13.500000
20
247.966995
30
-552.224976
70
192
0
VERTEX
8
OBJECT__22
10
-13.500000
20
248.462006
30
-552.155029
70
192
0
VERTEX
8
OBJECT__22
10
-13.500000
20
244.505005
30
-540.497986
70
192
0
VERTEX
8
OBJECT__22
10
-13.500000
20
240.537994
30
-535.689026
70
192
0
VERTEX
8
OBJECT__22
10
0
20
0
30
0
70
128
71
1
72
2
73
3
0
VERTEX
8
OBJECT__22
10
0
20
0
30
0
70
128
71
4
72
2
73
5
0
VERTEX
8
OBJECT__22
10
0
20
0
30
0
70
128
71
2
72
1
73
6
0
VERTEX
8
OBJECT__22
10
0
20
0
30
0
70
128
71
3
72
7
73
1
0
VERTEX
8
OBJECT__22
10
0
20
0
30
0
70
128
71
8
72
4
73
9
0
VERTEX
8
OBJECT__22
10
0
20
0
30
0
70
128
71
5
72
10
73
4
0
VERTEX
8
OBJECT__22
10
0
20
0
30
0
70
128
71
3
72
11
73
7
0
VERTEX
8
OBJECT__22
10
0
20
0
30
0
70
128
71
11
72
12
73
13
0
VERTEX
8
OBJECT__22
10
0
20
0
30
0
70
128
71
8
72
14
73
15
0
VERTEX
8
OBJECT__22
10
0
20
0
30
0
70
128
71
10
72
9
73
4
0
VERTEX
8
OBJECT__22
10
0
20
0
30
0
70
128
71
13
72
7
73
11
0
VERTEX
8
OBJECT__22
10
0
20
0
30
0
70
128
71
9
72
14
73
8
0
VERTEX
8
OBJECT__22
10
0
20
0
30
0
70
128
71
6
72
16
73
2
0
VERTEX
8
OBJECT__22
10
0
20
0
30
0
70
128
71
16
72
5
73
2
0
VERTEX
8
OBJECT__22
10
0
20
0
30
0
70
128
71
11
72
17
73
18
0
VERTEX
8
OBJECT__22
10
0
20
0
30
0
70
128
71
18
72
12
73
11
0
VERTEX
8
OBJECT__22
10
0
20
0
30
0
70
128
71
17
72
19
73
20
0
VERTEX
8
OBJECT__22
10
0
20
0
30
0
70
128
71
21
72
22
73
23
0
VERTEX
8
OBJECT__22
10
0
20
0
30
0
70
128
71
22
72
24
73
25
0
VERTEX
8
OBJECT__22
10
0
20
0
30
0
70
128
71
24
72
26
73
27
0
VERTEX
8
OBJECT__22
10
0
20
0
30
0
70
128
71
20
72
18
73
17
0
VERTEX
8
OBJECT__22
10
0
20
0
30
0
70
128
71
19
72
28
73
29
0
VERTEX
8
OBJECT__22
10
0
20
0
30
0
70
128
71
25
72
23
73
22
0
VERTEX
8
OBJECT__22
10
0
20
0
30
0
70
128
71
26
72
30
73
27
0
VERTEX
8
OBJECT__22
10
0
20
0
30
0
70
128
71
29
72
20
73
19
0
VERTEX
8
OBJECT__22
10
0
20
0
30
0
70
128
71
28
72
31
73
32
0
VERTEX
8
OBJECT__22
10
0
20
0
30
0
70
128
71
33
72
34
73
35
0
VERTEX
8
OBJECT__22
10
0
20
0
30
0
70
128
71
36
72
37
73
34
0
VERTEX
8
OBJECT__22
10
0
20
0
30
0
70
128
71
27
72
25
73
24
0
VERTEX
8
OBJECT__22
10
0
20
0
30
0
70
128
71
38
72
39
73
30
0
VERTEX
8
OBJECT__22
10
0
20
0
30
0
70
128
71
32
72
29
73
28
0
VERTEX
8
OBJECT__22
10
0
20
0
30
0
70
128
71
40
72
35
73
41
0
VERTEX
8
OBJECT__22
10
0
20
0
30
0
70
128
71
34
72
33
73
36
0
VERTEX
8
OBJECT__22
10
0
20
0
30
0
70
128
71
30
72
26
73
38
0
VERTEX
8
OBJECT__22
10
0
20
0
30
0
70
128
71
42
72
15
73
39
0
VERTEX
8
OBJECT__22
10
0
20
0
30
0
70
128
71
31
72
41
73
32
0
VERTEX
8
OBJECT__22
10
0
20
0
30
0
70
128
71
35
72
40
73
33
0
VERTEX
8
OBJECT__22
10
0
20
0
30
0
70
128
71
43
72
44
73
45
0
VERTEX
8
OBJECT__22
10
0
20
0
30
0
70
128
71
39
72
38
73
42
0
VERTEX
8
OBJECT__22
10
0
20
0
30
0
70
128
71
41
72
31
73
40
0
VERTEX
8
OBJECT__22
10
0
20
0
30
0
70
128
71
45
72
46
73
43
0
VERTEX
8
OBJECT__22
10
0
20
0
30
0
70
128
71
15
72
42
73
8
0
VERTEX
8
OBJECT__22
10
0
20
0
30
0
70
128
71
23
72
46
73
21
0
VERTEX
8
OBJECT__22
10
0
20
0
30
0
70
128
71
45
72
21
73
46
0
SEQEND
8
OBJECT__22
0
POLYLINE
8
OBJECT__23
66
1
70
64
71
57
72
61
62
253
0
VERTEX
8
OBJECT__23
10
-5.500000
20
201.125000
30
-527.741028
70
192
0
VERTEX
8
OBJECT__23
10
-13.500000
20
201.125000
30
-527.741028
70
192
0
VERTEX
8
OBJECT__23
10
-13.500000
20
192.438004
30
-534.137024
70
192
0
VERTEX
8
OBJECT__23
10
-5.500000
20
186.322998
30
-543.023010
70
192
0
VERTEX
8
OBJECT__23
10
-5.500000
20
192.438004
30
-534.137024
70
192
0
VERTEX
8
OBJECT__23
10
-13.500000
20
189.009003
30
-538.325012
70
192
0
VERTEX
8
OBJECT__23
10
-13.500000
20
187.567993
30
-540.617981
70
192
0
VERTEX
8
OBJECT__23
10
-13.500000
20
186.322998
30
-543.023010
70
192
0
VERTEX
8
OBJECT__23
10
-5.500000
20
240.537994
30
-535.689026
70
192
0
VERTEX
8
OBJECT__23
10
-12.833000
20
248.033005
30
-552.728027
70
192
0
VERTEX
8
OBJECT__23
10
-13.500000
20
247.966995
30
-552.224976
70
192
0
VERTEX
8
OBJECT__23
10
-12.550000
20
248.029999
30
-552.697998
70
192
0
VERTEX
8
OBJECT__23
10
-2.600000
20
247.966995
30
-552.224976
70
192
0
VERTEX
8
OBJECT__23
10
-2.600000
20
248.259995
30
-555.513977
70
192
0
VERTEX
8
OBJECT__23
10
-5.135000
20
248.143997
30
-553.744019
70
192
0
VERTEX
8
OBJECT__23
10
-5.870000
20
248.248993
30
-555.267029
70
192
0
VERTEX
8
OBJECT__23
10
-16.400000
20
248.259995
30
-555.513977
70
192
0
VERTEX
8
OBJECT__23
10
-11.970000
20
248.248993
30
-555.267029
70
192
0
VERTEX
8
OBJECT__23
10
-7.511000
20
248.229004
30
-554.882996
70
192
0
VERTEX
8
OBJECT__23
10
-13.611000
20
248.229004
30
-554.882996
70
192
0
VERTEX
8
OBJECT__23
10
-16.400000
20
247.966995
30
-552.224976
70
192
0
VERTEX
8
OBJECT__23
10
-13.598000
20
248.087997
30
-553.195984
70
192
0
VERTEX
8
OBJECT__23
10
-6.733000
20
248.033005
30
-552.728027
70
192
0
VERTEX
8
OBJECT__23
10
-11.235000
20
248.143997
30
-553.744019
70
192
0
VERTEX
8
OBJECT__23
10
-5.500000
20
243.257004
30
-539.385986
70
192
0
VERTEX
8
OBJECT__23
10
-5.500000
20
245.427994
30
-543.427979
70
192
0
VERTEX
8
OBJECT__23
10
-6.450000
20
248.029999
30
-552.697998
70
192
0
VERTEX
8
OBJECT__23
10
-7.498000
20
248.087997
30
-553.195984
70
192
0
VERTEX
8
OBJECT__23
10
-5.500000
20
247.966995
30
-552.224976
70
192
0
VERTEX
8
OBJECT__23
10
-5.500000
20
232.281998
30
-528.747009
70
192
0
VERTEX
8
OBJECT__23
10
-8.000000
20
224.317001
30
-525.388000
70
192
0
VERTEX
8
OBJECT__23
10
-7.313000
20
223.335999
30
-525.138000
70
192
0
VERTEX
8
OBJECT__23
10
-5.500000
20
222.207993
30
-524.888977
70
192
0
VERTEX
8
OBJECT__23
10
-11.000000
20
224.317001
30
-525.388000
70
192
0
VERTEX
8
OBJECT__23
10
-13.500000
20
240.537994
30
-535.689026
70
192
0
VERTEX
8
OBJECT__23
10
-5.500000
20
236.699997
30
-531.872986
70
192
0
VERTEX
8
OBJECT__23
10
-13.500000
20
232.281998
30
-528.747009
70
192
0
VERTEX
8
OBJECT__23
10
-13.500000
20
227.406006
30
-526.396973
70
192
0
VERTEX
8
OBJECT__23
10
-13.500000
20
236.699997
30
-531.872986
70
192
0
VERTEX
8
OBJECT__23
10
-11.081000
20
224.304993
30
-525.385010
70
192
0
VERTEX
8
OBJECT__23
10
-13.500000
20
222.207993
30
-524.888977
70
192
0
VERTEX
8
OBJECT__23
10
-11.685000
20
222.199997
30
-524.926025
70
192
0
VERTEX
8
OBJECT__23
10
-13.500000
20
211.425995
30
-524.541016
70
192
0
VERTEX
8
OBJECT__23
10
-12.000000
20
213.235001
30
-524.348022
70
192
0
VERTEX
8
OBJECT__23
10
-12.000000
20
218.330994
30
-524.348022
70
192
0
VERTEX
8
OBJECT__23
10
-12.000000
20
210.466003
30
-524.685974
70
192
0
VERTEX
8
OBJECT__23
10
-11.687000
20
208.229996
30
-525.138000
70
192
0
VERTEX
8
OBJECT__23
10
-12.000000
20
221.100006
30
-524.685974
70
192
0
VERTEX
8
OBJECT__23
10
-11.000000
20
207.248993
30
-525.388000
70
192
0
VERTEX
8
OBJECT__23
10
-8.000000
20
207.248993
30
-525.388000
70
192
0
VERTEX
8
OBJECT__23
10
-7.919000
20
207.261002
30
-525.385010
70
192
0
VERTEX
8
OBJECT__23
10
-5.500000
20
211.425995
30
-524.541016
70
192
0
VERTEX
8
OBJECT__23
10
-7.000000
20
210.466003
30
-524.685974
70
192
0
VERTEX
8
OBJECT__23
10
-7.000000
20
218.330994
30
-524.348022
70
192
0
VERTEX
8
OBJECT__23
10
-7.000000
20
213.235001
30
-524.348022
70
192
0
VERTEX
8
OBJECT__23
10
-7.000000
20
221.100006
30
-524.685974
70
192
0
VERTEX
8
OBJECT__23
10
-7.154000
20
222.203995
30
-524.908997
70
192
0
VERTEX
8
OBJECT__23
10
0
20
0
30
0
70
128
71
1
72
2
73
3
0
VERTEX
8
OBJECT__23
10
0
20
0
30
0
70
128
71
4
72
5
73
6
0
VERTEX
8
OBJECT__23
10
0
20
0
30
0
70
128
71
6
72
7
73
4
0
VERTEX
8
OBJECT__23
10
0
20
0
30
0
70
128
71
5
72
3
73
6
0
VERTEX
8
OBJECT__23
10
0
20
0
30
0
70
128
71
7
72
8
73
4
0
VERTEX
8
OBJECT__23
10
0
20
0
30
0
70
128
71
9
72
10
73
11
0
VERTEX
8
OBJECT__23
10
0
20
0
30
0
70
128
71
9
72
12
73
10
0
VERTEX
8
OBJECT__23
10
0
20
0
30
0
70
128
71
13
72
14
73
15
0
VERTEX
8
OBJECT__23
10
0
20
0
30
0
70
128
71
14
72
16
73
15
0
VERTEX
8
OBJECT__23
10
0
20
0
30
0
70
128
71
16
72
17
73
18
0
VERTEX
8
OBJECT__23
10
0
20
0
30
0
70
128
71
18
72
19
73
16
0
VERTEX
8
OBJECT__23
10
0
20
0
30
0
70
128
71
17
72
20
73
18
0
VERTEX
8
OBJECT__23
10
0
20
0
30
0
70
128
71
16
72
14
73
17
0
VERTEX
8
OBJECT__23
10
0
20
0
30
0
70
128
71
17
72
21
73
22
0
VERTEX
8
OBJECT__23
10
0
20
0
30
0
70
128
71
22
72
21
73
11
0
VERTEX
8
OBJECT__23
10
0
20
0
30
0
70
128
71
11
72
10
73
22
0
VERTEX
8
OBJECT__23
10
0
20
0
30
0
70
128
71
22
72
20
73
17
0
VERTEX
8
OBJECT__23
10
0
20
0
30
0
70
128
71
9
72
23
73
24
0
VERTEX
8
OBJECT__23
10
0
20
0
30
0
70
128
71
23
72
25
73
26
0
VERTEX
8
OBJECT__23
10
0
20
0
30
0
70
128
71
23
72
9
73
25
0
VERTEX
8
OBJECT__23
10
0
20
0
30
0
70
128
71
26
72
27
73
23
0
VERTEX
8
OBJECT__23
10
0
20
0
30
0
70
128
71
19
72
18
73
24
0
VERTEX
8
OBJECT__23
10
0
20
0
30
0
70
128
71
24
72
23
73
28
0
VERTEX
8
OBJECT__23
10
0
20
0
30
0
70
128
71
24
72
28
73
19
0
VERTEX
8
OBJECT__23
10
0
20
0
30
0
70
128
71
24
72
12
73
9
0
VERTEX
8
OBJECT__23
10
0
20
0
30
0
70
128
71
27
72
26
73
29
0
VERTEX
8
OBJECT__23
10
0
20
0
30
0
70
128
71
29
72
15
73
27
0
VERTEX
8
OBJECT__23
10
0
20
0
30
0
70
128
71
15
72
29
73
13
0
VERTEX
8
OBJECT__23
10
0
20
0
30
0
70
128
71
30
72
31
73
32
0
VERTEX
8
OBJECT__23
10
0
20
0
30
0
70
128
71
32
72
33
73
30
0
VERTEX
8
OBJECT__23
10
0
20
0
30
0
70
128
71
34
72
31
73
30
0
VERTEX
8
OBJECT__23
10
0
20
0
30
0
70
128
71
30
72
35
73
34
0
VERTEX
8
OBJECT__23
10
0
20
0
30
0
70
128
71
30
72
36
73
35
0
VERTEX
8
OBJECT__23
10
0
20
0
30
0
70
128
71
34
72
37
73
38
0
VERTEX
8
OBJECT__23
10
0
20
0
30
0
70
128
71
34
72
39
73
37
0
VERTEX
8
OBJECT__23
10
0
20
0
30
0
70
128
71
34
72
35
73
39
0
VERTEX
8
OBJECT__23
10
0
20
0
30
0
70
128
71
38
72
40
73
34
0
VERTEX
8
OBJECT__23
10
0
20
0
30
0
70
128
71
36
72
9
73
35
0
VERTEX
8
OBJECT__23
10
0
20
0
30
0
70
128
71
41
72
42
73
40
0
VERTEX
8
OBJECT__23
10
0
20
0
30
0
70
128
71
40
72
38
73
41
0
VERTEX
8
OBJECT__23
10
0
20
0
30
0
70
128
71
43
72
44
73
45
0
VERTEX
8
OBJECT__23
10
0
20
0
30
0
70
128
71
43
72
46
73
44
0
VERTEX
8
OBJECT__23
10
0
20
0
30
0
70
128
71
45
72
41
73
43
0
VERTEX
8
OBJECT__23
10
0
20
0
30
0
70
128
71
43
72
2
73
47
0
VERTEX
8
OBJECT__23
10
0
20
0
30
0
70
128
71
47
72
46
73
43
0
VERTEX
8
OBJECT__23
10
0
20
0
30
0
70
128
71
45
72
48
73
41
0
VERTEX
8
OBJECT__23
10
0
20
0
30
0
70
128
71
2
72
49
73
47
0
VERTEX
8
OBJECT__23
10
0
20
0
30
0
70
128
71
2
72
1
73
50
0
VERTEX
8
OBJECT__23
10
0
20
0
30
0
70
128
71
1
72
51
73
50
0
VERTEX
8
OBJECT__23
10
0
20
0
30
0
70
128
71
50
72
49
73
2
0
VERTEX
8
OBJECT__23
10
0
20
0
30
0
70
128
71
52
72
53
73
51
0
VERTEX
8
OBJECT__23
10
0
20
0
30
0
70
128
71
52
72
33
73
54
0
VERTEX
8
OBJECT__23
10
0
20
0
30
0
70
128
71
54
72
55
73
52
0
VERTEX
8
OBJECT__23
10
0
20
0
30
0
70
128
71
33
72
56
73
54
0
VERTEX
8
OBJECT__23
10
0
20
0
30
0
70
128
71
33
72
57
73
56
0
VERTEX
8
OBJECT__23
10
0
20
0
30
0
70
128
71
55
72
53
73
52
0
VERTEX
8
OBJECT__23
10
0
20
0
30
0
70
128
71
51
72
1
73
52
0
VERTEX
8
OBJECT__23
10
0
20
0
30
0
70
128
71
48
72
42
73
41
0
VERTEX
8
OBJECT__23
10
0
20
0
30
0
70
128
71
32
72
57
73
33
0
VERTEX
8
OBJECT__23
10
0
20
0
30
0
70
128
71
11
72
35
73
9
0
VERTEX
8
OBJECT__23
10
0
20
0
30
0
70
128
71
3
72
5
73
1
0
SEQEND
8
OBJECT__23
0
POLYLINE
8
OBJECT__24
66
1
70
64
71
4
72
2
62
253
0
VERTEX
8
OBJECT__24
10
-5.500000
20
186.182999
30
-545.713013
70
192
0
VERTEX
8
OBJECT__24
10
-5.500000
20
186.182999
30
-543.656982
70
192
0
VERTEX
8
OBJECT__24
10
-13.500000
20
186.182999
30
-543.656982
70
192
0
VERTEX
8
OBJECT__24
10
-13.500000
20
186.182999
30
-545.713013
70
192
0
VERTEX
8
OBJECT__24
10
0
20
0
30
0
70
128
71
1
72
2
73
3
0
VERTEX
8
OBJECT__24
10
0
20
0
30
0
70
128
71
3
72
4
73
1
0
SEQEND
8
OBJECT__24
0
POLYLINE
8
OBJECT__25
66
1
70
64
71
8
72
6
62
253
0
VERTEX
8
OBJECT__25
10
-13.170000
20
186.095993
30
-567.281006
70
192
0
VERTEX
8
OBJECT__25
10
-5.830000
20
186.095993
30
-567.281006
70
192
0
VERTEX
8
OBJECT__25
10
-5.500000
20
184.283005
30
-556.768982
70
192
0
VERTEX
8
OBJECT__25
10
-13.500000
20
186.095993
30
-546.213989
70
192
0
VERTEX
8
OBJECT__25
10
-5.500000
20
186.095993
30
-546.213989
70
192
0
VERTEX
8
OBJECT__25
10
-13.500000
20
186.110992
30
-567.322021
70
192
0
VERTEX
8
OBJECT__25
10
-5.534000
20
186.108002
30
-567.312988
70
192
0
VERTEX
8
OBJECT__25
10
-5.500000
20
186.110992
30
-567.322021
70
192
0
VERTEX
8
OBJECT__25
10
0
20
0
30
0
70
128
71
1
72
2
73
3
0
VERTEX
8
OBJECT__25
10
0
20
0
30
0
70
128
71
3
72
4
73
1
0
VERTEX
8
OBJECT__25
10
0
20
0
30
0
70
128
71
3
72
5
73
4
0
VERTEX
8
OBJECT__25
10
0
20
0
30
0
70
128
71
4
72
6
73
1
0
VERTEX
8
OBJECT__25
10
0
20
0
30
0
70
128
71
2
72
7
73
3
0
VERTEX
8
OBJECT__25
10
0
20
0
30
0
70
128
71
7
72
8
73
3
0
SEQEND
8
OBJECT__25
0
POLYLINE
8
OBJECT__26
66
1
70
64
71
44
72
42
62
253
0
VERTEX
8
OBJECT__26
10
-5.500000
20
185.078995
30
-568.841980
70
192
0
VERTEX
8
OBJECT__26
10
-5.500000
20
186.110992
30
-567.322021
70
192
0
VERTEX
8
OBJECT__26
10
-5.500000
20
186.209000
30
-567.781006
70
192
0
VERTEX
8
OBJECT__26
10
-5.500000
20
182.783005
30
-556.747986
70
192
0
VERTEX
8
OBJECT__26
10
-5.500000
20
184.283005
30
-556.768982
70
192
0
VERTEX
8
OBJECT__26
10
-5.500000
20
186.483002
30
-568.929016
70
192
0
VERTEX
8
OBJECT__26
10
-5.500000
20
191.912003
30
-577.653015
70
192
0
VERTEX
8
OBJECT__26
10
-5.500000
20
240.970001
30
-535.426025
70
192
0
VERTEX
8
OBJECT__26
10
-5.500000
20
244.505005
30
-540.497986
70
192
0
VERTEX
8
OBJECT__26
10
-5.500000
20
243.257004
30
-539.385986
70
192
0
VERTEX
8
OBJECT__26
10
-5.500000
20
191.647995
30
-579.254028
70
192
0
VERTEX
8
OBJECT__26
10
-5.500000
20
199.843994
30
-584.184998
70
192
0
VERTEX
8
OBJECT__26
10
-5.500000
20
240.537994
30
-535.689026
70
192
0
VERTEX
8
OBJECT__26
10
-5.500000
20
236.699997
30
-531.872986
70
192
0
VERTEX
8
OBJECT__26
10
-5.500000
20
245.427994
30
-543.427979
70
192
0
VERTEX
8
OBJECT__26
10
-5.500000
20
201.576004
30
-586.533020
70
192
0
VERTEX
8
OBJECT__26
10
-5.500000
20
209.692993
30
-587.888977
70
192
0
VERTEX
8
OBJECT__26
10
-5.500000
20
236.550995
30
-531.101990
70
192
0
VERTEX
8
OBJECT__26
10
-5.500000
20
232.281998
30
-528.747009
70
192
0
VERTEX
8
OBJECT__26
10
-5.500000
20
236.550995
30
-582.393982
70
192
0
VERTEX
8
OBJECT__26
10
-5.500000
20
225.705994
30
-588.219971
70
192
0
VERTEX
8
OBJECT__26
10
-5.500000
20
230.242996
30
-584.992004
70
192
0
VERTEX
8
OBJECT__26
10
-5.500000
20
213.481003
30
-589.666992
70
192
0
VERTEX
8
OBJECT__26
10
-5.500000
20
220.210999
30
-588.168030
70
192
0
VERTEX
8
OBJECT__26
10
-5.500000
20
185.078995
30
-544.653015
70
192
0
VERTEX
8
OBJECT__26
10
-5.500000
20
186.095993
30
-546.213989
70
192
0
VERTEX
8
OBJECT__26
10
-5.500000
20
186.182999
30
-543.656982
70
192
0
VERTEX
8
OBJECT__26
10
-5.500000
20
186.182999
30
-545.713013
70
192
0
VERTEX
8
OBJECT__26
10
-5.500000
20
191.647995
30
-534.242004
70
192
0
VERTEX
8
OBJECT__26
10
-5.500000
20
192.438004
30
-534.137024
70
192
0
VERTEX
8
OBJECT__26
10
-5.500000
20
186.322998
30
-543.023010
70
192
0
VERTEX
8
OBJECT__26
10
-5.500000
20
201.576004
30
-526.961975
70
192
0
VERTEX
8
OBJECT__26
10
-5.500000
20
201.125000
30
-527.741028
70
192
0
VERTEX
8
OBJECT__26
10
-5.500000
20
213.481003
30
-523.828003
70
192
0
VERTEX
8
OBJECT__26
10
-5.500000
20
211.425995
30
-524.541016
70
192
0
VERTEX
8
OBJECT__26
10
-5.500000
20
225.705994
30
-525.275024
70
192
0
VERTEX
8
OBJECT__26
10
-5.500000
20
222.207993
30
-524.888977
70
192
0
VERTEX
8
OBJECT__26
10
-5.500000
20
248.462006
30
-552.155029
70
192
0
VERTEX
8
OBJECT__26
10
-5.500000
20
247.966995
30
-552.224976
70
192
0
VERTEX
8
OBJECT__26
10
-5.500000
20
231.403000
30
-527.677979
70
192
0
VERTEX
8
OBJECT__26
10
-5.500000
20
247.205002
30
-561.164001
70
192
0
VERTEX
8
OBJECT__26
10
-5.500000
20
248.462006
30
-561.340027
70
192
0
VERTEX
8
OBJECT__26
10
-5.500000
20
244.505005
30
-572.997986
70
192
0
VERTEX
8
OBJECT__26
10
-5.500000
20
238.684998
30
-578.710022
70
192
0
VERTEX
8
OBJECT__26
10
0
20
0
30
0
70
128
71
1
72
2
73
3
0
VERTEX
8
OBJECT__26
10
0
20
0
30
0
70
128
71
4
72
5
73
2
0
VERTEX
8
OBJECT__26
10
0
20
0
30
0
70
128
71
1
72
6
73
7
0
VERTEX
8
OBJECT__26
10
0
20
0
30
0
70
128
71
2
72
1
73
4
0
VERTEX
8
OBJECT__26
10
0
20
0
30
0
70
128
71
8
72
9
73
10
0
VERTEX
8
OBJECT__26
10
0
20
0
30
0
70
128
71
11
72
7
73
12
0
VERTEX
8
OBJECT__26
10
0
20
0
30
0
70
128
71
3
72
6
73
1
0
VERTEX
8
OBJECT__26
10
0
20
0
30
0
70
128
71
8
72
13
73
14
0
VERTEX
8
OBJECT__26
10
0
20
0
30
0
70
128
71
9
72
15
73
10
0
VERTEX
8
OBJECT__26
10
0
20
0
30
0
70
128
71
16
72
12
73
17
0
VERTEX
8
OBJECT__26
10
0
20
0
30
0
70
128
71
7
72
11
73
1
0
VERTEX
8
OBJECT__26
10
0
20
0
30
0
70
128
71
18
72
14
73
19
0
VERTEX
8
OBJECT__26
10
0
20
0
30
0
70
128
71
10
72
13
73
8
0
VERTEX
8
OBJECT__26
10
0
20
0
30
0
70
128
71
20
72
21
73
22
0
VERTEX
8
OBJECT__26
10
0
20
0
30
0
70
128
71
23
72
17
73
24
0
VERTEX
8
OBJECT__26
10
0
20
0
30
0
70
128
71
12
72
16
73
11
0
VERTEX
8
OBJECT__26
10
0
20
0
30
0
70
128
71
4
72
25
73
26
0
VERTEX
8
OBJECT__26
10
0
20
0
30
0
70
128
71
25
72
27
73
28
0
VERTEX
8
OBJECT__26
10
0
20
0
30
0
70
128
71
29
72
30
73
31
0
VERTEX
8
OBJECT__26
10
0
20
0
30
0
70
128
71
29
72
32
73
33
0
VERTEX
8
OBJECT__26
10
0
20
0
30
0
70
128
71
32
72
34
73
35
0
VERTEX
8
OBJECT__26
10
0
20
0
30
0
70
128
71
34
72
36
73
37
0
VERTEX
8
OBJECT__26
10
0
20
0
30
0
70
128
71
14
72
18
73
8
0
VERTEX
8
OBJECT__26
10
0
20
0
30
0
70
128
71
38
72
39
73
15
0
VERTEX
8
OBJECT__26
10
0
20
0
30
0
70
128
71
21
72
24
73
22
0
VERTEX
8
OBJECT__26
10
0
20
0
30
0
70
128
71
17
72
23
73
16
0
VERTEX
8
OBJECT__26
10
0
20
0
30
0
70
128
71
28
72
26
73
25
0
VERTEX
8
OBJECT__26
10
0
20
0
30
0
70
128
71
33
72
30
73
29
0
VERTEX
8
OBJECT__26
10
0
20
0
30
0
70
128
71
37
72
35
73
34
0
VERTEX
8
OBJECT__26
10
0
20
0
30
0
70
128
71
19
72
37
73
36
0
VERTEX
8
OBJECT__26
10
0
20
0
30
0
70
128
71
15
72
9
73
38
0
VERTEX
8
OBJECT__26
10
0
20
0
30
0
70
128
71
24
72
21
73
23
0
VERTEX
8
OBJECT__26
10
0
20
0
30
0
70
128
71
25
72
31
73
27
0
VERTEX
8
OBJECT__26
10
0
20
0
30
0
70
128
71
35
72
33
73
32
0
VERTEX
8
OBJECT__26
10
0
20
0
30
0
70
128
71
19
72
40
73
18
0
VERTEX
8
OBJECT__26
10
0
20
0
30
0
70
128
71
41
72
42
73
43
0
VERTEX
8
OBJECT__26
10
0
20
0
30
0
70
128
71
26
72
5
73
4
0
VERTEX
8
OBJECT__26
10
0
20
0
30
0
70
128
71
36
72
40
73
19
0
VERTEX
8
OBJECT__26
10
0
20
0
30
0
70
128
71
43
72
20
73
44
0
VERTEX
8
OBJECT__26
10
0
20
0
30
0
70
128
71
31
72
25
73
29
0
VERTEX
8
OBJECT__26
10
0
20
0
30
0
70
128
71
22
72
44
73
20
0
VERTEX
8
OBJECT__26
10
0
20
0
30
0
70
128
71
43
72
44
73
41
0
SEQEND
8
OBJECT__26
0
POLYLINE
8
OBJECT__27
66
1
70
64
71
28
72
26
62
253
0
VERTEX
8
OBJECT__27
10
-0.500000
20
248.462006
30
-552.155029
70
192
0
VERTEX
8
OBJECT__27
10
-5.500000
20
248.462006
30
-552.155029
70
192
0
VERTEX
8
OBJECT__27
10
-5.500000
20
244.505005
30
-540.497986
70
192
0
VERTEX
8
OBJECT__27
10
-0.500000
20
236.550995
30
-531.101990
70
192
0
VERTEX
8
OBJECT__27
10
-5.500000
20
240.970001
30
-535.426025
70
192
0
VERTEX
8
OBJECT__27
10
-5.500000
20
231.403000
30
-527.677979
70
192
0
VERTEX
8
OBJECT__27
10
-5.500000
20
225.705994
30
-525.275024
70
192
0
VERTEX
8
OBJECT__27
10
-5.500000
20
236.550995
30
-531.101990
70
192
0
VERTEX
8
OBJECT__27
10
-0.500000
20
213.481003
30
-523.828003
70
192
0
VERTEX
8
OBJECT__27
10
-5.500000
20
213.481003
30
-523.828003
70
192
0
VERTEX
8
OBJECT__27
10
-5.500000
20
201.576004
30
-526.961975
70
192
0
VERTEX
8
OBJECT__27
10
-0.500000
20
191.647995
30
-534.242004
70
192
0
VERTEX
8
OBJECT__27
10
-0.500000
20
182.783005
30
-556.747986
70
192
0
VERTEX
8
OBJECT__27
10
-5.500000
20
185.078995
30
-544.653015
70
192
0
VERTEX
8
OBJECT__27
10
-5.500000
20
191.647995
30
-534.242004
70
192
0
VERTEX
8
OBJECT__27
10
-5.500000
20
182.783005
30
-556.747986
70
192
0
VERTEX
8
OBJECT__27
10
-5.500000
20
185.078995
30
-568.841980
70
192
0
VERTEX
8
OBJECT__27
10
-0.500000
20
191.647995
30
-579.254028
70
192
0
VERTEX
8
OBJECT__27
10
-5.500000
20
191.647995
30
-579.254028
70
192
0
VERTEX
8
OBJECT__27
10
-5.500000
20
201.576004
30
-586.533020
70
192
0
VERTEX
8
OBJECT__27
10
-0.500000
20
213.481003
30
-589.666992
70
192
0
VERTEX
8
OBJECT__27
10
-5.500000
20
213.481003
30
-589.666992
70
192
0
VERTEX
8
OBJECT__27
10
-5.500000
20
225.705994
30
-588.219971
70
192
0
VERTEX
8
OBJECT__27
10
-0.500000
20
236.550995
30
-582.393982
70
192
0
VERTEX
8
OBJECT__27
10
-0.500000
20
248.462006
30
-561.340027
70
192
0
VERTEX
8
OBJECT__27
10
-5.500000
20
244.505005
30
-572.997986
70
192
0
VERTEX
8
OBJECT__27
10
-5.500000
20
236.550995
30
-582.393982
70
192
0
VERTEX
8
OBJECT__27
10
-5.500000
20
248.462006
30
-561.340027
70
192
0
VERTEX
8
OBJECT__27
10
0
20
0
30
0
70
128
71
1
72
2
73
3
0
VERTEX
8
OBJECT__27
10
0
20
0
30
0
70
128
71
3
72
4
73
1
0
VERTEX
8
OBJECT__27
10
0
20
0
30
0
70
128
71
3
72
5
73
4
0
VERTEX
8
OBJECT__27
10
0
20
0
30
0
70
128
71
4
72
6
73
7
0
VERTEX
8
OBJECT__27
10
0
20
0
30
0
70
128
71
4
72
8
73
6
0
VERTEX
8
OBJECT__27
10
0
20
0
30
0
70
128
71
7
72
9
73
4
0
VERTEX
8
OBJECT__27
10
0
20
0
30
0
70
128
71
9
72
10
73
11
0
VERTEX
8
OBJECT__27
10
0
20
0
30
0
70
128
71
11
72
12
73
9
0
VERTEX
8
OBJECT__27
10
0
20
0
30
0
70
128
71
13
72
12
73
14
0
VERTEX
8
OBJECT__27
10
0
20
0
30
0
70
128
71
12
72
15
73
14
0
VERTEX
8
OBJECT__27
10
0
20
0
30
0
70
128
71
13
72
16
73
17
0
VERTEX
8
OBJECT__27
10
0
20
0
30
0
70
128
71
17
72
18
73
13
0
VERTEX
8
OBJECT__27
10
0
20
0
30
0
70
128
71
18
72
19
73
20
0
VERTEX
8
OBJECT__27
10
0
20
0
30
0
70
128
71
20
72
21
73
18
0
VERTEX
8
OBJECT__27
10
0
20
0
30
0
70
128
71
21
72
22
73
23
0
VERTEX
8
OBJECT__27
10
0
20
0
30
0
70
128
71
23
72
24
73
21
0
VERTEX
8
OBJECT__27
10
0
20
0
30
0
70
128
71
25
72
24
73
26
0
VERTEX
8
OBJECT__27
10
0
20
0
30
0
70
128
71
24
72
27
73
26
0
VERTEX
8
OBJECT__27
10
0
20
0
30
0
70
128
71
26
72
28
73
25
0
VERTEX
8
OBJECT__27
10
0
20
0
30
0
70
128
71
23
72
27
73
24
0
VERTEX
8
OBJECT__27
10
0
20
0
30
0
70
128
71
20
72
22
73
21
0
VERTEX
8
OBJECT__27
10
0
20
0
30
0
70
128
71
17
72
19
73
18
0
VERTEX
8
OBJECT__27
10
0
20
0
30
0
70
128
71
14
72
16
73
13
0
VERTEX
8
OBJECT__27
10
0
20
0
30
0
70
128
71
11
72
15
73
12
0
VERTEX
8
OBJECT__27
10
0
20
0
30
0
70
128
71
7
72
10
73
9
0
VERTEX
8
OBJECT__27
10
0
20
0
30
0
70
128
71
5
72
8
73
4
0
SEQEND
8
OBJECT__27
0
POLYLINE
8
OBJECT__28
66
1
70
64
71
19
72
17
62
253
0
VERTEX
8
OBJECT__28
10
-0.500000
20
191.647995
30
-534.242004
70
192
0
VERTEX
8
OBJECT__28
10
-0.500000
20
182.783005
30
-556.747986
70
192
0
VERTEX
8
OBJECT__28
10
-0.500000
20
190.270996
30
-547.908020
70
192
0
VERTEX
8
OBJECT__28
10
-0.500000
20
213.481003
30
-523.828003
70
192
0
VERTEX
8
OBJECT__28
10
-0.500000
20
201.210007
30
-534.018005
70
192
0
VERTEX
8
OBJECT__28
10
-0.500000
20
190.270996
30
-565.588013
70
192
0
VERTEX
8
OBJECT__28
10
-0.500000
20
236.550995
30
-531.101990
70
192
0
VERTEX
8
OBJECT__28
10
-0.500000
20
218.397003
30
-529.875000
70
192
0
VERTEX
8
OBJECT__28
10
-0.500000
20
191.647995
30
-579.254028
70
192
0
VERTEX
8
OBJECT__28
10
-0.500000
20
201.210007
30
-579.476990
70
192
0
VERTEX
8
OBJECT__28
10
-0.500000
20
213.481003
30
-589.666992
70
192
0
VERTEX
8
OBJECT__28
10
-0.500000
20
218.397003
30
-583.620972
70
192
0
VERTEX
8
OBJECT__28
10
-0.500000
20
236.550995
30
-582.393982
70
192
0
VERTEX
8
OBJECT__28
10
-0.500000
20
234.462997
30
-576.242004
70
192
0
VERTEX
8
OBJECT__28
10
-0.500000
20
248.462006
30
-552.155029
70
192
0
VERTEX
8
OBJECT__28
10
-0.500000
20
234.462997
30
-537.252991
70
192
0
VERTEX
8
OBJECT__28
10
-0.500000
20
248.462006
30
-561.340027
70
192
0
VERTEX
8
OBJECT__28
10
-0.500000
20
242.520004
30
-560.505005
70
192
0
VERTEX
8
OBJECT__28
10
-0.500000
20
242.520004
30
-552.989990
70
192
0
VERTEX
8
OBJECT__28
10
0
20
0
30
0
70
128
71
1
72
2
73
3
0
VERTEX
8
OBJECT__28
10
0
20
0
30
0
70
128
71
4
72
1
73
5
0
VERTEX
8
OBJECT__28
10
0
20
0
30
0
70
128
71
2
72
6
73
3
0
VERTEX
8
OBJECT__28
10
0
20
0
30
0
70
128
71
7
72
4
73
8
0
VERTEX
8
OBJECT__28
10
0
20
0
30
0
70
128
71
3
72
5
73
1
0
VERTEX
8
OBJECT__28
10
0
20
0
30
0
70
128
71
9
72
10
73
6
0
VERTEX
8
OBJECT__28
10
0
20
0
30
0
70
128
71
11
72
12
73
10
0
VERTEX
8
OBJECT__28
10
0
20
0
30
0
70
128
71
5
72
8
73
4
0
VERTEX
8
OBJECT__28
10
0
20
0
30
0
70
128
71
10
72
9
73
11
0
VERTEX
8
OBJECT__28
10
0
20
0
30
0
70
128
71
6
72
2
73
9
0
VERTEX
8
OBJECT__28
10
0
20
0
30
0
70
128
71
13
72
14
73
12
0
VERTEX
8
OBJECT__28
10
0
20
0
30
0
70
128
71
15
72
7
73
16
0
VERTEX
8
OBJECT__28
10
0
20
0
30
0
70
128
71
12
72
11
73
13
0
VERTEX
8
OBJECT__28
10
0
20
0
30
0
70
128
71
8
72
16
73
7
0
VERTEX
8
OBJECT__28
10
0
20
0
30
0
70
128
71
17
72
18
73
14
0
VERTEX
8
OBJECT__28
10
0
20
0
30
0
70
128
71
14
72
13
73
17
0
VERTEX
8
OBJECT__28
10
0
20
0
30
0
70
128
71
16
72
19
73
15
0
SEQEND
8
OBJECT__28
0
POLYLINE
8
OBJECT__29
66
1
70
64
71
29
72
27
62
253
0
VERTEX
8
OBJECT__29
10
-18.500000
20
236.550995
30
-531.101990
70
192
0
VERTEX
8
OBJECT__29
10
-13.500000
20
240.970001
30
-535.426025
70
192
0
VERTEX
8
OBJECT__29
10
-13.500000
20
244.505005
30
-540.497986
70
192
0
VERTEX
8
OBJECT__29
10
-13.500000
20
236.550995
30
-531.101990
70
192
0
VERTEX
8
OBJECT__29
10
-18.500000
20
248.462006
30
-552.155029
70
192
0
VERTEX
8
OBJECT__29
10
-18.500000
20
213.481003
30
-523.828003
70
192
0
VERTEX
8
OBJECT__29
10
-13.500000
20
225.705994
30
-525.275024
70
192
0
VERTEX
8
OBJECT__29
10
-13.500000
20
231.403000
30
-527.677979
70
192
0
VERTEX
8
OBJECT__29
10
-13.500000
20
213.481003
30
-523.828003
70
192
0
VERTEX
8
OBJECT__29
10
-18.500000
20
191.647995
30
-534.242004
70
192
0
VERTEX
8
OBJECT__29
10
-13.500000
20
191.647995
30
-534.242004
70
192
0
VERTEX
8
OBJECT__29
10
-13.500000
20
201.576004
30
-526.961975
70
192
0
VERTEX
8
OBJECT__29
10
-18.500000
20
182.783005
30
-556.747986
70
192
0
VERTEX
8
OBJECT__29
10
-13.500000
20
182.783005
30
-556.747986
70
192
0
VERTEX
8
OBJECT__29
10
-13.500000
20
185.078995
30
-544.653015
70
192
0
VERTEX
8
OBJECT__29
10
-13.500000
20
187.873993
30
-539.138000
70
192
0
VERTEX
8
OBJECT__29
10
-18.500000
20
191.647995
30
-579.254028
70
192
0
VERTEX
8
OBJECT__29
10
-13.500000
20
185.078995
30
-568.841980
70
192
0
VERTEX
8
OBJECT__29
10
-13.500000
20
191.647995
30
-579.254028
70
192
0
VERTEX
8
OBJECT__29
10
-18.500000
20
213.481003
30
-589.666992
70
192
0
VERTEX
8
OBJECT__29
10
-13.500000
20
201.576004
30
-586.533020
70
192
0
VERTEX
8
OBJECT__29
10
-13.500000
20
213.481003
30
-589.666992
70
192
0
VERTEX
8
OBJECT__29
10
-18.500000
20
236.550995
30
-582.393982
70
192
0
VERTEX
8
OBJECT__29
10
-13.500000
20
225.705994
30
-588.219971
70
192
0
VERTEX
8
OBJECT__29
10
-13.500000
20
236.550995
30
-582.393982
70
192
0
VERTEX
8
OBJECT__29
10
-18.500000
20
248.462006
30
-561.340027
70
192
0
VERTEX
8
OBJECT__29
10
-13.500000
20
248.462006
30
-561.340027
70
192
0
VERTEX
8
OBJECT__29
10
-13.500000
20
244.505005
30
-572.997986
70
192
0
VERTEX
8
OBJECT__29
10
-13.500000
20
248.462006
30
-552.155029
70
192
0
VERTEX
8
OBJECT__29
10
0
20
0
30
0
70
128
71
1
72
2
73
3
0
VERTEX
8
OBJECT__29
10
0
20
0
30
0
70
128
71
1
72
4
73
2
0
VERTEX
8
OBJECT__29
10
0
20
0
30
0
70
128
71
3
72
5
73
1
0
VERTEX
8
OBJECT__29
10
0
20
0
30
0
70
128
71
1
72
6
73
7
0
VERTEX
8
OBJECT__29
10
0
20
0
30
0
70
128
71
7
72
8
73
1
0
VERTEX
8
OBJECT__29
10
0
20
0
30
0
70
128
71
6
72
9
73
7
0
VERTEX
8
OBJECT__29
10
0
20
0
30
0
70
128
71
10
72
11
73
12
0
VERTEX
8
OBJECT__29
10
0
20
0
30
0
70
128
71
12
72
6
73
10
0
VERTEX
8
OBJECT__29
10
0
20
0
30
0
70
128
71
13
72
14
73
15
0
VERTEX
8
OBJECT__29
10
0
20
0
30
0
70
128
71
15
72
10
73
13
0
VERTEX
8
OBJECT__29
10
0
20
0
30
0
70
128
71
15
72
16
73
10
0
VERTEX
8
OBJECT__29
10
0
20
0
30
0
70
128
71
13
72
17
73
18
0
VERTEX
8
OBJECT__29
10
0
20
0
30
0
70
128
71
17
72
19
73
18
0
VERTEX
8
OBJECT__29
10
0
20
0
30
0
70
128
71
17
72
20
73
21
0
VERTEX
8
OBJECT__29
10
0
20
0
30
0
70
128
71
20
72
22
73
21
0
VERTEX
8
OBJECT__29
10
0
20
0
30
0
70
128
71
20
72
23
73
24
0
VERTEX
8
OBJECT__29
10
0
20
0
30
0
70
128
71
23
72
25
73
24
0
VERTEX
8
OBJECT__29
10
0
20
0
30
0
70
128
71
26
72
27
73
28
0
VERTEX
8
OBJECT__29
10
0
20
0
30
0
70
128
71
28
72
23
73
26
0
VERTEX
8
OBJECT__29
10
0
20
0
30
0
70
128
71
28
72
25
73
23
0
VERTEX
8
OBJECT__29
10
0
20
0
30
0
70
128
71
24
72
22
73
20
0
VERTEX
8
OBJECT__29
10
0
20
0
30
0
70
128
71
21
72
19
73
17
0
VERTEX
8
OBJECT__29
10
0
20
0
30
0
70
128
71
18
72
14
73
13
0
VERTEX
8
OBJECT__29
10
0
20
0
30
0
70
128
71
16
72
11
73
10
0
VERTEX
8
OBJECT__29
10
0
20
0
30
0
70
128
71
12
72
9
73
6
0
VERTEX
8
OBJECT__29
10
0
20
0
30
0
70
128
71
8
72
4
73
1
0
VERTEX
8
OBJECT__29
10
0
20
0
30
0
70
128
71
3
72
29
73
5
0
SEQEND
8
OBJECT__29
0
POLYLINE
8
OBJECT__30
66
1
70
64
71
19
72
17
62
253
0
VERTEX
8
OBJECT__30
10
-18.500000
20
191.647995
30
-534.242004
70
192
0
VERTEX
8
OBJECT__30
10
-18.500000
20
201.210007
30
-534.018005
70
192
0
VERTEX
8
OBJECT__30
10
-18.500000
20
190.270996
30
-547.908020
70
192
0
VERTEX
8
OBJECT__30
10
-18.500000
20
213.481003
30
-589.666992
70
192
0
VERTEX
8
OBJECT__30
10
-18.500000
20
191.647995
30
-579.254028
70
192
0
VERTEX
8
OBJECT__30
10
-18.500000
20
201.210007
30
-579.476990
70
192
0
VERTEX
8
OBJECT__30
10
-18.500000
20
182.783005
30
-556.747986
70
192
0
VERTEX
8
OBJECT__30
10
-18.500000
20
190.270996
30
-565.588013
70
192
0
VERTEX
8
OBJECT__30
10
-18.500000
20
213.481003
30
-523.828003
70
192
0
VERTEX
8
OBJECT__30
10
-18.500000
20
218.397003
30
-529.875000
70
192
0
VERTEX
8
OBJECT__30
10
-18.500000
20
236.550995
30
-531.101990
70
192
0
VERTEX
8
OBJECT__30
10
-18.500000
20
234.462997
30
-537.252991
70
192
0
VERTEX
8
OBJECT__30
10
-18.500000
20
236.550995
30
-582.393982
70
192
0
VERTEX
8
OBJECT__30
10
-18.500000
20
218.397003
30
-583.620972
70
192
0
VERTEX
8
OBJECT__30
10
-18.500000
20
248.462006
30
-552.155029
70
192
0
VERTEX
8
OBJECT__30
10
-18.500000
20
242.520004
30
-552.989990
70
192
0
VERTEX
8
OBJECT__30
10
-18.500000
20
248.462006
30
-561.340027
70
192
0
VERTEX
8
OBJECT__30
10
-18.500000
20
234.462997
30
-576.242004
70
192
0
VERTEX
8
OBJECT__30
10
-18.500000
20
242.520004
30
-560.505005
70
192
0
VERTEX
8
OBJECT__30
10
0
20
0
30
0
70
128
71
1
72
2
73
3
0
VERTEX
8
OBJECT__30
10
0
20
0
30
0
70
128
71
4
72
5
73
6
0
VERTEX
8
OBJECT__30
10
0
20
0
30
0
70
128
71
5
72
7
73
8
0
VERTEX
8
OBJECT__30
10
0
20
0
30
0
70
128
71
3
72
7
73
1
0
VERTEX
8
OBJECT__30
10
0
20
0
30
0
70
128
71
9
72
10
73
2
0
VERTEX
8
OBJECT__30
10
0
20
0
30
0
70
128
71
8
72
6
73
5
0
VERTEX
8
OBJECT__30
10
0
20
0
30
0
70
128
71
2
72
1
73
9
0
VERTEX
8
OBJECT__30
10
0
20
0
30
0
70
128
71
3
72
8
73
7
0
VERTEX
8
OBJECT__30
10
0
20
0
30
0
70
128
71
11
72
12
73
10
0
VERTEX
8
OBJECT__30
10
0
20
0
30
0
70
128
71
13
72
4
73
14
0
VERTEX
8
OBJECT__30
10
0
20
0
30
0
70
128
71
10
72
9
73
11
0
VERTEX
8
OBJECT__30
10
0
20
0
30
0
70
128
71
6
72
14
73
4
0
VERTEX
8
OBJECT__30
10
0
20
0
30
0
70
128
71
15
72
16
73
12
0
VERTEX
8
OBJECT__30
10
0
20
0
30
0
70
128
71
17
72
13
73
18
0
VERTEX
8
OBJECT__30
10
0
20
0
30
0
70
128
71
12
72
11
73
15
0
VERTEX
8
OBJECT__30
10
0
20
0
30
0
70
128
71
14
72
18
73
13
0
VERTEX
8
OBJECT__30
10
0
20
0
30
0
70
128
71
18
72
19
73
17
0
SEQEND
8
OBJECT__30
0
POLYLINE
8
OBJECT__31
66
1
70
64
71
44
72
42
62
253
0
VERTEX
8
OBJECT__31
10
-9.500000
20
246.072006
30
-561.005005
70
192
0
VERTEX
8
OBJECT__31
10
-11.051000
20
245.186996
30
-560.880005
70
192
0
VERTEX
8
OBJECT__31
10
-11.051000
20
243.404999
30
-560.630005
70
192
0
VERTEX
8
OBJECT__31
10
-9.500000
20
242.520004
30
-560.505005
70
192
0
VERTEX
8
OBJECT__31
10
-7.949000
20
243.404999
30
-560.630005
70
192
0
VERTEX
8
OBJECT__31
10
-6.551000
20
245.186996
30
-560.880005
70
192
0
VERTEX
8
OBJECT__31
10
-7.949000
20
245.186996
30
-560.880005
70
192
0
VERTEX
8
OBJECT__31
10
-12.449000
20
243.404999
30
-560.630005
70
192
0
VERTEX
8
OBJECT__31
10
-13.879000
20
242.524002
30
-560.505981
70
192
0
VERTEX
8
OBJECT__31
10
-14.550000
20
245.985992
30
-560.992004
70
192
0
VERTEX
8
OBJECT__31
10
-15.416000
20
245.384995
30
-560.908020
70
192
0
VERTEX
8
OBJECT__31
10
-13.530000
20
245.985992
30
-560.992004
70
192
0
VERTEX
8
OBJECT__31
10
-12.449000
20
245.186996
30
-560.880005
70
192
0
VERTEX
8
OBJECT__31
10
-16.910000
20
243.207001
30
-560.601990
70
192
0
VERTEX
8
OBJECT__31
10
-15.416000
20
243.207001
30
-560.601990
70
192
0
VERTEX
8
OBJECT__31
10
-6.551000
20
243.404999
30
-560.630005
70
192
0
VERTEX
8
OBJECT__31
10
-5.470000
20
245.985992
30
-560.992004
70
192
0
VERTEX
8
OBJECT__31
10
-5.486000
20
246.005005
30
-560.994995
70
192
0
VERTEX
8
OBJECT__31
10
-5.121000
20
242.524002
30
-560.505981
70
192
0
VERTEX
8
OBJECT__31
10
-4.450000
20
245.985992
30
-560.992004
70
192
0
VERTEX
8
OBJECT__31
10
-3.584000
20
243.207001
30
-560.601990
70
192
0
VERTEX
8
OBJECT__31
10
-3.584000
20
245.384995
30
-560.908020
70
192
0
VERTEX
8
OBJECT__31
10
-2.090000
20
243.207001
30
-560.601990
70
192
0
VERTEX
8
OBJECT__31
10
-2.090000
20
245.645996
30
-560.945007
70
192
0
VERTEX
8
OBJECT__31
10
-13.514000
20
246.005005
30
-560.994995
70
192
0
VERTEX
8
OBJECT__31
10
-18.500000
20
248.462006
30
-561.340027
70
192
0
VERTEX
8
OBJECT__31
10
-16.910000
20
245.645996
30
-560.945007
70
192
0
VERTEX
8
OBJECT__31
10
-5.500000
20
248.462006
30
-561.340027
70
192
0
VERTEX
8
OBJECT__31
10
-4.698000
20
246.975998
30
-561.132019
70
192
0
VERTEX
8
OBJECT__31
10
-2.600000
20
246.975998
30
-561.132019
70
192
0
VERTEX
8
OBJECT__31
10
-5.500000
20
247.205002
30
-561.164001
70
192
0
VERTEX
8
OBJECT__31
10
-5.448000
20
247.175003
30
-561.159973
70
192
0
VERTEX
8
OBJECT__31
10
-0.500000
20
248.462006
30
-561.340027
70
192
0
VERTEX
8
OBJECT__31
10
-2.090000
20
246.975998
30
-561.132019
70
192
0
VERTEX
8
OBJECT__31
10
-13.500000
20
248.462006
30
-561.340027
70
192
0
VERTEX
8
OBJECT__31
10
-16.400000
20
246.975998
30
-561.132019
70
192
0
VERTEX
8
OBJECT__31
10
-14.302000
20
246.975998
30
-561.132019
70
192
0
VERTEX
8
OBJECT__31
10
-0.500000
20
242.520004
30
-560.505005
70
192
0
VERTEX
8
OBJECT__31
10
-13.552000
20
247.175003
30
-561.159973
70
192
0
VERTEX
8
OBJECT__31
10
-16.910000
20
246.975998
30
-561.132019
70
192
0
VERTEX
8
OBJECT__31
10
-18.500000
20
242.520004
30
-560.505005
70
192
0
VERTEX
8
OBJECT__31
10
-16.910000
20
242.520004
30
-560.505005
70
192
0
VERTEX
8
OBJECT__31
10
-2.090000
20
242.520004
30
-560.505005
70
192
0
VERTEX
8
OBJECT__31
10
-13.500000
20
247.205002
30
-561.164001
70
192
0
VERTEX
8
OBJECT__31
10
0
20
0
30
0
70
128
71
1
72
2
73
3
0
VERTEX
8
OBJECT__31
10
0
20
0
30
0
70
128
71
1
72
4
73
5
0
VERTEX
8
OBJECT__31
10
0
20
0
30
0
70
128
71
6
72
7
73
5
0
VERTEX
8
OBJECT__31
10
0
20
0
30
0
70
128
71
5
72
7
73
1
0
VERTEX
8
OBJECT__31
10
0
20
0
30
0
70
128
71
3
72
4
73
1
0
VERTEX
8
OBJECT__31
10
0
20
0
30
0
70
128
71
8
72
3
73
2
0
VERTEX
8
OBJECT__31
10
0
20
0
30
0
70
128
71
9
72
10
73
11
0
VERTEX
8
OBJECT__31
10
0
20
0
30
0
70
128
71
9
72
8
73
12
0
VERTEX
8
OBJECT__31
10
0
20
0
30
0
70
128
71
12
72
8
73
13
0
VERTEX
8
OBJECT__31
10
0
20
0
30
0
70
128
71
2
72
13
73
8
0
VERTEX
8
OBJECT__31
10
0
20
0
30
0
70
128
71
14
72
15
73
11
0
VERTEX
8
OBJECT__31
10
0
20
0
30
0
70
128
71
12
72
10
73
9
0
VERTEX
8
OBJECT__31
10
0
20
0
30
0
70
128
71
5
72
16
73
6
0
VERTEX
8
OBJECT__31
10
0
20
0
30
0
70
128
71
17
72
18
73
6
0
VERTEX
8
OBJECT__31
10
0
20
0
30
0
70
128
71
19
72
20
73
17
0
VERTEX
8
OBJECT__31
10
0
20
0
30
0
70
128
71
19
72
21
73
22
0
VERTEX
8
OBJECT__31
10
0
20
0
30
0
70
128
71
11
72
15
73
9
0
VERTEX
8
OBJECT__31
10
0
20
0
30
0
70
128
71
6
72
16
73
17
0
VERTEX
8
OBJECT__31
10
0
20
0
30
0
70
128
71
22
72
20
73
19
0
VERTEX
8
OBJECT__31
10
0
20
0
30
0
70
128
71
23
72
24
73
22
0
VERTEX
8
OBJECT__31
10
0
20
0
30
0
70
128
71
13
72
25
73
12
0
VERTEX
8
OBJECT__31
10
0
20
0
30
0
70
128
71
22
72
21
73
23
0
VERTEX
8
OBJECT__31
10
0
20
0
30
0
70
128
71
26
72
14
73
27
0
VERTEX
8
OBJECT__31
10
0
20
0
30
0
70
128
71
17
72
16
73
19
0
VERTEX
8
OBJECT__31
10
0
20
0
30
0
70
128
71
28
72
29
73
30
0
VERTEX
8
OBJECT__31
10
0
20
0
30
0
70
128
71
28
72
31
73
32
0
VERTEX
8
OBJECT__31
10
0
20
0
30
0
70
128
71
11
72
27
73
14
0
VERTEX
8
OBJECT__31
10
0
20
0
30
0
70
128
71
33
72
34
73
24
0
VERTEX
8
OBJECT__31
10
0
20
0
30
0
70
128
71
32
72
29
73
28
0
VERTEX
8
OBJECT__31
10
0
20
0
30
0
70
128
71
35
72
26
73
36
0
VERTEX
8
OBJECT__31
10
0
20
0
30
0
70
128
71
24
72
23
73
33
0
VERTEX
8
OBJECT__31
10
0
20
0
30
0
70
128
71
30
72
33
73
28
0
VERTEX
8
OBJECT__31
10
0
20
0
30
0
70
128
71
36
72
37
73
35
0
VERTEX
8
OBJECT__31
10
0
20
0
30
0
70
128
71
38
72
33
73
23
0
VERTEX
8
OBJECT__31
10
0
20
0
30
0
70
128
71
30
72
34
73
33
0
VERTEX
8
OBJECT__31
10
0
20
0
30
0
70
128
71
37
72
39
73
35
0
VERTEX
8
OBJECT__31
10
0
20
0
30
0
70
128
71
27
72
40
73
26
0
VERTEX
8
OBJECT__31
10
0
20
0
30
0
70
128
71
41
72
42
73
14
0
VERTEX
8
OBJECT__31
10
0
20
0
30
0
70
128
71
26
72
40
73
36
0
VERTEX
8
OBJECT__31
10
0
20
0
30
0
70
128
71
14
72
26
73
41
0
VERTEX
8
OBJECT__31
10
0
20
0
30
0
70
128
71
23
72
43
73
38
0
VERTEX
8
OBJECT__31
10
0
20
0
30
0
70
128
71
39
72
44
73
35
0
SEQEND
8
OBJECT__31
0
POLYLINE
8
OBJECT__32
66
1
70
64
71
10
72
8
62
253
0
VERTEX
8
OBJECT__32
10
-2.600000
20
247.259995
30
-557.943970
70
192
0
VERTEX
8
OBJECT__32
10
-4.762000
20
247.205994
30
-558.945007
70
192
0
VERTEX
8
OBJECT__32
10
-4.698000
20
247.231995
30
-558.531982
70
192
0
VERTEX
8
OBJECT__32
10
-5.094000
20
247.167007
30
-559.452026
70
192
0
VERTEX
8
OBJECT__32
10
-5.094000
20
247.167999
30
-559.442993
70
192
0
VERTEX
8
OBJECT__32
10
-5.100000
20
247.167007
30
-559.447998
70
192
0
VERTEX
8
OBJECT__32
10
-2.600000
20
246.975998
30
-561.132019
70
192
0
VERTEX
8
OBJECT__32
10
-4.698000
20
247.078995
30
-560.330017
70
192
0
VERTEX
8
OBJECT__32
10
-4.698000
20
246.975998
30
-561.132019
70
192
0
VERTEX
8
OBJECT__32
10
-4.698000
20
247.259995
30
-557.943970
70
192
0
VERTEX
8
OBJECT__32
10
0
20
0
30
0
70
128
71
1
72
2
73
3
0
VERTEX
8
OBJECT__32
10
0
20
0
30
0
70
128
71
4
72
5
73
2
0
VERTEX
8
OBJECT__32
10
0
20
0
30
0
70
128
71
4
72
6
73
5
0
VERTEX
8
OBJECT__32
10
0
20
0
30
0
70
128
71
2
72
1
73
4
0
VERTEX
8
OBJECT__32
10
0
20
0
30
0
70
128
71
1
72
7
73
8
0
VERTEX
8
OBJECT__32
10
0
20
0
30
0
70
128
71
7
72
9
73
8
0
VERTEX
8
OBJECT__32
10
0
20
0
30
0
70
128
71
8
72
4
73
1
0
VERTEX
8
OBJECT__32
10
0
20
0
30
0
70
128
71
3
72
10
73
1
0
SEQEND
8
OBJECT__32
0
POLYLINE
8
OBJECT__33
66
1
70
64
71
10
72
8
62
253
0
VERTEX
8
OBJECT__33
10
-16.400000
20
246.975998
30
-561.132019
70
192
0
VERTEX
8
OBJECT__33
10
-14.241000
20
247.119995
30
-559.945007
70
192
0
VERTEX
8
OBJECT__33
10
-14.302000
20
247.078995
30
-560.330017
70
192
0
VERTEX
8
OBJECT__33
10
-13.906000
20
247.167999
30
-559.442993
70
192
0
VERTEX
8
OBJECT__33
10
-13.906000
20
247.167007
30
-559.452026
70
192
0
VERTEX
8
OBJECT__33
10
-13.900000
20
247.167007
30
-559.447998
70
192
0
VERTEX
8
OBJECT__33
10
-16.400000
20
247.259995
30
-557.943970
70
192
0
VERTEX
8
OBJECT__33
10
-14.302000
20
247.231995
30
-558.531982
70
192
0
VERTEX
8
OBJECT__33
10
-14.302000
20
247.259995
30
-557.943970
70
192
0
VERTEX
8
OBJECT__33
10
-14.302000
20
246.975998
30
-561.132019
70
192
0
VERTEX
8
OBJECT__33
10
0
20
0
30
0
70
128
71
1
72
2
73
3
0
VERTEX
8
OBJECT__33
10
0
20
0
30
0
70
128
71
4
72
5
73
2
0
VERTEX
8
OBJECT__33
10
0
20
0
30
0
70
128
71
4
72
6
73
5
0
VERTEX
8
OBJECT__33
10
0
20
0
30
0
70
128
71
2
72
1
73
4
0
VERTEX
8
OBJECT__33
10
0
20
0
30
0
70
128
71
1
72
7
73
8
0
VERTEX
8
OBJECT__33
10
0
20
0
30
0
70
128
71
7
72
9
73
8
0
VERTEX
8
OBJECT__33
10
0
20
0
30
0
70
128
71
8
72
4
73
1
0
VERTEX
8
OBJECT__33
10
0
20
0
30
0
70
128
71
3
72
10
73
1
0
SEQEND
8
OBJECT__33
0
POLYLINE
8
OBJECT__34
66
1
70
64
71
44
72
42
62
253
0
VERTEX
8
OBJECT__34
10
-9.500000
20
246.072006
30
-552.491028
70
192
0
VERTEX
8
OBJECT__34
10
-7.949000
20
245.186996
30
-552.614990
70
192
0
VERTEX
8
OBJECT__34
10
-7.949000
20
243.404999
30
-552.866028
70
192
0
VERTEX
8
OBJECT__34
10
-9.500000
20
242.520004
30
-552.989990
70
192
0
VERTEX
8
OBJECT__34
10
-11.051000
20
243.404999
30
-552.866028
70
192
0
VERTEX
8
OBJECT__34
10
-12.449000
20
245.186996
30
-552.614990
70
192
0
VERTEX
8
OBJECT__34
10
-11.051000
20
245.186996
30
-552.614990
70
192
0
VERTEX
8
OBJECT__34
10
-6.551000
20
243.404999
30
-552.866028
70
192
0
VERTEX
8
OBJECT__34
10
-5.121000
20
242.524002
30
-552.989014
70
192
0
VERTEX
8
OBJECT__34
10
-4.450000
20
245.985992
30
-552.502991
70
192
0
VERTEX
8
OBJECT__34
10
-3.584000
20
245.384995
30
-552.586975
70
192
0
VERTEX
8
OBJECT__34
10
-5.470000
20
245.985992
30
-552.502991
70
192
0
VERTEX
8
OBJECT__34
10
-6.551000
20
245.186996
30
-552.614990
70
192
0
VERTEX
8
OBJECT__34
10
-13.530000
20
245.985992
30
-552.502991
70
192
0
VERTEX
8
OBJECT__34
10
-13.514000
20
246.005005
30
-552.500000
70
192
0
VERTEX
8
OBJECT__34
10
-2.090000
20
243.207001
30
-552.893982
70
192
0
VERTEX
8
OBJECT__34
10
-3.584000
20
243.207001
30
-552.893982
70
192
0
VERTEX
8
OBJECT__34
10
-12.449000
20
243.404999
30
-552.866028
70
192
0
VERTEX
8
OBJECT__34
10
-13.879000
20
242.524002
30
-552.989014
70
192
0
VERTEX
8
OBJECT__34
10
-14.550000
20
245.985992
30
-552.502991
70
192
0
VERTEX
8
OBJECT__34
10
-15.416000
20
243.207001
30
-552.893982
70
192
0
VERTEX
8
OBJECT__34
10
-15.416000
20
245.384995
30
-552.586975
70
192
0
VERTEX
8
OBJECT__34
10
-16.910000
20
243.207001
30
-552.893982
70
192
0
VERTEX
8
OBJECT__34
10
-16.910000
20
245.645996
30
-552.551025
70
192
0
VERTEX
8
OBJECT__34
10
-5.486000
20
246.005005
30
-552.500000
70
192
0
VERTEX
8
OBJECT__34
10
-18.500000
20
248.462006
30
-552.155029
70
192
0
VERTEX
8
OBJECT__34
10
-16.910000
20
246.975998
30
-552.364014
70
192
0
VERTEX
8
OBJECT__34
10
-2.100000
20
247.472000
30
-552.294006
70
192
0
VERTEX
8
OBJECT__34
10
-0.500000
20
248.462006
30
-552.155029
70
192
0
VERTEX
8
OBJECT__34
10
-2.090000
20
246.975998
30
-552.364014
70
192
0
VERTEX
8
OBJECT__34
10
-2.090000
20
245.645996
30
-552.551025
70
192
0
VERTEX
8
OBJECT__34
10
-5.500000
20
248.462006
30
-552.155029
70
192
0
VERTEX
8
OBJECT__34
10
-2.600000
20
247.966995
30
-552.224976
70
192
0
VERTEX
8
OBJECT__34
10
-2.100000
20
246.975998
30
-552.364014
70
192
0
VERTEX
8
OBJECT__34
10
-0.500000
20
242.520004
30
-552.989990
70
192
0
VERTEX
8
OBJECT__34
10
-2.090000
20
242.520004
30
-552.989990
70
192
0
VERTEX
8
OBJECT__34
10
-16.900000
20
247.472000
30
-552.294006
70
192
0
VERTEX
8
OBJECT__34
10
-16.900000
20
246.975998
30
-552.364014
70
192
0
VERTEX
8
OBJECT__34
10
-16.400000
20
247.966995
30
-552.224976
70
192
0
VERTEX
8
OBJECT__34
10
-13.500000
20
248.462006
30
-552.155029
70
192
0
VERTEX
8
OBJECT__34
10
-13.500000
20
247.966995
30
-552.224976
70
192
0
VERTEX
8
OBJECT__34
10
-18.500000
20
242.520004
30
-552.989990
70
192
0
VERTEX
8
OBJECT__34
10
-5.500000
20
247.966995
30
-552.224976
70
192
0
VERTEX
8
OBJECT__34
10
-16.910000
20
242.520004
30
-552.989990
70
192
0
VERTEX
8
OBJECT__34
10
0
20
0
30
0
70
128
71
1
72
2
73
3
0
VERTEX
8
OBJECT__34
10
0
20
0
30
0
70
128
71
1
72
4
73
5
0
VERTEX
8
OBJECT__34
10
0
20
0
30
0
70
128
71
6
72
7
73
5
0
VERTEX
8
OBJECT__34
10
0
20
0
30
0
70
128
71
5
72
7
73
1
0
VERTEX
8
OBJECT__34
10
0
20
0
30
0
70
128
71
3
72
4
73
1
0
VERTEX
8
OBJECT__34
10
0
20
0
30
0
70
128
71
8
72
3
73
2
0
VERTEX
8
OBJECT__34
10
0
20
0
30
0
70
128
71
9
72
10
73
11
0
VERTEX
8
OBJECT__34
10
0
20
0
30
0
70
128
71
9
72
8
73
12
0
VERTEX
8
OBJECT__34
10
0
20
0
30
0
70
128
71
2
72
13
73
8
0
VERTEX
8
OBJECT__34
10
0
20
0
30
0
70
128
71
14
72
15
73
6
0
VERTEX
8
OBJECT__34
10
0
20
0
30
0
70
128
71
16
72
17
73
11
0
VERTEX
8
OBJECT__34
10
0
20
0
30
0
70
128
71
12
72
10
73
9
0
VERTEX
8
OBJECT__34
10
0
20
0
30
0
70
128
71
12
72
8
73
13
0
VERTEX
8
OBJECT__34
10
0
20
0
30
0
70
128
71
6
72
18
73
14
0
VERTEX
8
OBJECT__34
10
0
20
0
30
0
70
128
71
19
72
20
73
14
0
VERTEX
8
OBJECT__34
10
0
20
0
30
0
70
128
71
19
72
21
73
22
0
VERTEX
8
OBJECT__34
10
0
20
0
30
0
70
128
71
11
72
17
73
9
0
VERTEX
8
OBJECT__34
10
0
20
0
30
0
70
128
71
5
72
18
73
6
0
VERTEX
8
OBJECT__34
10
0
20
0
30
0
70
128
71
22
72
20
73
19
0
VERTEX
8
OBJECT__34
10
0
20
0
30
0
70
128
71
23
72
24
73
22
0
VERTEX
8
OBJECT__34
10
0
20
0
30
0
70
128
71
13
72
25
73
12
0
VERTEX
8
OBJECT__34
10
0
20
0
30
0
70
128
71
22
72
21
73
23
0
VERTEX
8
OBJECT__34
10
0
20
0
30
0
70
128
71
14
72
18
73
19
0
VERTEX
8
OBJECT__34
10
0
20
0
30
0
70
128
71
26
72
27
73
24
0
VERTEX
8
OBJECT__34
10
0
20
0
30
0
70
128
71
28
72
29
73
30
0
VERTEX
8
OBJECT__34
10
0
20
0
30
0
70
128
71
29
72
16
73
31
0
VERTEX
8
OBJECT__34
10
0
20
0
30
0
70
128
71
24
72
23
73
26
0
VERTEX
8
OBJECT__34
10
0
20
0
30
0
70
128
71
32
72
29
73
33
0
VERTEX
8
OBJECT__34
10
0
20
0
30
0
70
128
71
30
72
34
73
28
0
VERTEX
8
OBJECT__34
10
0
20
0
30
0
70
128
71
11
72
31
73
16
0
VERTEX
8
OBJECT__34
10
0
20
0
30
0
70
128
71
35
72
36
73
16
0
VERTEX
8
OBJECT__34
10
0
20
0
30
0
70
128
71
37
72
38
73
27
0
VERTEX
8
OBJECT__34
10
0
20
0
30
0
70
128
71
28
72
33
73
29
0
VERTEX
8
OBJECT__34
10
0
20
0
30
0
70
128
71
16
72
29
73
35
0
VERTEX
8
OBJECT__34
10
0
20
0
30
0
70
128
71
26
72
39
73
37
0
VERTEX
8
OBJECT__34
10
0
20
0
30
0
70
128
71
40
72
41
73
39
0
VERTEX
8
OBJECT__34
10
0
20
0
30
0
70
128
71
31
72
30
73
29
0
VERTEX
8
OBJECT__34
10
0
20
0
30
0
70
128
71
39
72
26
73
40
0
VERTEX
8
OBJECT__34
10
0
20
0
30
0
70
128
71
42
72
26
73
23
0
VERTEX
8
OBJECT__34
10
0
20
0
30
0
70
128
71
27
72
26
73
37
0
VERTEX
8
OBJECT__34
10
0
20
0
30
0
70
128
71
33
72
43
73
32
0
VERTEX
8
OBJECT__34
10
0
20
0
30
0
70
128
71
23
72
44
73
42
0
SEQEND
8
OBJECT__34
0
POLYLINE
8
OBJECT__35
66
1
70
64
71
14
72
12
62
253
0
VERTEX
8
OBJECT__35
10
-2.100000
20
249.205994
30
-558.018005
70
192
0
VERTEX
8
OBJECT__35
10
-2.600000
20
247.259995
30
-557.943970
70
192
0
VERTEX
8
OBJECT__35
10
-4.698000
20
247.259995
30
-557.943970
70
192
0
VERTEX
8
OBJECT__35
10
-16.900000
20
249.205994
30
-558.018005
70
192
0
VERTEX
8
OBJECT__35
10
-12.516000
20
248.059006
30
-557.973999
70
192
0
VERTEX
8
OBJECT__35
10
-13.552000
20
247.460999
30
-557.950989
70
192
0
VERTEX
8
OBJECT__35
10
-5.448000
20
247.460999
30
-557.950989
70
192
0
VERTEX
8
OBJECT__35
10
-14.302000
20
247.259995
30
-557.943970
70
192
0
VERTEX
8
OBJECT__35
10
-7.234000
20
248.259995
30
-557.981995
70
192
0
VERTEX
8
OBJECT__35
10
-6.484000
20
248.059006
30
-557.973999
70
192
0
VERTEX
8
OBJECT__35
10
-11.766000
20
248.259995
30
-557.981995
70
192
0
VERTEX
8
OBJECT__35
10
-16.400000
20
247.259995
30
-557.943970
70
192
0
VERTEX
8
OBJECT__35
10
-2.100000
20
246.761002
30
-557.924988
70
192
0
VERTEX
8
OBJECT__35
10
-16.900000
20
246.761002
30
-557.924988
70
192
0
VERTEX
8
OBJECT__35
10
0
20
0
30
0
70
128
71
1
72
2
73
3
0
VERTEX
8
OBJECT__35
10
0
20
0
30
0
70
128
71
4
72
5
73
6
0
VERTEX
8
OBJECT__35
10
0
20
0
30
0
70
128
71
3
72
7
73
1
0
VERTEX
8
OBJECT__35
10
0
20
0
30
0
70
128
71
6
72
8
73
4
0
VERTEX
8
OBJECT__35
10
0
20
0
30
0
70
128
71
4
72
1
73
9
0
VERTEX
8
OBJECT__35
10
0
20
0
30
0
70
128
71
7
72
10
73
1
0
VERTEX
8
OBJECT__35
10
0
20
0
30
0
70
128
71
4
72
11
73
5
0
VERTEX
8
OBJECT__35
10
0
20
0
30
0
70
128
71
10
72
9
73
1
0
VERTEX
8
OBJECT__35
10
0
20
0
30
0
70
128
71
9
72
11
73
4
0
VERTEX
8
OBJECT__35
10
0
20
0
30
0
70
128
71
8
72
12
73
4
0
VERTEX
8
OBJECT__35
10
0
20
0
30
0
70
128
71
1
72
13
73
2
0
VERTEX
8
OBJECT__35
10
0
20
0
30
0
70
128
71
12
72
14
73
4
0
SEQEND
8
OBJECT__35
0
POLYLINE
8
OBJECT__36
66
1
70
64
71
9
72
9
62
253
0
VERTEX
8
OBJECT__36
10
-2.100000
20
249.205994
30
-558.018005
70
192
0
VERTEX
8
OBJECT__36
10
-9.500000
20
251.645004
30
-558.018005
70
192
0
VERTEX
8
OBJECT__36
10
-6.900000
20
254.244995
30
-558.018005
70
192
0
VERTEX
8
OBJECT__36
10
-2.100000
20
256.673004
30
-558.018005
70
192
0
VERTEX
8
OBJECT__36
10
-9.500000
20
256.845001
30
-558.018005
70
192
0
VERTEX
8
OBJECT__36
10
-16.900000
20
249.205994
30
-558.018005
70
192
0
VERTEX
8
OBJECT__36
10
-16.900000
20
256.673004
30
-558.018005
70
192
0
VERTEX
8
OBJECT__36
10
-12.100000
20
254.244995
30
-558.018005
70
192
0
VERTEX
8
OBJECT__36
10
-9.500000
20
258.782990
30
-558.018005
70
192
0
VERTEX
8
OBJECT__36
10
0
20
0
30
0
70
128
71
1
72
2
73
3
0
VERTEX
8
OBJECT__36
10
0
20
0
30
0
70
128
71
4
72
3
73
5
0
VERTEX
8
OBJECT__36
10
0
20
0
30
0
70
128
71
1
72
6
73
2
0
VERTEX
8
OBJECT__36
10
0
20
0
30
0
70
128
71
6
72
7
73
8
0
VERTEX
8
OBJECT__36
10
0
20
0
30
0
70
128
71
7
72
9
73
5
0
VERTEX
8
OBJECT__36
10
0
20
0
30
0
70
128
71
3
72
4
73
1
0
VERTEX
8
OBJECT__36
10
0
20
0
30
0
70
128
71
5
72
8
73
7
0
VERTEX
8
OBJECT__36
10
0
20
0
30
0
70
128
71
8
72
2
73
6
0
VERTEX
8
OBJECT__36
10
0
20
0
30
0
70
128
71
5
72
9
73
4
0
SEQEND
8
OBJECT__36
0
POLYLINE
8
OBJECT__37
66
1
70
64
71
11
72
10
62
253
0
VERTEX
8
OBJECT__37
10
-16.900000
20
257.010010
30
-557.825989
70
192
0
VERTEX
8
OBJECT__37
10
-9.500000
20
259.136993
30
-557.870972
70
192
0
VERTEX
8
OBJECT__37
10
-9.500000
20
258.782990
30
-558.018005
70
192
0
VERTEX
8
OBJECT__37
10
-16.900000
20
256.673004
30
-558.018005
70
192
0
VERTEX
8
OBJECT__37
10
-16.900000
20
256.881989
30
-557.984985
70
192
0
VERTEX
8
OBJECT__37
10
-16.900000
20
257.257996
30
-557.518005
70
192
0
VERTEX
8
OBJECT__37
10
-2.100000
20
257.257996
30
-557.518005
70
192
0
VERTEX
8
OBJECT__37
10
-2.100000
20
257.256012
30
-557.557007
70
192
0
VERTEX
8
OBJECT__37
10
-9.500000
20
259.282990
30
-557.518005
70
192
0
VERTEX
8
OBJECT__37
10
-2.100000
20
256.980988
30
-557.775024
70
192
0
VERTEX
8
OBJECT__37
10
-2.100000
20
256.673004
30
-558.018005
70
192
0
VERTEX
8
OBJECT__37
10
0
20
0
30
0
70
128
71
1
72
2
73
3
0
VERTEX
8
OBJECT__37
10
0
20
0
30
0
70
128
71
3
72
4
73
5
0
VERTEX
8
OBJECT__37
10
0
20
0
30
0
70
128
71
2
72
1
73
6
0
VERTEX
8
OBJECT__37
10
0
20
0
30
0
70
128
71
7
72
8
73
2
0
VERTEX
8
OBJECT__37
10
0
20
0
30
0
70
128
71
2
72
9
73
7
0
VERTEX
8
OBJECT__37
10
0
20
0
30
0
70
128
71
10
72
11
73
3
0
VERTEX
8
OBJECT__37
10
0
20
0
30
0
70
128
71
3
72
2
73
10
0
VERTEX
8
OBJECT__37
10
0
20
0
30
0
70
128
71
8
72
10
73
2
0
VERTEX
8
OBJECT__37
10
0
20
0
30
0
70
128
71
6
72
9
73
2
0
VERTEX
8
OBJECT__37
10
0
20
0
30
0
70
128
71
3
72
5
73
1
0
SEQEND
8
OBJECT__37
0
POLYLINE
8
OBJECT__38
66
1
70
64
71
54
72
52
62
253
0
VERTEX
8
OBJECT__38
10
-16.900000
20
201.563995
30
-584.294006
70
192
0
VERTEX
8
OBJECT__38
10
-16.900000
20
194.345993
30
-579.140991
70
192
0
VERTEX
8
OBJECT__38
10
-16.900000
20
197.557999
30
-581.203979
70
192
0
VERTEX
8
OBJECT__38
10
-16.900000
20
188.882996
30
-572.156006
70
192
0
VERTEX
8
OBJECT__38
10
-16.900000
20
185.621994
30
-563.909973
70
192
0
VERTEX
8
OBJECT__38
10
-16.900000
20
186.738007
30
-566.056030
70
192
0
VERTEX
8
OBJECT__38
10
-16.900000
20
184.828003
30
-555.077026
70
192
0
VERTEX
8
OBJECT__38
10
-16.900000
20
185.283005
30
-556.747986
70
192
0
VERTEX
8
OBJECT__38
10
-16.900000
20
190.964005
30
-539.020020
70
192
0
VERTEX
8
OBJECT__38
10
-16.900000
20
186.682999
30
-545.713013
70
192
0
VERTEX
8
OBJECT__38
10
-16.900000
20
186.682999
30
-544.689026
70
192
0
VERTEX
8
OBJECT__38
10
-16.900000
20
186.738007
30
-547.440002
70
192
0
VERTEX
8
OBJECT__38
10
-16.900000
20
186.567993
30
-546.382019
70
192
0
VERTEX
8
OBJECT__38
10
-16.900000
20
197.557999
30
-532.291016
70
192
0
VERTEX
8
OBJECT__38
10
-16.900000
20
190.778000
30
-537.590027
70
192
0
VERTEX
8
OBJECT__38
10
-16.900000
20
196.567001
30
-531.788025
70
192
0
VERTEX
8
OBJECT__38
10
-16.900000
20
203.656006
30
-527.676025
70
192
0
VERTEX
8
OBJECT__38
10
-16.900000
20
241.154999
30
-574.559021
70
192
0
VERTEX
8
OBJECT__38
10
-16.900000
20
235.074005
30
-581.013977
70
192
0
VERTEX
8
OBJECT__38
10
-16.900000
20
236.688004
30
-578.956970
70
192
0
VERTEX
8
OBJECT__38
10
-16.900000
20
205.891006
30
-585.598999
70
192
0
VERTEX
8
OBJECT__38
10
-16.900000
20
190.964005
30
-574.476013
70
192
0
VERTEX
8
OBJECT__38
10
-16.900000
20
205.891006
30
-527.895996
70
192
0
VERTEX
8
OBJECT__38
10
-16.900000
20
233.007004
30
-581.919006
70
192
0
VERTEX
8
OBJECT__38
10
-16.900000
20
227.414993
30
-585.482971
70
192
0
VERTEX
8
OBJECT__38
10
-16.900000
20
224.503006
30
-585.973999
70
192
0
VERTEX
8
OBJECT__38
10
-16.900000
20
209.945007
30
-587.192993
70
192
0
VERTEX
8
OBJECT__38
10
-16.900000
20
215.167999
30
-587.241028
70
192
0
VERTEX
8
OBJECT__38
10
-16.900000
20
218.802994
30
-587.599976
70
192
0
VERTEX
8
OBJECT__38
10
-16.900000
20
257.010010
30
-557.825989
70
192
0
VERTEX
8
OBJECT__38
10
-16.900000
20
256.673004
30
-558.018005
70
192
0
VERTEX
8
OBJECT__38
10
-16.900000
20
249.205994
30
-558.018005
70
192
0
VERTEX
8
OBJECT__38
10
-16.900000
20
211.565002
30
-525.531006
70
192
0
VERTEX
8
OBJECT__38
10
-16.900000
20
224.503006
30
-527.520996
70
192
0
VERTEX
8
OBJECT__38
10
-16.900000
20
256.881989
30
-557.984985
70
192
0
VERTEX
8
OBJECT__38
10
-16.900000
20
257.257996
30
-555.978027
70
192
0
VERTEX
8
OBJECT__38
10
-16.900000
20
249.205994
30
-555.478027
70
192
0
VERTEX
8
OBJECT__38
10
-16.900000
20
256.673004
30
-555.478027
70
192
0
VERTEX
8
OBJECT__38
10
-16.900000
20
239.867004
30
-575.461975
70
192
0
VERTEX
8
OBJECT__38
10
-16.900000
20
227.686996
30
-527.583984
70
192
0
VERTEX
8
OBJECT__38
10
-16.900000
20
239.867004
30
-538.033997
70
192
0
VERTEX
8
OBJECT__38
10
-16.900000
20
247.257004
30
-557.018005
70
192
0
VERTEX
8
OBJECT__38
10
-16.900000
20
257.257996
30
-557.018005
70
192
0
VERTEX
8
OBJECT__38
10
-16.900000
20
257.257996
30
-557.518005
70
192
0
VERTEX
8
OBJECT__38
10
-16.900000
20
247.257004
30
-556.478027
70
192
0
VERTEX
8
OBJECT__38
10
-16.900000
20
240.639999
30
-537.398010
70
192
0
VERTEX
8
OBJECT__38
10
-16.900000
20
246.975998
30
-552.364014
70
192
0
VERTEX
8
OBJECT__38
10
-16.900000
20
246.257996
30
-557.976990
70
192
0
VERTEX
8
OBJECT__38
10
-16.900000
20
246.761002
30
-557.924988
70
192
0
VERTEX
8
OBJECT__38
10
-16.900000
20
257.256012
30
-555.937988
70
192
0
VERTEX
8
OBJECT__38
10
-16.900000
20
247.759995
30
-555.533020
70
192
0
VERTEX
8
OBJECT__38
10
-16.900000
20
246.257996
30
-555.518005
70
192
0
VERTEX
8
OBJECT__38
10
-16.900000
20
247.472000
30
-552.294006
70
192
0
VERTEX
8
OBJECT__38
10
-16.900000
20
257.257996
30
-556.478027
70
192
0
VERTEX
8
OBJECT__38
10
0
20
0
30
0
70
128
71
1
72
2
73
3
0
VERTEX
8
OBJECT__38
10
0
20
0
30
0
70
128
71
4
72
5
73
6
0
VERTEX
8
OBJECT__38
10
0
20
0
30
0
70
128
71
5
72
7
73
8
0
VERTEX
8
OBJECT__38
10
0
20
0
30
0
70
128
71
9
72
10
73
11
0
VERTEX
8
OBJECT__38
10
0
20
0
30
0
70
128
71
9
72
12
73
13
0
VERTEX
8
OBJECT__38
10
0
20
0
30
0
70
128
71
14
72
9
73
15
0
VERTEX
8
OBJECT__38
10
0
20
0
30
0
70
128
71
14
72
16
73
17
0
VERTEX
8
OBJECT__38
10
0
20
0
30
0
70
128
71
18
72
19
73
20
0
VERTEX
8
OBJECT__38
10
0
20
0
30
0
70
128
71
3
72
21
73
1
0
VERTEX
8
OBJECT__38
10
0
20
0
30
0
70
128
71
2
72
4
73
22
0
VERTEX
8
OBJECT__38
10
0
20
0
30
0
70
128
71
8
72
6
73
5
0
VERTEX
8
OBJECT__38
10
0
20
0
30
0
70
128
71
7
72
13
73
12
0
VERTEX
8
OBJECT__38
10
0
20
0
30
0
70
128
71
13
72
10
73
9
0
VERTEX
8
OBJECT__38
10
0
20
0
30
0
70
128
71
17
72
23
73
14
0
VERTEX
8
OBJECT__38
10
0
20
0
30
0
70
128
71
19
72
24
73
20
0
VERTEX
8
OBJECT__38
10
0
20
0
30
0
70
128
71
25
72
26
73
24
0
VERTEX
8
OBJECT__38
10
0
20
0
30
0
70
128
71
27
72
21
73
28
0
VERTEX
8
OBJECT__38
10
0
20
0
30
0
70
128
71
22
72
3
73
2
0
VERTEX
8
OBJECT__38
10
0
20
0
30
0
70
128
71
12
72
8
73
7
0
VERTEX
8
OBJECT__38
10
0
20
0
30
0
70
128
71
15
72
16
73
14
0
VERTEX
8
OBJECT__38
10
0
20
0
30
0
70
128
71
24
72
19
73
25
0
VERTEX
8
OBJECT__38
10
0
20
0
30
0
70
128
71
29
72
28
73
26
0
VERTEX
8
OBJECT__38
10
0
20
0
30
0
70
128
71
21
72
27
73
1
0
VERTEX
8
OBJECT__38
10
0
20
0
30
0
70
128
71
11
72
15
73
9
0
VERTEX
8
OBJECT__38
10
0
20
0
30
0
70
128
71
26
72
25
73
29
0
VERTEX
8
OBJECT__38
10
0
20
0
30
0
70
128
71
6
72
22
73
4
0
VERTEX
8
OBJECT__38
10
0
20
0
30
0
70
128
71
30
72
31
73
32
0
VERTEX
8
OBJECT__38
10
0
20
0
30
0
70
128
71
28
72
29
73
27
0
VERTEX
8
OBJECT__38
10
0
20
0
30
0
70
128
71
33
72
34
73
23
0
VERTEX
8
OBJECT__38
10
0
20
0
30
0
70
128
71
30
72
35
73
31
0
VERTEX
8
OBJECT__38
10
0
20
0
30
0
70
128
71
36
72
37
73
38
0
VERTEX
8
OBJECT__38
10
0
20
0
30
0
70
128
71
20
72
39
73
18
0
VERTEX
8
OBJECT__38
10
0
20
0
30
0
70
128
71
33
72
40
73
34
0
VERTEX
8
OBJECT__38
10
0
20
0
30
0
70
128
71
41
72
34
73
40
0
VERTEX
8
OBJECT__38
10
0
20
0
30
0
70
128
71
32
72
42
73
30
0
VERTEX
8
OBJECT__38
10
0
20
0
30
0
70
128
71
42
72
43
73
44
0
VERTEX
8
OBJECT__38
10
0
20
0
30
0
70
128
71
36
72
45
73
37
0
VERTEX
8
OBJECT__38
10
0
20
0
30
0
70
128
71
23
72
17
73
33
0
VERTEX
8
OBJECT__38
10
0
20
0
30
0
70
128
71
46
72
47
73
41
0
VERTEX
8
OBJECT__38
10
0
20
0
30
0
70
128
71
48
72
42
73
49
0
VERTEX
8
OBJECT__38
10
0
20
0
30
0
70
128
71
44
72
30
73
42
0
VERTEX
8
OBJECT__38
10
0
20
0
30
0
70
128
71
38
72
50
73
36
0
VERTEX
8
OBJECT__38
10
0
20
0
30
0
70
128
71
51
72
52
73
47
0
VERTEX
8
OBJECT__38
10
0
20
0
30
0
70
128
71
40
72
46
73
41
0
VERTEX
8
OBJECT__38
10
0
20
0
30
0
70
128
71
32
72
49
73
42
0
VERTEX
8
OBJECT__38
10
0
20
0
30
0
70
128
71
45
72
51
73
37
0
VERTEX
8
OBJECT__38
10
0
20
0
30
0
70
128
71
52
72
41
73
47
0
VERTEX
8
OBJECT__38
10
0
20
0
30
0
70
128
71
49
72
39
73
48
0
VERTEX
8
OBJECT__38
10
0
20
0
30
0
70
128
71
45
72
52
73
51
0
VERTEX
8
OBJECT__38
10
0
20
0
30
0
70
128
71
39
72
49
73
18
0
VERTEX
8
OBJECT__38
10
0
20
0
30
0
70
128
71
47
72
53
73
51
0
VERTEX
8
OBJECT__38
10
0
20
0
30
0
70
128
71
36
72
54
73
45
0
SEQEND
8
OBJECT__38
0
POLYLINE
8
OBJECT__39
66
1
70
64
71
54
72
52
62
253
0
VERTEX
8
OBJECT__39
10
-2.100000
20
197.557999
30
-532.291016
70
192
0
VERTEX
8
OBJECT__39
10
-2.100000
20
205.891006
30
-527.895996
70
192
0
VERTEX
8
OBJECT__39
10
-2.100000
20
203.656006
30
-527.676025
70
192
0
VERTEX
8
OBJECT__39
10
-2.100000
20
196.567001
30
-531.788025
70
192
0
VERTEX
8
OBJECT__39
10
-2.100000
20
190.778000
30
-537.590027
70
192
0
VERTEX
8
OBJECT__39
10
-2.100000
20
190.964005
30
-539.020020
70
192
0
VERTEX
8
OBJECT__39
10
-2.100000
20
186.682999
30
-545.713013
70
192
0
VERTEX
8
OBJECT__39
10
-2.100000
20
186.567993
30
-546.382019
70
192
0
VERTEX
8
OBJECT__39
10
-2.100000
20
186.682999
30
-544.689026
70
192
0
VERTEX
8
OBJECT__39
10
-2.100000
20
185.621994
30
-563.909973
70
192
0
VERTEX
8
OBJECT__39
10
-2.100000
20
186.738007
30
-566.056030
70
192
0
VERTEX
8
OBJECT__39
10
-2.100000
20
185.283005
30
-556.747986
70
192
0
VERTEX
8
OBJECT__39
10
-2.100000
20
188.882996
30
-572.156006
70
192
0
VERTEX
8
OBJECT__39
10
-2.100000
20
190.964005
30
-574.476013
70
192
0
VERTEX
8
OBJECT__39
10
-2.100000
20
201.563995
30
-584.294006
70
192
0
VERTEX
8
OBJECT__39
10
-2.100000
20
205.891006
30
-585.598999
70
192
0
VERTEX
8
OBJECT__39
10
-2.100000
20
197.557999
30
-581.203979
70
192
0
VERTEX
8
OBJECT__39
10
-2.100000
20
184.828003
30
-555.077026
70
192
0
VERTEX
8
OBJECT__39
10
-2.100000
20
186.738007
30
-547.440002
70
192
0
VERTEX
8
OBJECT__39
10
-2.100000
20
194.345993
30
-579.140991
70
192
0
VERTEX
8
OBJECT__39
10
-2.100000
20
209.945007
30
-587.192993
70
192
0
VERTEX
8
OBJECT__39
10
-2.100000
20
241.154999
30
-574.559021
70
192
0
VERTEX
8
OBJECT__39
10
-2.100000
20
239.867004
30
-575.461975
70
192
0
VERTEX
8
OBJECT__39
10
-2.100000
20
236.688004
30
-578.956970
70
192
0
VERTEX
8
OBJECT__39
10
-2.100000
20
218.802994
30
-587.599976
70
192
0
VERTEX
8
OBJECT__39
10
-2.100000
20
215.167999
30
-587.241028
70
192
0
VERTEX
8
OBJECT__39
10
-2.100000
20
227.414993
30
-585.482971
70
192
0
VERTEX
8
OBJECT__39
10
-2.100000
20
235.074005
30
-581.013977
70
192
0
VERTEX
8
OBJECT__39
10
-2.100000
20
233.007004
30
-581.919006
70
192
0
VERTEX
8
OBJECT__39
10
-2.100000
20
224.503006
30
-585.973999
70
192
0
VERTEX
8
OBJECT__39
10
-2.100000
20
257.257996
30
-557.518005
70
192
0
VERTEX
8
OBJECT__39
10
-2.100000
20
247.257004
30
-557.018005
70
192
0
VERTEX
8
OBJECT__39
10
-2.100000
20
256.980988
30
-557.775024
70
192
0
VERTEX
8
OBJECT__39
10
-2.100000
20
249.205994
30
-558.018005
70
192
0
VERTEX
8
OBJECT__39
10
-2.100000
20
211.565002
30
-525.531006
70
192
0
VERTEX
8
OBJECT__39
10
-2.100000
20
246.257996
30
-557.976990
70
192
0
VERTEX
8
OBJECT__39
10
-2.100000
20
257.256012
30
-557.557007
70
192
0
VERTEX
8
OBJECT__39
10
-2.100000
20
246.761002
30
-557.924988
70
192
0
VERTEX
8
OBJECT__39
10
-2.100000
20
239.867004
30
-538.033997
70
192
0
VERTEX
8
OBJECT__39
10
-2.100000
20
247.759995
30
-555.533020
70
192
0
VERTEX
8
OBJECT__39
10
-2.100000
20
246.975998
30
-552.364014
70
192
0
VERTEX
8
OBJECT__39
10
-2.100000
20
240.639999
30
-537.398010
70
192
0
VERTEX
8
OBJECT__39
10
-2.100000
20
227.686996
30
-527.583984
70
192
0
VERTEX
8
OBJECT__39
10
-2.100000
20
224.503006
30
-527.520996
70
192
0
VERTEX
8
OBJECT__39
10
-2.100000
20
256.673004
30
-558.018005
70
192
0
VERTEX
8
OBJECT__39
10
-2.100000
20
257.257996
30
-556.478027
70
192
0
VERTEX
8
OBJECT__39
10
-2.100000
20
256.673004
30
-555.478027
70
192
0
VERTEX
8
OBJECT__39
10
-2.100000
20
249.205994
30
-555.478027
70
192
0
VERTEX
8
OBJECT__39
10
-2.100000
20
257.257996
30
-555.978027
70
192
0
VERTEX
8
OBJECT__39
10
-2.100000
20
256.881989
30
-555.510010
70
192
0
VERTEX
8
OBJECT__39
10
-2.100000
20
246.257996
30
-555.518005
70
192
0
VERTEX
8
OBJECT__39
10
-2.100000
20
247.257004
30
-556.478027
70
192
0
VERTEX
8
OBJECT__39
10
-2.100000
20
247.472000
30
-552.294006
70
192
0
VERTEX
8
OBJECT__39
10
-2.100000
20
257.257996
30
-557.018005
70
192
0
VERTEX
8
OBJECT__39
10
0
20
0
30
0
70
128
71
1
72
2
73
3
0
VERTEX
8
OBJECT__39
10
0
20
0
30
0
70
128
71
1
72
4
73
5
0
VERTEX
8
OBJECT__39
10
0
20
0
30
0
70
128
71
6
72
7
73
8
0
VERTEX
8
OBJECT__39
10
0
20
0
30
0
70
128
71
6
72
5
73
9
0
VERTEX
8
OBJECT__39
10
0
20
0
30
0
70
128
71
10
72
11
73
12
0
VERTEX
8
OBJECT__39
10
0
20
0
30
0
70
128
71
13
72
14
73
11
0
VERTEX
8
OBJECT__39
10
0
20
0
30
0
70
128
71
15
72
16
73
17
0
VERTEX
8
OBJECT__39
10
0
20
0
30
0
70
128
71
5
72
6
73
1
0
VERTEX
8
OBJECT__39
10
0
20
0
30
0
70
128
71
9
72
7
73
6
0
VERTEX
8
OBJECT__39
10
0
20
0
30
0
70
128
71
18
72
12
73
19
0
VERTEX
8
OBJECT__39
10
0
20
0
30
0
70
128
71
11
72
10
73
13
0
VERTEX
8
OBJECT__39
10
0
20
0
30
0
70
128
71
20
72
17
73
14
0
VERTEX
8
OBJECT__39
10
0
20
0
30
0
70
128
71
15
72
21
73
16
0
VERTEX
8
OBJECT__39
10
0
20
0
30
0
70
128
71
22
72
23
73
24
0
VERTEX
8
OBJECT__39
10
0
20
0
30
0
70
128
71
8
72
19
73
6
0
VERTEX
8
OBJECT__39
10
0
20
0
30
0
70
128
71
12
72
18
73
10
0
VERTEX
8
OBJECT__39
10
0
20
0
30
0
70
128
71
17
72
20
73
15
0
VERTEX
8
OBJECT__39
10
0
20
0
30
0
70
128
71
21
72
25
73
26
0
VERTEX
8
OBJECT__39
10
0
20
0
30
0
70
128
71
27
72
28
73
29
0
VERTEX
8
OBJECT__39
10
0
20
0
30
0
70
128
71
24
72
28
73
22
0
VERTEX
8
OBJECT__39
10
0
20
0
30
0
70
128
71
19
72
8
73
18
0
VERTEX
8
OBJECT__39
10
0
20
0
30
0
70
128
71
26
72
16
73
21
0
VERTEX
8
OBJECT__39
10
0
20
0
30
0
70
128
71
25
72
27
73
30
0
VERTEX
8
OBJECT__39
10
0
20
0
30
0
70
128
71
24
72
29
73
28
0
VERTEX
8
OBJECT__39
10
0
20
0
30
0
70
128
71
14
72
13
73
20
0
VERTEX
8
OBJECT__39
10
0
20
0
30
0
70
128
71
29
72
30
73
27
0
VERTEX
8
OBJECT__39
10
0
20
0
30
0
70
128
71
31
72
32
73
33
0
VERTEX
8
OBJECT__39
10
0
20
0
30
0
70
128
71
33
72
32
73
34
0
VERTEX
8
OBJECT__39
10
0
20
0
30
0
70
128
71
35
72
3
73
2
0
VERTEX
8
OBJECT__39
10
0
20
0
30
0
70
128
71
30
72
26
73
25
0
VERTEX
8
OBJECT__39
10
0
20
0
30
0
70
128
71
36
72
23
73
22
0
VERTEX
8
OBJECT__39
10
0
20
0
30
0
70
128
71
33
72
37
73
31
0
VERTEX
8
OBJECT__39
10
0
20
0
30
0
70
128
71
32
72
38
73
34
0
VERTEX
8
OBJECT__39
10
0
20
0
30
0
70
128
71
39
72
40
73
41
0
VERTEX
8
OBJECT__39
10
0
20
0
30
0
70
128
71
39
72
42
73
43
0
VERTEX
8
OBJECT__39
10
0
20
0
30
0
70
128
71
2
72
44
73
35
0
VERTEX
8
OBJECT__39
10
0
20
0
30
0
70
128
71
22
72
38
73
36
0
VERTEX
8
OBJECT__39
10
0
20
0
30
0
70
128
71
34
72
45
73
33
0
VERTEX
8
OBJECT__39
10
0
20
0
30
0
70
128
71
43
72
44
73
39
0
VERTEX
8
OBJECT__39
10
0
20
0
30
0
70
128
71
3
72
4
73
1
0
VERTEX
8
OBJECT__39
10
0
20
0
30
0
70
128
71
46
72
47
73
48
0
VERTEX
8
OBJECT__39
10
0
20
0
30
0
70
128
71
47
72
46
73
49
0
VERTEX
8
OBJECT__39
10
0
20
0
30
0
70
128
71
32
72
36
73
38
0
VERTEX
8
OBJECT__39
10
0
20
0
30
0
70
128
71
44
72
43
73
35
0
VERTEX
8
OBJECT__39
10
0
20
0
30
0
70
128
71
49
72
50
73
47
0
VERTEX
8
OBJECT__39
10
0
20
0
30
0
70
128
71
41
72
42
73
39
0
VERTEX
8
OBJECT__39
10
0
20
0
30
0
70
128
71
40
72
39
73
51
0
VERTEX
8
OBJECT__39
10
0
20
0
30
0
70
128
71
48
72
52
73
46
0
VERTEX
8
OBJECT__39
10
0
20
0
30
0
70
128
71
40
72
53
73
41
0
VERTEX
8
OBJECT__39
10
0
20
0
30
0
70
128
71
48
72
40
73
52
0
VERTEX
8
OBJECT__39
10
0
20
0
30
0
70
128
71
51
72
52
73
40
0
VERTEX
8
OBJECT__39
10
0
20
0
30
0
70
128
71
31
72
54
73
32
0
SEQEND
8
OBJECT__39
0
POLYLINE
8
OBJECT__40
66
1
70
64
71
9
72
9
62
253
0
VERTEX
8
OBJECT__40
10
-2.100000
20
256.673004
30
-555.478027
70
192
0
VERTEX
8
OBJECT__40
10
-9.500000
20
258.782990
30
-555.478027
70
192
0
VERTEX
8
OBJECT__40
10
-9.500000
20
256.845001
30
-555.478027
70
192
0
VERTEX
8
OBJECT__40
10
-16.900000
20
256.673004
30
-555.478027
70
192
0
VERTEX
8
OBJECT__40
10
-12.100000
20
254.244995
30
-555.478027
70
192
0
VERTEX
8
OBJECT__40
10
-2.100000
20
249.205994
30
-555.478027
70
192
0
VERTEX
8
OBJECT__40
10
-6.900000
20
254.244995
30
-555.478027
70
192
0
VERTEX
8
OBJECT__40
10
-16.900000
20
249.205994
30
-555.478027
70
192
0
VERTEX
8
OBJECT__40
10
-9.500000
20
251.645004
30
-555.478027
70
192
0
VERTEX
8
OBJECT__40
10
0
20
0
30
0
70
128
71
1
72
2
73
3
0
VERTEX
8
OBJECT__40
10
0
20
0
30
0
70
128
71
4
72
5
73
3
0
VERTEX
8
OBJECT__40
10
0
20
0
30
0
70
128
71
6
72
1
73
7
0
VERTEX
8
OBJECT__40
10
0
20
0
30
0
70
128
71
3
72
2
73
4
0
VERTEX
8
OBJECT__40
10
0
20
0
30
0
70
128
71
8
72
9
73
5
0
VERTEX
8
OBJECT__40
10
0
20
0
30
0
70
128
71
3
72
7
73
1
0
VERTEX
8
OBJECT__40
10
0
20
0
30
0
70
128
71
8
72
6
73
9
0
VERTEX
8
OBJECT__40
10
0
20
0
30
0
70
128
71
5
72
4
73
8
0
VERTEX
8
OBJECT__40
10
0
20
0
30
0
70
128
71
7
72
9
73
6
0
SEQEND
8
OBJECT__40
0
POLYLINE
8
OBJECT__41
66
1
70
64
71
8
72
8
62
253
0
VERTEX
8
OBJECT__41
10
-6.900000
20
254.244995
30
-558.018005
70
192
0
VERTEX
8
OBJECT__41
10
-6.900000
20
254.244995
30
-557.018005
70
192
0
VERTEX
8
OBJECT__41
10
-9.500000
20
256.845001
30
-557.018005
70
192
0
VERTEX
8
OBJECT__41
10
-9.500000
20
251.645004
30
-558.018005
70
192
0
VERTEX
8
OBJECT__41
10
-9.500000
20
251.645004
30
-557.018005
70
192
0
VERTEX
8
OBJECT__41
10
-12.100000
20
254.244995
30
-558.018005
70
192
0
VERTEX
8
OBJECT__41
10
-12.100000
20
254.244995
30
-557.018005
70
192
0
VERTEX
8
OBJECT__41
10
-9.500000
20
256.845001
30
-558.018005
70
192
0
VERTEX
8
OBJECT__41
10
0
20
0
30
0
70
128
71
1
72
2
73
3
0
VERTEX
8
OBJECT__41
10
0
20
0
30
0
70
128
71
4
72
5
73
2
0
VERTEX
8
OBJECT__41
10
0
20
0
30
0
70
128
71
6
72
7
73
5
0
VERTEX
8
OBJECT__41
10
0
20
0
30
0
70
128
71
8
72
3
73
7
0
VERTEX
8
OBJECT__41
10
0
20
0
30
0
70
128
71
7
72
6
73
8
0
VERTEX
8
OBJECT__41
10
0
20
0
30
0
70
128
71
5
72
4
73
6
0
VERTEX
8
OBJECT__41
10
0
20
0
30
0
70
128
71
2
72
1
73
4
0
VERTEX
8
OBJECT__41
10
0
20
0
30
0
70
128
71
3
72
8
73
1
0
SEQEND
8
OBJECT__41
0
POLYLINE
8
OBJECT__42
66
1
70
64
71
8
72
8
62
253
0
VERTEX
8
OBJECT__42
10
-9.500000
20
251.645004
30
-557.018005
70
192
0
VERTEX
8
OBJECT__42
10
-9.500000
20
252.195007
30
-557.018005
70
192
0
VERTEX
8
OBJECT__42
10
-7.450000
20
254.244995
30
-557.018005
70
192
0
VERTEX
8
OBJECT__42
10
-12.100000
20
254.244995
30
-557.018005
70
192
0
VERTEX
8
OBJECT__42
10
-11.550000
20
254.244995
30
-557.018005
70
192
0
VERTEX
8
OBJECT__42
10
-6.900000
20
254.244995
30
-557.018005
70
192
0
VERTEX
8
OBJECT__42
10
-9.500000
20
256.295013
30
-557.018005
70
192
0
VERTEX
8
OBJECT__42
10
-9.500000
20
256.845001
30
-557.018005
70
192
0
VERTEX
8
OBJECT__42
10
0
20
0
30
0
70
128
71
1
72
2
73
3
0
VERTEX
8
OBJECT__42
10
0
20
0
30
0
70
128
71
1
72
4
73
5
0
VERTEX
8
OBJECT__42
10
0
20
0
30
0
70
128
71
6
72
3
73
7
0
VERTEX
8
OBJECT__42
10
0
20
0
30
0
70
128
71
5
72
2
73
1
0
VERTEX
8
OBJECT__42
10
0
20
0
30
0
70
128
71
3
72
6
73
1
0
VERTEX
8
OBJECT__42
10
0
20
0
30
0
70
128
71
4
72
8
73
7
0
VERTEX
8
OBJECT__42
10
0
20
0
30
0
70
128
71
7
72
5
73
4
0
VERTEX
8
OBJECT__42
10
0
20
0
30
0
70
128
71
7
72
8
73
6
0
SEQEND
8
OBJECT__42
0
POLYLINE
8
OBJECT__43
66
1
70
64
71
8
72
8
62
253
0
VERTEX
8
OBJECT__43
10
-7.450000
20
254.244995
30
-556.478027
70
192
0
VERTEX
8
OBJECT__43
10
-7.450000
20
254.244995
30
-557.018005
70
192
0
VERTEX
8
OBJECT__43
10
-9.500000
20
252.195007
30
-557.018005
70
192
0
VERTEX
8
OBJECT__43
10
-9.500000
20
256.295013
30
-556.478027
70
192
0
VERTEX
8
OBJECT__43
10
-9.500000
20
256.295013
30
-557.018005
70
192
0
VERTEX
8
OBJECT__43
10
-11.550000
20
254.244995
30
-556.478027
70
192
0
VERTEX
8
OBJECT__43
10
-11.550000
20
254.244995
30
-557.018005
70
192
0
VERTEX
8
OBJECT__43
10
-9.500000
20
252.195007
30
-556.478027
70
192
0
VERTEX
8
OBJECT__43
10
0
20
0
30
0
70
128
71
1
72
2
73
3
0
VERTEX
8
OBJECT__43
10
0
20
0
30
0
70
128
71
4
72
5
73
2
0
VERTEX
8
OBJECT__43
10
0
20
0
30
0
70
128
71
6
72
7
73
5
0
VERTEX
8
OBJECT__43
10
0
20
0
30
0
70
128
71
8
72
3
73
7
0
VERTEX
8
OBJECT__43
10
0
20
0
30
0
70
128
71
7
72
6
73
8
0
VERTEX
8
OBJECT__43
10
0
20
0
30
0
70
128
71
5
72
4
73
6
0
VERTEX
8
OBJECT__43
10
0
20
0
30
0
70
128
71
2
72
1
73
4
0
VERTEX
8
OBJECT__43
10
0
20
0
30
0
70
128
71
3
72
8
73
1
0
SEQEND
8
OBJECT__43
0
POLYLINE
8
OBJECT__44
66
1
70
64
71
8
72
6
62
253
0
VERTEX
8
OBJECT__44
10
-3.265000
20
217.636002
30
-516.765015
70
192
0
VERTEX
8
OBJECT__44
10
-3.265000
20
212.852997
30
-516.955994
70
192
0
VERTEX
8
OBJECT__44
10
-3.265000
20
212.852997
30
-522.940002
70
192
0
VERTEX
8
OBJECT__44
10
-3.265000
20
217.636002
30
-523.130981
70
192
0
VERTEX
8
OBJECT__44
10
-3.265000
20
219.382996
30
-522.728027
70
192
0
VERTEX
8
OBJECT__44
10
-3.265000
20
219.382996
30
-517.168030
70
192
0
VERTEX
8
OBJECT__44
10
-3.265000
20
212.182999
30
-517.168030
70
192
0
VERTEX
8
OBJECT__44
10
-3.265000
20
212.182999
30
-522.728027
70
192
0
VERTEX
8
OBJECT__44
10
0
20
0
30
0
70
128
71
1
72
2
73
3
0
VERTEX
8
OBJECT__44
10
0
20
0
30
0
70
128
71
1
72
4
73
5
0
VERTEX
8
OBJECT__44
10
0
20
0
30
0
70
128
71
5
72
6
73
1
0
VERTEX
8
OBJECT__44
10
0
20
0
30
0
70
128
71
3
72
2
73
7
0
VERTEX
8
OBJECT__44
10
0
20
0
30
0
70
128
71
7
72
8
73
3
0
VERTEX
8
OBJECT__44
10
0
20
0
30
0
70
128
71
3
72
4
73
1
0
SEQEND
8
OBJECT__44
0
POLYLINE
8
OBJECT__45
66
1
70
64
71
6
72
4
62
253
0
VERTEX
8
OBJECT__45
10
-4.358000
20
220.014008
30
-523.062988
70
192
0
VERTEX
8
OBJECT__45
10
-9.500000
20
222.983002
30
-522.728027
70
192
0
VERTEX
8
OBJECT__45
10
-9.500000
20
222.983002
30
-517.168030
70
192
0
VERTEX
8
OBJECT__45
10
-4.358000
20
220.014008
30
-516.833008
70
192
0
VERTEX
8
OBJECT__45
10
-3.265000
20
219.382996
30
-517.168030
70
192
0
VERTEX
8
OBJECT__45
10
-3.265000
20
219.382996
30
-522.728027
70
192
0
VERTEX
8
OBJECT__45
10
0
20
0
30
0
70
128
71
1
72
2
73
3
0
VERTEX
8
OBJECT__45
10
0
20
0
30
0
70
128
71
1
72
4
73
5
0
VERTEX
8
OBJECT__45
10
0
20
0
30
0
70
128
71
5
72
6
73
1
0
VERTEX
8
OBJECT__45
10
0
20
0
30
0
70
128
71
3
72
4
73
1
0
SEQEND
8
OBJECT__45
0
POLYLINE
8
OBJECT__46
66
1
70
64
71
6
72
4
62
253
0
VERTEX
8
OBJECT__46
10
-10.593000
20
222.352005
30
-523.062988
70
192
0
VERTEX
8
OBJECT__46
10
-15.735000
20
219.382996
30
-522.728027
70
192
0
VERTEX
8
OBJECT__46
10
-15.735000
20
219.382996
30
-517.168030
70
192
0
VERTEX
8
OBJECT__46
10
-10.593000
20
222.352005
30
-516.833008
70
192
0
VERTEX
8
OBJECT__46
10
-9.500000
20
222.983002
30
-517.168030
70
192
0
VERTEX
8
OBJECT__46
10
-9.500000
20
222.983002
30
-522.728027
70
192
0
VERTEX
8
OBJECT__46
10
0
20
0
30
0
70
128
71
1
72
2
73
3
0
VERTEX
8
OBJECT__46
10
0
20
0
30
0
70
128
71
1
72
4
73
5
0
VERTEX
8
OBJECT__46
10
0
20
0
30
0
70
128
71
5
72
6
73
1
0
VERTEX
8
OBJECT__46
10
0
20
0
30
0
70
128
71
3
72
4
73
1
0
SEQEND
8
OBJECT__46
0
POLYLINE
8
OBJECT__47
66
1
70
64
71
8
72
6
62
253
0
VERTEX
8
OBJECT__47
10
-15.735000
20
213.929993
30
-516.765015
70
192
0
VERTEX
8
OBJECT__47
10
-15.735000
20
218.712997
30
-516.955994
70
192
0
VERTEX
8
OBJECT__47
10
-15.735000
20
218.712997
30
-522.940002
70
192
0
VERTEX
8
OBJECT__47
10
-15.735000
20
213.929993
30
-523.130981
70
192
0
VERTEX
8
OBJECT__47
10
-15.735000
20
212.182999
30
-522.728027
70
192
0
VERTEX
8
OBJECT__47
10
-15.735000
20
212.182999
30
-517.168030
70
192
0
VERTEX
8
OBJECT__47
10
-15.735000
20
219.382996
30
-517.168030
70
192
0
VERTEX
8
OBJECT__47
10
-15.735000
20
219.382996
30
-522.728027
70
192
0
VERTEX
8
OBJECT__47
10
0
20
0
30
0
70
128
71
1
72
2
73
3
0
VERTEX
8
OBJECT__47
10
0
20
0
30
0
70
128
71
1
72
4
73
5
0
VERTEX
8
OBJECT__47
10
0
20
0
30
0
70
128
71
5
72
6
73
1
0
VERTEX
8
OBJECT__47
10
0
20
0
30
0
70
128
71
3
72
2
73
7
0
VERTEX
8
OBJECT__47
10
0
20
0
30
0
70
128
71
7
72
8
73
3
0
VERTEX
8
OBJECT__47
10
0
20
0
30
0
70
128
71
3
72
4
73
1
0
SEQEND
8
OBJECT__47
0
POLYLINE
8
OBJECT__48
66
1
70
64
71
6
72
4
62
253
0
VERTEX
8
OBJECT__48
10
-14.642000
20
211.552002
30
-523.062988
70
192
0
VERTEX
8
OBJECT__48
10
-9.500000
20
208.582993
30
-522.728027
70
192
0
VERTEX
8
OBJECT__48
10
-9.500000
20
208.582993
30
-517.168030
70
192
0
VERTEX
8
OBJECT__48
10
-14.642000
20
211.552002
30
-516.833008
70
192
0
VERTEX
8
OBJECT__48
10
-15.735000
20
212.182999
30
-517.168030
70
192
0
VERTEX
8
OBJECT__48
10
-15.735000
20
212.182999
30
-522.728027
70
192
0
VERTEX
8
OBJECT__48
10
0
20
0
30
0
70
128
71
1
72
2
73
3
0
VERTEX
8
OBJECT__48
10
0
20
0
30
0
70
128
71
1
72
4
73
5
0
VERTEX
8
OBJECT__48
10
0
20
0
30
0
70
128
71
5
72
6
73
1
0
VERTEX
8
OBJECT__48
10
0
20
0
30
0
70
128
71
3
72
4
73
1
0
SEQEND
8
OBJECT__48
0
POLYLINE
8
OBJECT__49
66
1
70
64
71
6
72
4
62
253
0
VERTEX
8
OBJECT__49
10
-8.407000
20
209.214005
30
-523.062988
70
192
0
VERTEX
8
OBJECT__49
10
-3.265000
20
212.182999
30
-522.728027
70
192
0
VERTEX
8
OBJECT__49
10
-3.265000
20
212.182999
30
-517.168030
70
192
0
VERTEX
8
OBJECT__49
10
-8.407000
20
209.214005
30
-516.833008
70
192
0
VERTEX
8
OBJECT__49
10
-9.500000
20
208.582993
30
-517.168030
70
192
0
VERTEX
8
OBJECT__49
10
-9.500000
20
208.582993
30
-522.728027
70
192
0
VERTEX
8
OBJECT__49
10
0
20
0
30
0
70
128
71
1
72
2
73
3
0
VERTEX
8
OBJECT__49
10
0
20
0
30
0
70
128
71
1
72
4
73
5
0
VERTEX
8
OBJECT__49
10
0
20
0
30
0
70
128
71
5
72
6
73
1
0
VERTEX
8
OBJECT__49
10
0
20
0
30
0
70
128
71
3
72
4
73
1
0
SEQEND
8
OBJECT__49
0
POLYLINE
8
OBJECT__50
66
1
70
64
71
4
72
2
62
253
0
VERTEX
8
OBJECT__50
10
98.500000
20
311.615997
30
-315.548004
70
192
0
VERTEX
8
OBJECT__50
10
98.500000
20
315.782990
30
-319.713989
70
192
0
VERTEX
8
OBJECT__50
10
98.500000
20
319.950012
30
-315.548004
70
192
0
VERTEX
8
OBJECT__50
10
98.500000
20
315.782990
30
-311.381012
70
192
0
VERTEX
8
OBJECT__50
10
0
20
0
30
0
70
128
71
1
72
2
73
3
0
VERTEX
8
OBJECT__50
10
0
20
0
30
0
70
128
71
3
72
4
73
1
0
SEQEND
8
OBJECT__50
0
POLYLINE
8
OBJECT__51
66
1
70
64
71
8
72
8
62
253
0
VERTEX
8
OBJECT__51
10
97.667000
20
315.782990
30
-310.548004
70
192
0
VERTEX
8
OBJECT__51
10
97.667000
20
310.782990
30
-315.548004
70
192
0
VERTEX
8
OBJECT__51
10
98.500000
20
311.615997
30
-315.548004
70
192
0
VERTEX
8
OBJECT__51
10
97.667000
20
320.782990
30
-315.548004
70
192
0
VERTEX
8
OBJECT__51
10
98.500000
20
315.782990
30
-311.381012
70
192
0
VERTEX
8
OBJECT__51
10
97.667000
20
315.782990
30
-320.548004
70
192
0
VERTEX
8
OBJECT__51
10
98.500000
20
319.950012
30
-315.548004
70
192
0
VERTEX
8
OBJECT__51
10
98.500000
20
315.782990
30
-319.713989
70
192
0
VERTEX
8
OBJECT__51
10
0
20
0
30
0
70
128
71
1
72
2
73
3
0
VERTEX
8
OBJECT__51
10
0
20
0
30
0
70
128
71
4
72
1
73
5
0
VERTEX
8
OBJECT__51
10
0
20
0
30
0
70
128
71
6
72
4
73
7
0
VERTEX
8
OBJECT__51
10
0
20
0
30
0
70
128
71
2
72
6
73
8
0
VERTEX
8
OBJECT__51
10
0
20
0
30
0
70
128
71
8
72
3
73
2
0
VERTEX
8
OBJECT__51
10
0
20
0
30
0
70
128
71
7
72
8
73
6
0
VERTEX
8
OBJECT__51
10
0
20
0
30
0
70
128
71
5
72
7
73
4
0
VERTEX
8
OBJECT__51
10
0
20
0
30
0
70
128
71
3
72
5
73
1
0
SEQEND
8
OBJECT__51
0
POLYLINE
8
OBJECT__53
66
1
70
64
71
8
72
8
62
253
0
VERTEX
8
OBJECT__53
10
97.667000
20
320.782990
30
-315.548004
70
192
0
VERTEX
8
OBJECT__53
10
-1.500000
20
320.782990
30
-315.548004
70
192
0
VERTEX
8
OBJECT__53
10
-1.500000
20
315.782990
30
-310.548004
70
192
0
VERTEX
8
OBJECT__53
10
97.667000
20
310.782990
30
-315.548004
70
192
0
VERTEX
8
OBJECT__53
10
97.667000
20
315.782990
30
-310.548004
70
192
0
VERTEX
8
OBJECT__53
10
97.667000
20
315.782990
30
-320.548004
70
192
0
VERTEX
8
OBJECT__53
10
-1.500000
20
310.782990
30
-315.548004
70
192
0
VERTEX
8
OBJECT__53
10
-1.500000
20
315.782990
30
-320.548004
70
192
0
VERTEX
8
OBJECT__53
10
0
20
0
30
0
70
128
71
1
72
2
73
3
0
VERTEX
8
OBJECT__53
10
0
20
0
30
0
70
128
71
4
72
5
73
3
0
VERTEX
8
OBJECT__53
10
0
20
0
30
0
70
128
71
6
72
4
73
7
0
VERTEX
8
OBJECT__53
10
0
20
0
30
0
70
128
71
6
72
8
73
2
0
VERTEX
8
OBJECT__53
10
0
20
0
30
0
70
128
71
2
72
1
73
6
0
VERTEX
8
OBJECT__53
10
0
20
0
30
0
70
128
71
7
72
8
73
6
0
VERTEX
8
OBJECT__53
10
0
20
0
30
0
70
128
71
3
72
7
73
4
0
VERTEX
8
OBJECT__53
10
0
20
0
30
0
70
128
71
3
72
5
73
1
0
SEQEND
8
OBJECT__53
0
POLYLINE
8
OBJECT__54
66
1
70
64
71
12
72
12
62
253
0
VERTEX
8
OBJECT__54
10
-1.500000
20
310.782990
30
-315.548004
70
192
0
VERTEX
8
OBJECT__54
10
-1.500000
20
305.532990
30
-310.398010
70
192
0
VERTEX
8
OBJECT__54
10
-1.500000
20
304.532990
30
-311.398010
70
192
0
VERTEX
8
OBJECT__54
10
-1.500000
20
320.782990
30
-315.548004
70
192
0
VERTEX
8
OBJECT__54
10
-1.500000
20
326.032990
30
-320.697998
70
192
0
VERTEX
8
OBJECT__54
10
-1.500000
20
327.032990
30
-319.697998
70
192
0
VERTEX
8
OBJECT__54
10
-1.500000
20
304.532990
30
-315.697998
70
192
0
VERTEX
8
OBJECT__54
10
-1.500000
20
327.032990
30
-315.398010
70
192
0
VERTEX
8
OBJECT__54
10
-1.500000
20
322.032990
30
-310.398010
70
192
0
VERTEX
8
OBJECT__54
10
-1.500000
20
315.782990
30
-310.548004
70
192
0
VERTEX
8
OBJECT__54
10
-1.500000
20
309.532990
30
-320.697998
70
192
0
VERTEX
8
OBJECT__54
10
-1.500000
20
315.782990
30
-320.548004
70
192
0
VERTEX
8
OBJECT__54
10
0
20
0
30
0
70
128
71
1
72
2
73
3
0
VERTEX
8
OBJECT__54
10
0
20
0
30
0
70
128
71
4
72
5
73
6
0
VERTEX
8
OBJECT__54
10
0
20
0
30
0
70
128
71
3
72
7
73
1
0
VERTEX
8
OBJECT__54
10
0
20
0
30
0
70
128
71
6
72
8
73
4
0
VERTEX
8
OBJECT__54
10
0
20
0
30
0
70
128
71
9
72
10
73
4
0
VERTEX
8
OBJECT__54
10
0
20
0
30
0
70
128
71
1
72
10
73
2
0
VERTEX
8
OBJECT__54
10
0
20
0
30
0
70
128
71
11
72
12
73
1
0
VERTEX
8
OBJECT__54
10
0
20
0
30
0
70
128
71
4
72
12
73
5
0
VERTEX
8
OBJECT__54
10
0
20
0
30
0
70
128
71
10
72
9
73
2
0
VERTEX
8
OBJECT__54
10
0
20
0
30
0
70
128
71
12
72
11
73
5
0
VERTEX
8
OBJECT__54
10
0
20
0
30
0
70
128
71
1
72
7
73
11
0
VERTEX
8
OBJECT__54
10
0
20
0
30
0
70
128
71
4
72
8
73
9
0
SEQEND
8
OBJECT__54
0
POLYLINE
8
OBJECT__55
66
1
70
64
71
4
72
2
62
253
0
VERTEX
8
OBJECT__55
10
-6.500000
20
327.032990
30
-315.398010
70
192
0
VERTEX
8
OBJECT__55
10
-1.500000
20
327.032990
30
-315.398010
70
192
0
VERTEX
8
OBJECT__55
10
-1.500000
20
327.032990
30
-319.697998
70
192
0
VERTEX
8
OBJECT__55
10
-6.500000
20
327.032990
30
-319.697998
70
192
0
VERTEX
8
OBJECT__55
10
0
20
0
30
0
70
128
71
1
72
2
73
3
0
VERTEX
8
OBJECT__55
10
0
20
0
30
0
70
128
71
3
72
4
73
1
0
SEQEND
8
OBJECT__55
0
POLYLINE
8
OBJECT__56
66
1
70
64
71
4
72
2
62
253
0
VERTEX
8
OBJECT__56
10
-6.500000
20
322.032990
30
-310.398010
70
192
0
VERTEX
8
OBJECT__56
10
-1.500000
20
322.032990
30
-310.398010
70
192
0
VERTEX
8
OBJECT__56
10
-1.500000
20
327.032990
30
-315.398010
70
192
0
VERTEX
8
OBJECT__56
10
-6.500000
20
327.032990
30
-315.398010
70
192
0
VERTEX
8
OBJECT__56
10
0
20
0
30
0
70
128
71
1
72
2
73
3
0
VERTEX
8
OBJECT__56
10
0
20
0
30
0
70
128
71
3
72
4
73
1
0
SEQEND
8
OBJECT__56
0
POLYLINE
8
OBJECT__57
66
1
70
64
71
4
72
2
62
253
0
VERTEX
8
OBJECT__57
10
-6.500000
20
304.532990
30
-311.398010
70
192
0
VERTEX
8
OBJECT__57
10
-6.500000
20
304.532990
30
-315.697998
70
192
0
VERTEX
8
OBJECT__57
10
-1.500000
20
304.532990
30
-315.697998
70
192
0
VERTEX
8
OBJECT__57
10
-1.500000
20
304.532990
30
-311.398010
70
192
0
VERTEX
8
OBJECT__57
10
0
20
0
30
0
70
128
71
1
72
2
73
3
0
VERTEX
8
OBJECT__57
10
0
20
0
30
0
70
128
71
3
72
4
73
1
0
SEQEND
8
OBJECT__57
0
POLYLINE
8
OBJECT__58
66
1
70
64
71
4
72
2
62
253
0
VERTEX
8
OBJECT__58
10
-1.500000
20
309.532990
30
-320.697998
70
192
0
VERTEX
8
OBJECT__58
10
-1.500000
20
304.532990
30
-315.697998
70
192
0
VERTEX
8
OBJECT__58
10
-6.500000
20
304.532990
30
-315.697998
70
192
0
VERTEX
8
OBJECT__58
10
-6.500000
20
309.532990
30
-320.697998
70
192
0
VERTEX
8
OBJECT__58
10
0
20
0
30
0
70
128
71
1
72
2
73
3
0
VERTEX
8
OBJECT__58
10
0
20
0
30
0
70
128
71
3
72
4
73
1
0
SEQEND
8
OBJECT__58
0
POLYLINE
8
OBJECT__59
66
1
70
64
71
4
72
2
62
253
0
VERTEX
8
OBJECT__59
10
-50.000000
20
453.282990
30
-540.547974
70
192
0
VERTEX
8
OBJECT__59
10
-52.000000
20
453.282990
30
-540.547974
70
192
0
VERTEX
8
OBJECT__59
10
-52.000000
20
458.282990
30
-535.547974
70
192
0
VERTEX
8
OBJECT__59
10
-50.000000
20
458.282990
30
-535.547974
70
192
0
VERTEX
8
OBJECT__59
10
0
20
0
30
0
70
128
71
1
72
2
73
3
0
VERTEX
8
OBJECT__59
10
0
20
0
30
0
70
128
71
3
72
4
73
1
0
SEQEND
8
OBJECT__59
0
POLYLINE
8
OBJECT__60
66
1
70
64
71
4
72
2
62
253
0
VERTEX
8
OBJECT__60
10
-50.000000
20
458.282990
30
-475.548004
70
192
0
VERTEX
8
OBJECT__60
10
-50.000000
20
458.282990
30
-535.547974
70
192
0
VERTEX
8
OBJECT__60
10
-52.000000
20
458.282990
30
-535.547974
70
192
0
VERTEX
8
OBJECT__60
10
-52.000000
20
458.282990
30
-475.548004
70
192
0
VERTEX
8
OBJECT__60
10
0
20
0
30
0
70
128
71
1
72
2
73
3
0
VERTEX
8
OBJECT__60
10
0
20
0
30
0
70
128
71
3
72
4
73
1
0
SEQEND
8
OBJECT__60
0
POLYLINE
8
OBJECT__62
66
1
70
64
71
4
72
2
62
253
0
VERTEX
8
OBJECT__62
10
-50.000000
20
458.282990
30
-475.548004
70
192
0
VERTEX
8
OBJECT__62
10
-52.000000
20
458.282990
30
-475.548004
70
192
0
VERTEX
8
OBJECT__62
10
-52.000000
20
453.282990
30
-470.548004
70
192
0
VERTEX
8
OBJECT__62
10
-50.000000
20
453.282990
30
-470.548004
70
192
0
VERTEX
8
OBJECT__62
10
0
20
0
30
0
70
128
71
1
72
2
73
3
0
VERTEX
8
OBJECT__62
10
0
20
0
30
0
70
128
71
3
72
4
73
1
0
SEQEND
8
OBJECT__62
0
POLYLINE
8
OBJECT__63
66
1
70
64
71
6
72
4
62
253
0
VERTEX
8
OBJECT__63
10
-52.000000
20
445.282990
30
-540.547974
70
192
0
VERTEX
8
OBJECT__63
10
-52.000000
20
453.282990
30
-470.548004
70
192
0
VERTEX
8
OBJECT__63
10
-52.000000
20
458.282990
30
-475.548004
70
192
0
VERTEX
8
OBJECT__63
10
-52.000000
20
458.282990
30
-535.547974
70
192
0
VERTEX
8
OBJECT__63
10
-52.000000
20
445.282990
30
-470.548004
70
192
0
VERTEX
8
OBJECT__63
10
-52.000000
20
453.282990
30
-540.547974
70
192
0
VERTEX
8
OBJECT__63
10
0
20
0
30
0
70
128
71
1
72
2
73
3
0
VERTEX
8
OBJECT__63
10
0
20
0
30
0
70
128
71
3
72
4
73
1
0
VERTEX
8
OBJECT__63
10
0
20
0
30
0
70
128
71
1
72
5
73
2
0
VERTEX
8
OBJECT__63
10
0
20
0
30
0
70
128
71
4
72
6
73
1
0
SEQEND
8
OBJECT__63
0
POLYLINE
8
OBJECT__64
66
1
70
64
71
4
72
2
62
253
0
VERTEX
8
OBJECT__64
10
-53.000000
20
444.282990
30
-470.548004
70
192
0
VERTEX
8
OBJECT__64
10
-52.000000
20
445.282990
30
-470.548004
70
192
0
VERTEX
8
OBJECT__64
10
-52.000000
20
445.282990
30
-540.547974
70
192
0
VERTEX
8
OBJECT__64
10
-53.000000
20
444.282990
30
-540.547974
70
192
0
VERTEX
8
OBJECT__64
10
0
20
0
30
0
70
128
71
1
72
2
73
3
0
VERTEX
8
OBJECT__64
10
0
20
0
30
0
70
128
71
3
72
4
73
1
0
SEQEND
8
OBJECT__64
0
POLYLINE
8
OBJECT__65
66
1
70
64
71
4
72
2
62
253
0
VERTEX
8
OBJECT__65
10
-53.000000
20
444.282990
30
-470.548004
70
192
0
VERTEX
8
OBJECT__65
10
-53.000000
20
444.282990
30
-540.547974
70
192
0
VERTEX
8
OBJECT__65
10
-60.500000
20
444.282990
30
-540.547974
70
192
0
VERTEX
8
OBJECT__65
10
-60.500000
20
444.282990
30
-470.548004
70
192
0
VERTEX
8
OBJECT__65
10
0
20
0
30
0
70
128
71
1
72
2
73
3
0
VERTEX
8
OBJECT__65
10
0
20
0
30
0
70
128
71
3
72
4
73
1
0
SEQEND
8
OBJECT__65
0
POLYLINE
8
OBJECT__66
66
1
70
64
71
4
72
2
62
253
0
VERTEX
8
OBJECT__66
10
-60.500000
20
444.282990
30
-540.547974
70
192
0
VERTEX
8
OBJECT__66
10
-63.500000
20
441.282990
30
-540.547974
70
192
0
VERTEX
8
OBJECT__66
10
-63.500000
20
441.282990
30
-470.548004
70
192
0
VERTEX
8
OBJECT__66
10
-60.500000
20
444.282990
30
-470.548004
70
192
0
VERTEX
8
OBJECT__66
10
0
20
0
30
0
70
128
71
1
72
2
73
3
0
VERTEX
8
OBJECT__66
10
0
20
0
30
0
70
128
71
3
72
4
73
1
0
SEQEND
8
OBJECT__66
0
POLYLINE
8
OBJECT__67
66
1
70
64
71
4
72
2
62
253
0
VERTEX
8
OBJECT__67
10
-63.500000
20
441.282990
30
-470.548004
70
192
0
VERTEX
8
OBJECT__67
10
-63.500000
20
441.282990
30
-540.547974
70
192
0
VERTEX
8
OBJECT__67
10
-63.500000
20
417.282990
30
-540.547974
70
192
0
VERTEX
8
OBJECT__67
10
-63.500000
20
417.282990
30
-470.548004
70
192
0
VERTEX
8
OBJECT__67
10
0
20
0
30
0
70
128
71
1
72
2
73
3
0
VERTEX
8
OBJECT__67
10
0
20
0
30
0
70
128
71
3
72
4
73
1
0
SEQEND
8
OBJECT__67
0
POLYLINE
8
OBJECT__68
66
1
70
64
71
12
72
10
62
253
0
VERTEX
8
OBJECT__68
10
-63.500000
20
441.282990
30
-470.548004
70
192
0
VERTEX
8
OBJECT__68
10
-61.500000
20
441.282990
30
-470.548004
70
192
0
VERTEX
8
OBJECT__68
10
-60.500000
20
442.282990
30
-470.548004
70
192
0
VERTEX
8
OBJECT__68
10
-63.500000
20
417.282990
30
-470.548004
70
192
0
VERTEX
8
OBJECT__68
10
-61.500000
20
417.282990
30
-470.548004
70
192
0
VERTEX
8
OBJECT__68
10
-60.500000
20
444.282990
30
-470.548004
70
192
0
VERTEX
8
OBJECT__68
10
-53.000000
20
442.282990
30
-470.548004
70
192
0
VERTEX
8
OBJECT__68
10
-50.000000
20
445.282990
30
-470.548004
70
192
0
VERTEX
8
OBJECT__68
10
-52.000000
20
445.282990
30
-470.548004
70
192
0
VERTEX
8
OBJECT__68
10
-53.000000
20
444.282990
30
-470.548004
70
192
0
VERTEX
8
OBJECT__68
10
-50.000000
20
453.282990
30
-470.548004
70
192
0
VERTEX
8
OBJECT__68
10
-52.000000
20
453.282990
30
-470.548004
70
192
0
VERTEX
8
OBJECT__68
10
0
20
0
30
0
70
128
71
1
72
2
73
3
0
VERTEX
8
OBJECT__68
10
0
20
0
30
0
70
128
71
1
72
4
73
5
0
VERTEX
8
OBJECT__68
10
0
20
0
30
0
70
128
71
6
72
3
73
7
0
VERTEX
8
OBJECT__68
10
0
20
0
30
0
70
128
71
5
72
2
73
1
0
VERTEX
8
OBJECT__68
10
0
20
0
30
0
70
128
71
8
72
9
73
10
0
VERTEX
8
OBJECT__68
10
0
20
0
30
0
70
128
71
9
72
8
73
11
0
VERTEX
8
OBJECT__68
10
0
20
0
30
0
70
128
71
3
72
6
73
1
0
VERTEX
8
OBJECT__68
10
0
20
0
30
0
70
128
71
11
72
12
73
9
0
VERTEX
8
OBJECT__68
10
0
20
0
30
0
70
128
71
10
72
7
73
8
0
VERTEX
8
OBJECT__68
10
0
20
0
30
0
70
128
71
7
72
10
73
6
0
SEQEND
8
OBJECT__68
0
POLYLINE
8
OBJECT__69
66
1
70
64
71
12
72
10
62
253
0
VERTEX
8
OBJECT__69
10
-52.000000
20
453.282990
30
-540.547974
70
192
0
VERTEX
8
OBJECT__69
10
-50.000000
20
453.282990
30
-540.547974
70
192
0
VERTEX
8
OBJECT__69
10
-50.000000
20
445.282990
30
-540.547974
70
192
0
VERTEX
8
OBJECT__69
10
-53.000000
20
442.282990
30
-540.547974
70
192
0
VERTEX
8
OBJECT__69
10
-53.000000
20
444.282990
30
-540.547974
70
192
0
VERTEX
8
OBJECT__69
10
-61.500000
20
417.282990
30
-540.547974
70
192
0
VERTEX
8
OBJECT__69
10
-63.500000
20
417.282990
30
-540.547974
70
192
0
VERTEX
8
OBJECT__69
10
-63.500000
20
441.282990
30
-540.547974
70
192
0
VERTEX
8
OBJECT__69
10
-60.500000
20
444.282990
30
-540.547974
70
192
0
VERTEX
8
OBJECT__69
10
-60.500000
20
442.282990
30
-540.547974
70
192
0
VERTEX
8
OBJECT__69
10
-52.000000
20
445.282990
30
-540.547974
70
192
0
VERTEX
8
OBJECT__69
10
-61.500000
20
441.282990
30
-540.547974
70
192
0
VERTEX
8
OBJECT__69
10
0
20
0
30
0
70
128
71
1
72
2
73
3
0
VERTEX
8
OBJECT__69
10
0
20
0
30
0
70
128
71
3
72
4
73
5
0
VERTEX
8
OBJECT__69
10
0
20
0
30
0
70
128
71
6
72
7
73
8
0
VERTEX
8
OBJECT__69
10
0
20
0
30
0
70
128
71
8
72
9
73
10
0
VERTEX
8
OBJECT__69
10
0
20
0
30
0
70
128
71
5
72
11
73
3
0
VERTEX
8
OBJECT__69
10
0
20
0
30
0
70
128
71
9
72
5
73
4
0
VERTEX
8
OBJECT__69
10
0
20
0
30
0
70
128
71
10
72
12
73
8
0
VERTEX
8
OBJECT__69
10
0
20
0
30
0
70
128
71
4
72
10
73
9
0
VERTEX
8
OBJECT__69
10
0
20
0
30
0
70
128
71
3
72
11
73
1
0
VERTEX
8
OBJECT__69
10
0
20
0
30
0
70
128
71
8
72
12
73
6
0
SEQEND
8
OBJECT__69
0
POLYLINE
8
OBJECT__70
66
1
70
64
71
4
72
2
62
253
0
VERTEX
8
OBJECT__70
10
-50.000000
20
445.282990
30
-540.547974
70
192
0
VERTEX
8
OBJECT__70
10
-50.000000
20
445.282990
30
-470.548004
70
192
0
VERTEX
8
OBJECT__70
10
-53.000000
20
442.282990
30
-470.548004
70
192
0
VERTEX
8
OBJECT__70
10
-53.000000
20
442.282990
30
-540.547974
70
192
0
VERTEX
8
OBJECT__70
10
0
20
0
30
0
70
128
71
1
72
2
73
3
0
VERTEX
8
OBJECT__70
10
0
20
0
30
0
70
128
71
3
72
4
73
1
0
SEQEND
8
OBJECT__70
0
POLYLINE
8
OBJECT__71
66
1
70
64
71
4
72
2
62
253
0
VERTEX
8
OBJECT__71
10
-60.500000
20
442.282990
30
-540.547974
70
192
0
VERTEX
8
OBJECT__71
10
-53.000000
20
442.282990
30
-540.547974
70
192
0
VERTEX
8
OBJECT__71
10
-53.000000
20
442.282990
30
-470.548004
70
192
0
VERTEX
8
OBJECT__71
10
-60.500000
20
442.282990
30
-470.548004
70
192
0
VERTEX
8
OBJECT__71
10
0
20
0
30
0
70
128
71
1
72
2
73
3
0
VERTEX
8
OBJECT__71
10
0
20
0
30
0
70
128
71
3
72
4
73
1
0
SEQEND
8
OBJECT__71
0
POLYLINE
8
OBJECT__72
66
1
70
64
71
4
72
2
62
253
0
VERTEX
8
OBJECT__72
10
-55.500000
20
438.282990
30
-541.547974
70
192
0
VERTEX
8
OBJECT__72
10
-55.500000
20
438.282990
30
-469.548004
70
192
0
VERTEX
8
OBJECT__72
10
-55.500000
20
-6.717000
30
-469.548004
70
192
0
VERTEX
8
OBJECT__72
10
-55.500000
20
-6.717000
30
-541.547974
70
192
0
VERTEX
8
OBJECT__72
10
0
20
0
30
0
70
128
71
1
72
2
73
3
0
VERTEX
8
OBJECT__72
10
0
20
0
30
0
70
128
71
3
72
4
73
1
0
SEQEND
8
OBJECT__72
0
POLYLINE
8
OBJECT__73
66
1
70
64
71
4
72
2
62
253
0
VERTEX
8
OBJECT__73
10
-59.500000
20
438.282990
30
-545.547974
70
192
0
VERTEX
8
OBJECT__73
10
-55.500000
20
438.282990
30
-541.547974
70
192
0
VERTEX
8
OBJECT__73
10
-55.500000
20
-6.717000
30
-541.547974
70
192
0
VERTEX
8
OBJECT__73
10
-59.500000
20
-6.717000
30
-545.547974
70
192
0
VERTEX
8
OBJECT__73
10
0
20
0
30
0
70
128
71
1
72
2
73
3
0
VERTEX
8
OBJECT__73
10
0
20
0
30
0
70
128
71
3
72
4
73
1
0
SEQEND
8
OBJECT__73
0
POLYLINE
8
OBJECT__75
66
1
70
64
71
6
72
4
62
253
0
VERTEX
8
OBJECT__75
10
-56.672001
20
438.282990
30
-466.718994
70
192
0
VERTEX
8
OBJECT__75
10
-56.672001
20
-6.717000
30
-466.718994
70
192
0
VERTEX
8
OBJECT__75
10
-55.500000
20
-6.717000
30
-469.548004
70
192
0
VERTEX
8
OBJECT__75
10
-59.500000
20
438.282990
30
-465.548004
70
192
0
VERTEX
8
OBJECT__75
10
-59.500000
20
-6.717000
30
-465.548004
70
192
0
VERTEX
8
OBJECT__75
10
-55.500000
20
438.282990
30
-469.548004
70
192
0
VERTEX
8
OBJECT__75
10
0
20
0
30
0
70
128
71
1
72
2
73
3
0
VERTEX
8
OBJECT__75
10
0
20
0
30
0
70
128
71
4
72
5
73
2
0
VERTEX
8
OBJECT__75
10
0
20
0
30
0
70
128
71
2
72
1
73
4
0
VERTEX
8
OBJECT__75
10
0
20
0
30
0
70
128
71
3
72
6
73
1
0
SEQEND
8
OBJECT__75
0
POLYLINE
8
OBJECT__76
66
1
70
64
71
6
72
4
62
253
0
VERTEX
8
OBJECT__76
10
-59.500000
20
438.282990
30
-545.547974
70
192
0
VERTEX
8
OBJECT__76
10
-67.500000
20
-6.717000
30
-545.547974
70
192
0
VERTEX
8
OBJECT__76
10
-70.500000
20
-3.717000
30
-545.547974
70
192
0
VERTEX
8
OBJECT__76
10
-59.500000
20
-6.717000
30
-545.547974
70
192
0
VERTEX
8
OBJECT__76
10
-70.500000
20
435.282990
30
-545.547974
70
192
0
VERTEX
8
OBJECT__76
10
-67.500000
20
438.282990
30
-545.547974
70
192
0
VERTEX
8
OBJECT__76
10
0
20
0
30
0
70
128
71
1
72
2
73
3
0
VERTEX
8
OBJECT__76
10
0
20
0
30
0
70
128
71
1
72
4
73
2
0
VERTEX
8
OBJECT__76
10
0
20
0
30
0
70
128
71
3
72
5
73
1
0
VERTEX
8
OBJECT__76
10
0
20
0
30
0
70
128
71
5
72
6
73
1
0
SEQEND
8
OBJECT__76
0
POLYLINE
8
OBJECT__77
66
1
70
64
71
4
72
2
62
253
0
VERTEX
8
OBJECT__77
10
-70.500000
20
435.282990
30
-545.547974
70
192
0
VERTEX
8
OBJECT__77
10
-70.500000
20
-3.717000
30
-545.547974
70
192
0
VERTEX
8
OBJECT__77
10
-70.500000
20
-3.717000
30
-543.547974
70
192
0
VERTEX
8
OBJECT__77
10
-70.500000
20
435.282990
30
-543.547974
70
192
0
VERTEX
8
OBJECT__77
10
0
20
0
30
0
70
128
71
1
72
2
73
3
0
VERTEX
8
OBJECT__77
10
0
20
0
30
0
70
128
71
3
72
4
73
1
0
SEQEND
8
OBJECT__77
0
POLYLINE
8
OBJECT__78
66
1
70
64
71
4
72
2
62
253
0
VERTEX
8
OBJECT__78
10
-70.500000
20
435.282990
30
-545.547974
70
192
0
VERTEX
8
OBJECT__78
10
-70.500000
20
435.282990
30
-543.547974
70
192
0
VERTEX
8
OBJECT__78
10
-67.500000
20
438.282990
30
-543.547974
70
192
0
VERTEX
8
OBJECT__78
10
-67.500000
20
438.282990
30
-545.547974
70
192
0
VERTEX
8
OBJECT__78
10
0
20
0
30
0
70
128
71
1
72
2
73
3
0
VERTEX
8
OBJECT__78
10
0
20
0
30
0
70
128
71
3
72
4
73
1
0
SEQEND
8
OBJECT__78
0
POLYLINE
8
OBJECT__79
66
1
70
64
71
4
72
2
62
253
0
VERTEX
8
OBJECT__79
10
-67.500000
20
-6.717000
30
-543.547974
70
192
0
VERTEX
8
OBJECT__79
10
-70.500000
20
-3.717000
30
-543.547974
70
192
0
VERTEX
8
OBJECT__79
10
-70.500000
20
-3.717000
30
-545.547974
70
192
0
VERTEX
8
OBJECT__79
10
-67.500000
20
-6.717000
30
-545.547974
70
192
0
VERTEX
8
OBJECT__79
10
0
20
0
30
0
70
128
71
1
72
2
73
3
0
VERTEX
8
OBJECT__79
10
0
20
0
30
0
70
128
71
3
72
4
73
1
0
SEQEND
8
OBJECT__79
0
POLYLINE
8
OBJECT__80
66
1
70
64
71
6
72
4
62
253
0
VERTEX
8
OBJECT__80
10
-59.500000
20
-6.717000
30
-543.547974
70
192
0
VERTEX
8
OBJECT__80
10
-67.500000
20
438.282990
30
-543.547974
70
192
0
VERTEX
8
OBJECT__80
10
-70.500000
20
435.282990
30
-543.547974
70
192
0
VERTEX
8
OBJECT__80
10
-70.500000
20
-3.717000
30
-543.547974
70
192
0
VERTEX
8
OBJECT__80
10
-59.500000
20
438.282990
30
-543.547974
70
192
0
VERTEX
8
OBJECT__80
10
-67.500000
20
-6.717000
30
-543.547974
70
192
0
VERTEX
8
OBJECT__80
10
0
20
0
30
0
70
128
71
1
72
2
73
3
0
VERTEX
8
OBJECT__80
10
0
20
0
30
0
70
128
71
3
72
4
73
1
0
VERTEX
8
OBJECT__80
10
0
20
0
30
0
70
128
71
1
72
5
73
2
0
VERTEX
8
OBJECT__80
10
0
20
0
30
0
70
128
71
4
72
6
73
1
0
SEQEND
8
OBJECT__80
0
POLYLINE
8
OBJECT__81
66
1
70
64
71
4
72
2
62
253
0
VERTEX
8
OBJECT__81
10
-57.500000
20
-6.717000
30
-541.547974
70
192
0
VERTEX
8
OBJECT__81
10
-57.500000
20
438.282990
30
-541.547974
70
192
0
VERTEX
8
OBJECT__81
10
-59.500000
20
438.282990
30
-543.547974
70
192
0
VERTEX
8
OBJECT__81
10
-59.500000
20
-6.717000
30
-543.547974
70
192
0
VERTEX
8
OBJECT__81
10
0
20
0
30
0
70
128
71
1
72
2
73
3
0
VERTEX
8
OBJECT__81
10
0
20
0
30
0
70
128
71
3
72
4
73
1
0
SEQEND
8
OBJECT__81
0
POLYLINE
8
OBJECT__82
66
1
70
64
71
4
72
2
62
253
0
VERTEX
8
OBJECT__82
10
-57.500000
20
438.282990
30
-541.547974
70
192
0
VERTEX
8
OBJECT__82
10
-57.500000
20
-6.717000
30
-541.547974
70
192
0
VERTEX
8
OBJECT__82
10
-57.500000
20
-6.717000
30
-469.548004
70
192
0
VERTEX
8
OBJECT__82
10
-57.500000
20
438.282990
30
-469.548004
70
192
0
VERTEX
8
OBJECT__82
10
0
20
0
30
0
70
128
71
1
72
2
73
3
0
VERTEX
8
OBJECT__82
10
0
20
0
30
0
70
128
71
3
72
4
73
1
0
SEQEND
8
OBJECT__82
0
POLYLINE
8
OBJECT__83
66
1
70
64
71
6
72
4
62
253
0
VERTEX
8
OBJECT__83
10
-58.085999
20
-6.717000
30
-468.132996
70
192
0
VERTEX
8
OBJECT__83
10
-59.500000
20
-6.717000
30
-467.548004
70
192
0
VERTEX
8
OBJECT__83
10
-59.500000
20
438.282990
30
-467.548004
70
192
0
VERTEX
8
OBJECT__83
10
-57.500000
20
-6.717000
30
-469.548004
70
192
0
VERTEX
8
OBJECT__83
10
-58.085999
20
438.282990
30
-468.132996
70
192
0
VERTEX
8
OBJECT__83
10
-57.500000
20
438.282990
30
-469.548004
70
192
0
VERTEX
8
OBJECT__83
10
0
20
0
30
0
70
128
71
1
72
2
73
3
0
VERTEX
8
OBJECT__83
10
0
20
0
30
0
70
128
71
4
72
1
73
5
0
VERTEX
8
OBJECT__83
10
0
20
0
30
0
70
128
71
5
72
6
73
4
0
VERTEX
8
OBJECT__83
10
0
20
0
30
0
70
128
71
3
72
5
73
1
0
SEQEND
8
OBJECT__83
0
POLYLINE
8
OBJECT__84
66
1
70
64
71
14
72
12
62
253
0
VERTEX
8
OBJECT__84
10
-55.500000
20
-6.717000
30
-469.548004
70
192
0
VERTEX
8
OBJECT__84
10
-57.500000
20
-6.717000
30
-469.548004
70
192
0
VERTEX
8
OBJECT__84
10
-57.500000
20
-6.717000
30
-541.547974
70
192
0
VERTEX
8
OBJECT__84
10
-56.672001
20
-6.717000
30
-466.718994
70
192
0
VERTEX
8
OBJECT__84
10
-58.085999
20
-6.717000
30
-468.132996
70
192
0
VERTEX
8
OBJECT__84
10
-59.500000
20
-6.717000
30
-465.548004
70
192
0
VERTEX
8
OBJECT__84
10
-59.500000
20
-6.717000
30
-467.548004
70
192
0
VERTEX
8
OBJECT__84
10
-67.500000
20
-6.717000
30
-465.548004
70
192
0
VERTEX
8
OBJECT__84
10
-59.500000
20
-6.717000
30
-545.547974
70
192
0
VERTEX
8
OBJECT__84
10
-59.500000
20
-6.717000
30
-543.547974
70
192
0
VERTEX
8
OBJECT__84
10
-67.500000
20
-6.717000
30
-543.547974
70
192
0
VERTEX
8
OBJECT__84
10
-55.500000
20
-6.717000
30
-541.547974
70
192
0
VERTEX
8
OBJECT__84
10
-67.500000
20
-6.717000
30
-467.548004
70
192
0
VERTEX
8
OBJECT__84
10
-67.500000
20
-6.717000
30
-545.547974
70
192
0
VERTEX
8
OBJECT__84
10
0
20
0
30
0
70
128
71
1
72
2
73
3
0
VERTEX
8
OBJECT__84
10
0
20
0
30
0
70
128
71
1
72
4
73
5
0
VERTEX
8
OBJECT__84
10
0
20
0
30
0
70
128
71
6
72
7
73
5
0
VERTEX
8
OBJECT__84
10
0
20
0
30
0
70
128
71
7
72
6
73
8
0
VERTEX
8
OBJECT__84
10
0
20
0
30
0
70
128
71
9
72
10
73
11
0
VERTEX
8
OBJECT__84
10
0
20
0
30
0
70
128
71
9
72
12
73
3
0
VERTEX
8
OBJECT__84
10
0
20
0
30
0
70
128
71
5
72
2
73
1
0
VERTEX
8
OBJECT__84
10
0
20
0
30
0
70
128
71
8
72
13
73
7
0
VERTEX
8
OBJECT__84
10
0
20
0
30
0
70
128
71
3
72
10
73
9
0
VERTEX
8
OBJECT__84
10
0
20
0
30
0
70
128
71
5
72
4
73
6
0
VERTEX
8
OBJECT__84
10
0
20
0
30
0
70
128
71
3
72
12
73
1
0
VERTEX
8
OBJECT__84
10
0
20
0
30
0
70
128
71
11
72
14
73
9
0
SEQEND
8
OBJECT__84
0
POLYLINE
8
OBJECT__85
66
1
70
64
71
14
72
12
62
253
0
VERTEX
8
OBJECT__85
10
-56.672001
20
438.282990
30
-466.718994
70
192
0
VERTEX
8
OBJECT__85
10
-55.500000
20
438.282990
30
-469.548004
70
192
0
VERTEX
8
OBJECT__85
10
-57.500000
20
438.282990
30
-469.548004
70
192
0
VERTEX
8
OBJECT__85
10
-57.500000
20
438.282990
30
-541.547974
70
192
0
VERTEX
8
OBJECT__85
10
-67.500000
20
438.282990
30
-465.548004
70
192
0
VERTEX
8
OBJECT__85
10
-59.500000
20
438.282990
30
-465.548004
70
192
0
VERTEX
8
OBJECT__85
10
-59.500000
20
438.282990
30
-467.548004
70
192
0
VERTEX
8
OBJECT__85
10
-58.085999
20
438.282990
30
-468.132996
70
192
0
VERTEX
8
OBJECT__85
10
-55.500000
20
438.282990
30
-541.547974
70
192
0
VERTEX
8
OBJECT__85
10
-59.500000
20
438.282990
30
-545.547974
70
192
0
VERTEX
8
OBJECT__85
10
-59.500000
20
438.282990
30
-543.547974
70
192
0
VERTEX
8
OBJECT__85
10
-67.500000
20
438.282990
30
-543.547974
70
192
0
VERTEX
8
OBJECT__85
10
-67.500000
20
438.282990
30
-545.547974
70
192
0
VERTEX
8
OBJECT__85
10
-67.500000
20
438.282990
30
-467.548004
70
192
0
VERTEX
8
OBJECT__85
10
0
20
0
30
0
70
128
71
1
72
2
73
3
0
VERTEX
8
OBJECT__85
10
0
20
0
30
0
70
128
71
4
72
3
73
2
0
VERTEX
8
OBJECT__85
10
0
20
0
30
0
70
128
71
5
72
6
73
7
0
VERTEX
8
OBJECT__85
10
0
20
0
30
0
70
128
71
1
72
8
73
7
0
VERTEX
8
OBJECT__85
10
0
20
0
30
0
70
128
71
2
72
9
73
4
0
VERTEX
8
OBJECT__85
10
0
20
0
30
0
70
128
71
9
72
10
73
11
0
VERTEX
8
OBJECT__85
10
0
20
0
30
0
70
128
71
7
72
6
73
1
0
VERTEX
8
OBJECT__85
10
0
20
0
30
0
70
128
71
11
72
4
73
9
0
VERTEX
8
OBJECT__85
10
0
20
0
30
0
70
128
71
3
72
8
73
1
0
VERTEX
8
OBJECT__85
10
0
20
0
30
0
70
128
71
12
72
11
73
10
0
VERTEX
8
OBJECT__85
10
0
20
0
30
0
70
128
71
10
72
13
73
12
0
VERTEX
8
OBJECT__85
10
0
20
0
30
0
70
128
71
7
72
14
73
5
0
SEQEND
8
OBJECT__85
0
POLYLINE
8
OBJECT__86
66
1
70
64
71
6
72
4
62
253
0
VERTEX
8
OBJECT__86
10
-59.500000
20
-6.717000
30
-465.548004
70
192
0
VERTEX
8
OBJECT__86
10
-59.500000
20
438.282990
30
-465.548004
70
192
0
VERTEX
8
OBJECT__86
10
-70.500000
20
435.282990
30
-465.548004
70
192
0
VERTEX
8
OBJECT__86
10
-67.500000
20
438.282990
30
-465.548004
70
192
0
VERTEX
8
OBJECT__86
10
-70.500000
20
-3.717000
30
-465.548004
70
192
0
VERTEX
8
OBJECT__86
10
-67.500000
20
-6.717000
30
-465.548004
70
192
0
VERTEX
8
OBJECT__86
10
0
20
0
30
0
70
128
71
1
72
2
73
3
0
VERTEX
8
OBJECT__86
10
0
20
0
30
0
70
128
71
2
72
4
73
3
0
VERTEX
8
OBJECT__86
10
0
20
0
30
0
70
128
71
3
72
5
73
1
0
VERTEX
8
OBJECT__86
10
0
20
0
30
0
70
128
71
5
72
6
73
1
0
SEQEND
8
OBJECT__86
0
POLYLINE
8
OBJECT__87
66
1
70
64
71
6
72
4
62
253
0
VERTEX
8
OBJECT__87
10
-59.500000
20
438.282990
30
-467.548004
70
192
0
VERTEX
8
OBJECT__87
10
-67.500000
20
-6.717000
30
-467.548004
70
192
0
VERTEX
8
OBJECT__87
10
-70.500000
20
-3.717000
30
-467.548004
70
192
0
VERTEX
8
OBJECT__87
10
-70.500000
20
435.282990
30
-467.548004
70
192
0
VERTEX
8
OBJECT__87
10
-59.500000
20
-6.717000
30
-467.548004
70
192
0
VERTEX
8
OBJECT__87
10
-67.500000
20
438.282990
30
-467.548004
70
192
0
VERTEX
8
OBJECT__87
10
0
20
0
30
0
70
128
71
1
72
2
73
3
0
VERTEX
8
OBJECT__87
10
0
20
0
30
0
70
128
71
3
72
4
73
1
0
VERTEX
8
OBJECT__87
10
0
20
0
30
0
70
128
71
1
72
5
73
2
0
VERTEX
8
OBJECT__87
10
0
20
0
30
0
70
128
71
4
72
6
73
1
0
SEQEND
8
OBJECT__87
0
POLYLINE
8
OBJECT__88
66
1
70
64
71
4
72
2
62
253
0
VERTEX
8
OBJECT__88
10
-70.500000
20
435.282990
30
-467.548004
70
192
0
VERTEX
8
OBJECT__88
10
-70.500000
20
-3.717000
30
-467.548004
70
192
0
VERTEX
8
OBJECT__88
10
-70.500000
20
-3.717000
30
-465.548004
70
192
0
VERTEX
8
OBJECT__88
10
-70.500000
20
435.282990
30
-465.548004
70
192
0
VERTEX
8
OBJECT__88
10
0
20
0
30
0
70
128
71
1
72
2
73
3
0
VERTEX
8
OBJECT__88
10
0
20
0
30
0
70
128
71
3
72
4
73
1
0
SEQEND
8
OBJECT__88
0
POLYLINE
8
OBJECT__89
66
1
70
64
71
4
72
2
62
253
0
VERTEX
8
OBJECT__89
10
-67.500000
20
438.282990
30
-465.548004
70
192
0
VERTEX
8
OBJECT__89
10
-67.500000
20
438.282990
30
-467.548004
70
192
0
VERTEX
8
OBJECT__89
10
-70.500000
20
435.282990
30
-467.548004
70
192
0
VERTEX
8
OBJECT__89
10
-70.500000
20
435.282990
30
-465.548004
70
192
0
VERTEX
8
OBJECT__89
10
0
20
0
30
0
70
128
71
1
72
2
73
3
0
VERTEX
8
OBJECT__89
10
0
20
0
30
0
70
128
71
3
72
4
73
1
0
SEQEND
8
OBJECT__89
0
POLYLINE
8
OBJECT__90
66
1
70
64
71
4
72
2
62
253
0
VERTEX
8
OBJECT__90
10
-70.500000
20
-3.717000
30
-467.548004
70
192
0
VERTEX
8
OBJECT__90
10
-67.500000
20
-6.717000
30
-467.548004
70
192
0
VERTEX
8
OBJECT__90
10
-67.500000
20
-6.717000
30
-465.548004
70
192
0
VERTEX
8
OBJECT__90
10
-70.500000
20
-3.717000
30
-465.548004
70
192
0
VERTEX
8
OBJECT__90
10
0
20
0
30
0
70
128
71
1
72
2
73
3
0
VERTEX
8
OBJECT__90
10
0
20
0
30
0
70
128
71
3
72
4
73
1
0
SEQEND
8
OBJECT__90
0
POLYLINE
8
OBJECT__91
66
1
70
64
71
4
72
2
62
253
0
VERTEX
8
OBJECT__91
10
-48.099998
20
55.783001
30
-1080.547974
70
192
0
VERTEX
8
OBJECT__91
10
-48.099998
20
55.783001
30
-1077.547974
70
192
0
VERTEX
8
OBJECT__91
10
-3.700000
20
55.783001
30
-1077.547974
70
192
0
VERTEX
8
OBJECT__91
10
-3.700000
20
55.783001
30
-1080.547974
70
192
0
VERTEX
8
OBJECT__91
10
0
20
0
30
0
70
128
71
1
72
2
73
3
0
VERTEX
8
OBJECT__91
10
0
20
0
30
0
70
128
71
3
72
4
73
1
0
SEQEND
8
OBJECT__91
0
POLYLINE
8
OBJECT__92
66
1
70
64
71
4
72
2
62
253
0
VERTEX
8
OBJECT__92
10
-1.700000
20
53.783001
30
-1077.547974
70
192
0
VERTEX
8
OBJECT__92
10
-1.700000
20
53.783001
30
-1080.547974
70
192
0
VERTEX
8
OBJECT__92
10
-3.700000
20
55.783001
30
-1080.547974
70
192
0
VERTEX
8
OBJECT__92
10
-3.700000
20
55.783001
30
-1077.547974
70
192
0
VERTEX
8
OBJECT__92
10
0
20
0
30
0
70
128
71
1
72
2
73
3
0
VERTEX
8
OBJECT__92
10
0
20
0
30
0
70
128
71
3
72
4
73
1
0
SEQEND
8
OBJECT__92
0
POLYLINE
8
OBJECT__94
66
1
70
64
71
4
72
2
62
253
0
VERTEX
8
OBJECT__94
10
-1.700000
20
53.783001
30
-1080.547974
70
192
0
VERTEX
8
OBJECT__94
10
-1.700000
20
53.783001
30
-1077.547974
70
192
0
VERTEX
8
OBJECT__94
10
-1.700000
20
-32.216999
30
-1077.547974
70
192
0
VERTEX
8
OBJECT__94
10
-1.700000
20
-32.216999
30
-1080.547974
70
192
0
VERTEX
8
OBJECT__94
10
0
20
0
30
0
70
128
71
1
72
2
73
3
0
VERTEX
8
OBJECT__94
10
0
20
0
30
0
70
128
71
3
72
4
73
1
0
SEQEND
8
OBJECT__94
0
POLYLINE
8
OBJECT__95
66
1
70
64
71
12
72
10
62
253
0
VERTEX
8
OBJECT__95
10
-45.099998
20
-32.216999
30
-1077.547974
70
192
0
VERTEX
8
OBJECT__95
10
-45.099998
20
-32.219002
30
-1077.547974
70
192
0
VERTEX
8
OBJECT__95
10
-3.700000
20
-34.216999
30
-1077.547974
70
192
0
VERTEX
8
OBJECT__95
10
-1.700000
20
53.783001
30
-1077.547974
70
192
0
VERTEX
8
OBJECT__95
10
-45.099998
20
53.783001
30
-1077.547974
70
192
0
VERTEX
8
OBJECT__95
10
-1.700000
20
-32.216999
30
-1077.547974
70
192
0
VERTEX
8
OBJECT__95
10
-3.700000
20
55.783001
30
-1077.547974
70
192
0
VERTEX
8
OBJECT__95
10
-45.099998
20
53.785000
30
-1077.547974
70
192
0
VERTEX
8
OBJECT__95
10
-48.099998
20
55.783001
30
-1077.547974
70
192
0
VERTEX
8
OBJECT__95
10
-50.099998
20
53.785000
30
-1077.547974
70
192
0
VERTEX
8
OBJECT__95
10
-48.099998
20
-34.216999
30
-1077.547974
70
192
0
VERTEX
8
OBJECT__95
10
-50.099998
20
-32.219002
30
-1077.547974
70
192
0
VERTEX
8
OBJECT__95
10
0
20
0
30
0
70
128
71
1
72
2
73
3
0
VERTEX
8
OBJECT__95
10
0
20
0
30
0
70
128
71
4
72
5
73
1
0
VERTEX
8
OBJECT__95
10
0
20
0
30
0
70
128
71
1
72
6
73
4
0
VERTEX
8
OBJECT__95
10
0
20
0
30
0
70
128
71
5
72
4
73
7
0
VERTEX
8
OBJECT__95
10
0
20
0
30
0
70
128
71
7
72
8
73
5
0
VERTEX
8
OBJECT__95
10
0
20
0
30
0
70
128
71
9
72
10
73
8
0
VERTEX
8
OBJECT__95
10
0
20
0
30
0
70
128
71
11
72
3
73
2
0
VERTEX
8
OBJECT__95
10
0
20
0
30
0
70
128
71
8
72
7
73
9
0
VERTEX
8
OBJECT__95
10
0
20
0
30
0
70
128
71
3
72
6
73
1
0
VERTEX
8
OBJECT__95
10
0
20
0
30
0
70
128
71
2
72
12
73
11
0
SEQEND
8
OBJECT__95
0
POLYLINE
8
OBJECT__96
66
1
70
64
71
4
72
2
62
253
0
VERTEX
8
OBJECT__96
10
-48.099998
20
-34.216999
30
-1080.547974
70
192
0
VERTEX
8
OBJECT__96
10
-3.700000
20
-34.216999
30
-1080.547974
70
192
0
VERTEX
8
OBJECT__96
10
-3.700000
20
-34.216999
30
-1077.547974
70
192
0
VERTEX
8
OBJECT__96
10
-48.099998
20
-34.216999
30
-1077.547974
70
192
0
VERTEX
8
OBJECT__96
10
0
20
0
30
0
70
128
71
1
72
2
73
3
0
VERTEX
8
OBJECT__96
10
0
20
0
30
0
70
128
71
3
72
4
73
1
0
SEQEND
8
OBJECT__96
0
POLYLINE
8
OBJECT__97
66
1
70
64
71
4
72
2
62
253
0
VERTEX
8
OBJECT__97
10
-50.099998
20
-32.219002
30
-1077.547974
70
192
0
VERTEX
8
OBJECT__97
10
-50.099998
20
-32.219002
30
-1080.547974
70
192
0
VERTEX
8
OBJECT__97
10
-48.099998
20
-34.216999
30
-1080.547974
70
192
0
VERTEX
8
OBJECT__97
10
-48.099998
20
-34.216999
30
-1077.547974
70
192
0
VERTEX
8
OBJECT__97
10
0
20
0
30
0
70
128
71
1
72
2
73
3
0
VERTEX
8
OBJECT__97
10
0
20
0
30
0
70
128
71
3
72
4
73
1
0
SEQEND
8
OBJECT__97
0
POLYLINE
8
OBJECT__98
66
1
70
64
71
12
72
10
62
253
0
VERTEX
8
OBJECT__98
10
-1.700000
20
53.783001
30
-1080.547974
70
192
0
VERTEX
8
OBJECT__98
10
-1.700000
20
-32.216999
30
-1080.547974
70
192
0
VERTEX
8
OBJECT__98
10
-45.099998
20
-32.216999
30
-1080.547974
70
192
0
VERTEX
8
OBJECT__98
10
-3.700000
20
-34.216999
30
-1080.547974
70
192
0
VERTEX
8
OBJECT__98
10
-45.099998
20
53.783001
30
-1080.547974
70
192
0
VERTEX
8
OBJECT__98
10
-45.099998
20
53.785000
30
-1080.547974
70
192
0
VERTEX
8
OBJECT__98
10
-3.700000
20
55.783001
30
-1080.547974
70
192
0
VERTEX
8
OBJECT__98
10
-45.099998
20
-32.219002
30
-1080.547974
70
192
0
VERTEX
8
OBJECT__98
10
-48.099998
20
55.783001
30
-1080.547974
70
192
0
VERTEX
8
OBJECT__98
10
-48.099998
20
-34.216999
30
-1080.547974
70
192
0
VERTEX
8
OBJECT__98
10
-50.099998
20
-32.219002
30
-1080.547974
70
192
0
VERTEX
8
OBJECT__98
10
-50.099998
20
53.785000
30
-1080.547974
70
192
0
VERTEX
8
OBJECT__98
10
0
20
0
30
0
70
128
71
1
72
2
73
3
0
VERTEX
8
OBJECT__98
10
0
20
0
30
0
70
128
71
3
72
2
73
4
0
VERTEX
8
OBJECT__98
10
0
20
0
30
0
70
128
71
5
72
6
73
7
0
VERTEX
8
OBJECT__98
10
0
20
0
30
0
70
128
71
4
72
8
73
3
0
VERTEX
8
OBJECT__98
10
0
20
0
30
0
70
128
71
9
72
7
73
6
0
VERTEX
8
OBJECT__98
10
0
20
0
30
0
70
128
71
3
72
5
73
1
0
VERTEX
8
OBJECT__98
10
0
20
0
30
0
70
128
71
7
72
1
73
5
0
VERTEX
8
OBJECT__98
10
0
20
0
30
0
70
128
71
10
72
11
73
8
0
VERTEX
8
OBJECT__98
10
0
20
0
30
0
70
128
71
8
72
4
73
10
0
VERTEX
8
OBJECT__98
10
0
20
0
30
0
70
128
71
6
72
12
73
9
0
SEQEND
8
OBJECT__98
0
POLYLINE
8
OBJECT__99
66
1
70
64
71
4
72
2
62
253
0
VERTEX
8
OBJECT__99
10
-45.099998
20
-32.216999
30
-1077.547974
70
192
0
VERTEX
8
OBJECT__99
10
-45.099998
20
53.783001
30
-1077.547974
70
192
0
VERTEX
8
OBJECT__99
10
-47.099998
20
53.783001
30
-1075.547974
70
192
0
VERTEX
8
OBJECT__99
10
-47.099998
20
-32.216999
30
-1075.547974
70
192
0
VERTEX
8
OBJECT__99
10
0
20
0
30
0
70
128
71
1
72
2
73
3
0
VERTEX
8
OBJECT__99
10
0
20
0
30
0
70
128
71
3
72
4
73
1
0
SEQEND
8
OBJECT__99
0
POLYLINE
8
OBJECT__100
66
1
70
64
71
4
72
2
62
253
0
VERTEX
8
OBJECT__100
10
-50.099998
20
53.783001
30
-1075.547974
70
192
0
VERTEX
8
OBJECT__100
10
-45.099998
20
53.783001
30
-1080.547974
70
192
0
VERTEX
8
OBJECT__100
10
-45.099998
20
-32.216999
30
-1080.547974
70
192
0
VERTEX
8
OBJECT__100
10
-50.099998
20
-32.216999
30
-1075.547974
70
192
0
VERTEX
8
OBJECT__100
10
0
20
0
30
0
70
128
71
1
72
2
73
3
0
VERTEX
8
OBJECT__100
10
0
20
0
30
0
70
128
71
3
72
4
73
1
0
SEQEND
8
OBJECT__100
0
POLYLINE
8
OBJECT__101
66
1
70
64
71
6
72
4
62
253
0
VERTEX
8
OBJECT__101
10
-50.099998
20
-32.216999
30
-1050.047974
70
192
0
VERTEX
8
OBJECT__101
10
-50.099998
20
-32.216999
30
-1075.547974
70
192
0
VERTEX
8
OBJECT__101
10
-47.099998
20
-32.216999
30
-1075.547974
70
192
0
VERTEX
8
OBJECT__101
10
-45.099998
20
-32.216999
30
-1080.547974
70
192
0
VERTEX
8
OBJECT__101
10
-45.099998
20
-32.216999
30
-1077.547974
70
192
0
VERTEX
8
OBJECT__101
10
-47.099998
20
-32.216999
30
-1050.047974
70
192
0
VERTEX
8
OBJECT__101
10
0
20
0
30
0
70
128
71
1
72
2
73
3
0
VERTEX
8
OBJECT__101
10
0
20
0
30
0
70
128
71
2
72
4
73
5
0
VERTEX
8
OBJECT__101
10
0
20
0
30
0
70
128
71
5
72
3
73
2
0
VERTEX
8
OBJECT__101
10
0
20
0
30
0
70
128
71
3
72
6
73
1
0
SEQEND
8
OBJECT__101
0
POLYLINE
8
OBJECT__102
66
1
70
64
71
6
72
4
62
253
0
VERTEX
8
OBJECT__102
10
-50.099998
20
53.783001
30
-1075.547974
70
192
0
VERTEX
8
OBJECT__102
10
-47.099998
20
53.783001
30
-1075.547974
70
192
0
VERTEX
8
OBJECT__102
10
-45.099998
20
53.783001
30
-1077.547974
70
192
0
VERTEX
8
OBJECT__102
10
-50.099998
20
53.783001
30
-1050.047974
70
192
0
VERTEX
8
OBJECT__102
10
-47.099998
20
53.783001
30
-1050.047974
70
192
0
VERTEX
8
OBJECT__102
10
-45.099998
20
53.783001
30
-1080.547974
70
192
0
VERTEX
8
OBJECT__102
10
0
20
0
30
0
70
128
71
1
72
2
73
3
0
VERTEX
8
OBJECT__102
10
0
20
0
30
0
70
128
71
1
72
4
73
5
0
VERTEX
8
OBJECT__102
10
0
20
0
30
0
70
128
71
5
72
2
73
1
0
VERTEX
8
OBJECT__102
10
0
20
0
30
0
70
128
71
3
72
6
73
1
0
SEQEND
8
OBJECT__102
0
POLYLINE
8
OBJECT__103
66
1
70
64
71
4
72
2
62
253
0
VERTEX
8
OBJECT__103
10
-47.099998
20
-32.216999
30
-1075.547974
70
192
0
VERTEX
8
OBJECT__103
10
-47.099998
20
53.783001
30
-1075.547974
70
192
0
VERTEX
8
OBJECT__103
10
-47.099998
20
53.783001
30
-1050.047974
70
192
0
VERTEX
8
OBJECT__103
10
-47.099998
20
-32.216999
30
-1050.047974
70
192
0
VERTEX
8
OBJECT__103
10
0
20
0
30
0
70
128
71
1
72
2
73
3
0
VERTEX
8
OBJECT__103
10
0
20
0
30
0
70
128
71
3
72
4
73
1
0
SEQEND
8
OBJECT__103
0
POLYLINE
8
OBJECT__104
66
1
70
64
71
4
72
2
62
253
0
VERTEX
8
OBJECT__104
10
-50.099998
20
53.783001
30
-1050.047974
70
192
0
VERTEX
8
OBJECT__104
10
-50.099998
20
53.783001
30
-1075.547974
70
192
0
VERTEX
8
OBJECT__104
10
-50.099998
20
-32.216999
30
-1075.547974
70
192
0
VERTEX
8
OBJECT__104
10
-50.099998
20
-32.216999
30
-1050.047974
70
192
0
VERTEX
8
OBJECT__104
10
0
20
0
30
0
70
128
71
1
72
2
73
3
0
VERTEX
8
OBJECT__104
10
0
20
0
30
0
70
128
71
3
72
4
73
1
0
SEQEND
8
OBJECT__104
0
POLYLINE
8
OBJECT__105
66
1
70
64
71
4
72
2
62
253
0
VERTEX
8
OBJECT__105
10
-50.099998
20
53.783001
30
-1050.047974
70
192
0
VERTEX
8
OBJECT__105
10
-50.099998
20
-32.216999
30
-1050.047974
70
192
0
VERTEX
8
OBJECT__105
10
-47.099998
20
-32.216999
30
-1050.047974
70
192
0
VERTEX
8
OBJECT__105
10
-47.099998
20
53.783001
30
-1050.047974
70
192
0
VERTEX
8
OBJECT__105
10
0
20
0
30
0
70
128
71
1
72
2
73
3
0
VERTEX
8
OBJECT__105
10
0
20
0
30
0
70
128
71
3
72
4
73
1
0
SEQEND
8
OBJECT__105
0
POLYLINE
8
OBJECT__106
66
1
70
64
71
8
72
8
62
253
0
VERTEX
8
OBJECT__106
10
-67.500000
20
139.783005
30
-505.548004
70
192
0
VERTEX
8
OBJECT__106
10
-57.000000
20
139.783005
30
-505.548004
70
192
0
VERTEX
8
OBJECT__106
10
-57.000000
20
135.783005
30
-509.548004
70
192
0
VERTEX
8
OBJECT__106
10
-67.500000
20
135.783005
30
-501.548004
70
192
0
VERTEX
8
OBJECT__106
10
-57.000000
20
135.783005
30
-501.548004
70
192
0
VERTEX
8
OBJECT__106
10
-67.500000
20
131.783005
30
-505.548004
70
192
0
VERTEX
8
OBJECT__106
10
-57.000000
20
131.783005
30
-505.548004
70
192
0
VERTEX
8
OBJECT__106
10
-67.500000
20
135.783005
30
-509.548004
70
192
0
VERTEX
8
OBJECT__106
10
0
20
0
30
0
70
128
71
1
72
2
73
3
0
VERTEX
8
OBJECT__106
10
0
20
0
30
0
70
128
71
4
72
5
73
2
0
VERTEX
8
OBJECT__106
10
0
20
0
30
0
70
128
71
6
72
7
73
5
0
VERTEX
8
OBJECT__106
10
0
20
0
30
0
70
128
71
8
72
3
73
7
0
VERTEX
8
OBJECT__106
10
0
20
0
30
0
70
128
71
7
72
6
73
8
0
VERTEX
8
OBJECT__106
10
0
20
0
30
0
70
128
71
5
72
4
73
6
0
VERTEX
8
OBJECT__106
10
0
20
0
30
0
70
128
71
2
72
1
73
4
0
VERTEX
8
OBJECT__106
10
0
20
0
30
0
70
128
71
3
72
8
73
1
0
SEQEND
8
OBJECT__106
0
POLYLINE
8
OBJECT__107
66
1
70
64
71
4
72
2
62
253
0
VERTEX
8
OBJECT__107
10
-67.500000
20
139.783005
30
-505.548004
70
192
0
VERTEX
8
OBJECT__107
10
-67.500000
20
135.783005
30
-509.548004
70
192
0
VERTEX
8
OBJECT__107
10
-67.500000
20
131.783005
30
-505.548004
70
192
0
VERTEX
8
OBJECT__107
10
-67.500000
20
135.783005
30
-501.548004
70
192
0
VERTEX
8
OBJECT__107
10
0
20
0
30
0
70
128
71
1
72
2
73
3
0
VERTEX
8
OBJECT__107
10
0
20
0
30
0
70
128
71
3
72
4
73
1
0
SEQEND
8
OBJECT__107
0
POLYLINE
8
OBJECT__109
66
1
70
64
71
6
72
4
62
253
0
VERTEX
8
OBJECT__109
10
17.500000
20
135.783005
30
-519.047974
70
192
0
VERTEX
8
OBJECT__109
10
17.500000
20
147.473999
30
-512.297974
70
192
0
VERTEX
8
OBJECT__109
10
17.500000
20
147.473999
30
-498.798004
70
192
0
VERTEX
8
OBJECT__109
10
17.500000
20
135.783005
30
-492.048004
70
192
0
VERTEX
8
OBJECT__109
10
17.500000
20
124.092003
30
-498.798004
70
192
0
VERTEX
8
OBJECT__109
10
17.500000
20
124.092003
30
-512.297974
70
192
0
VERTEX
8
OBJECT__109
10
0
20
0
30
0
70
128
71
1
72
2
73
3
0
VERTEX
8
OBJECT__109
10
0
20
0
30
0
70
128
71
1
72
4
73
5
0
VERTEX
8
OBJECT__109
10
0
20
0
30
0
70
128
71
5
72
6
73
1
0
VERTEX
8
OBJECT__109
10
0
20
0
30
0
70
128
71
3
72
4
73
1
0
SEQEND
8
OBJECT__109
0
POLYLINE
8
OBJECT__110
66
1
70
64
71
17
72
17
62
253
0
VERTEX
8
OBJECT__110
10
17.500000
20
135.783005
30
-492.048004
70
192
0
VERTEX
8
OBJECT__110
10
17.500000
20
147.473999
30
-498.798004
70
192
0
VERTEX
8
OBJECT__110
10
-7.500000
20
142.533005
30
-493.855988
70
192
0
VERTEX
8
OBJECT__110
10
-7.500000
20
147.473999
30
-498.798004
70
192
0
VERTEX
8
OBJECT__110
10
17.500000
20
147.473999
30
-512.297974
70
192
0
VERTEX
8
OBJECT__110
10
-7.500000
20
147.473999
30
-512.297974
70
192
0
VERTEX
8
OBJECT__110
10
-7.500000
20
149.283005
30
-505.548004
70
192
0
VERTEX
8
OBJECT__110
10
17.500000
20
135.783005
30
-519.047974
70
192
0
VERTEX
8
OBJECT__110
10
-7.500000
20
142.533005
30
-517.239014
70
192
0
VERTEX
8
OBJECT__110
10
-7.500000
20
135.783005
30
-519.047974
70
192
0
VERTEX
8
OBJECT__110
10
17.500000
20
124.092003
30
-512.297974
70
192
0
VERTEX
8
OBJECT__110
10
-7.500000
20
124.092003
30
-512.297974
70
192
0
VERTEX
8
OBJECT__110
10
17.500000
20
124.092003
30
-498.798004
70
192
0
VERTEX
8
OBJECT__110
10
-7.500000
20
122.282997
30
-505.548004
70
192
0
VERTEX
8
OBJECT__110
10
-7.500000
20
124.092003
30
-498.798004
70
192
0
VERTEX
8
OBJECT__110
10
-7.500000
20
129.033005
30
-493.855988
70
192
0
VERTEX
8
OBJECT__110
10
-7.500000
20
135.783005
30
-492.048004
70
192
0
VERTEX
8
OBJECT__110
10
0
20
0
30
0
70
128
71
1
72
2
73
3
0
VERTEX
8
OBJECT__110
10
0
20
0
30
0
70
128
71
2
72
4
73
3
0
VERTEX
8
OBJECT__110
10
0
20
0
30
0
70
128
71
5
72
6
73
7
0
VERTEX
8
OBJECT__110
10
0
20
0
30
0
70
128
71
7
72
2
73
5
0
VERTEX
8
OBJECT__110
10
0
20
0
30
0
70
128
71
5
72
8
73
9
0
VERTEX
8
OBJECT__110
10
0
20
0
30
0
70
128
71
8
72
10
73
9
0
VERTEX
8
OBJECT__110
10
0
20
0
30
0
70
128
71
11
72
12
73
10
0
VERTEX
8
OBJECT__110
10
0
20
0
30
0
70
128
71
11
72
13
73
14
0
VERTEX
8
OBJECT__110
10
0
20
0
30
0
70
128
71
13
72
15
73
14
0
VERTEX
8
OBJECT__110
10
0
20
0
30
0
70
128
71
13
72
1
73
16
0
VERTEX
8
OBJECT__110
10
0
20
0
30
0
70
128
71
1
72
17
73
16
0
VERTEX
8
OBJECT__110
10
0
20
0
30
0
70
128
71
16
72
15
73
13
0
VERTEX
8
OBJECT__110
10
0
20
0
30
0
70
128
71
14
72
12
73
11
0
VERTEX
8
OBJECT__110
10
0
20
0
30
0
70
128
71
10
72
8
73
11
0
VERTEX
8
OBJECT__110
10
0
20
0
30
0
70
128
71
9
72
6
73
5
0
VERTEX
8
OBJECT__110
10
0
20
0
30
0
70
128
71
7
72
4
73
2
0
VERTEX
8
OBJECT__110
10
0
20
0
30
0
70
128
71
3
72
17
73
1
0
SEQEND
8
OBJECT__110
0
POLYLINE
8
OBJECT__111
66
1
70
64
71
21
72
21
62
253
0
VERTEX
8
OBJECT__111
10
-7.500000
20
149.283005
30
-505.548004
70
192
0
VERTEX
8
OBJECT__111
10
-7.500000
20
147.671005
30
-509.410004
70
192
0
VERTEX
8
OBJECT__111
10
-7.500000
20
147.671005
30
-501.684998
70
192
0
VERTEX
8
OBJECT__111
10
-7.500000
20
147.473999
30
-498.798004
70
192
0
VERTEX
8
OBJECT__111
10
-7.500000
20
143.130005
30
-495.434998
70
192
0
VERTEX
8
OBJECT__111
10
-7.500000
20
147.473999
30
-512.297974
70
192
0
VERTEX
8
OBJECT__111
10
-7.500000
20
135.783005
30
-519.047974
70
192
0
VERTEX
8
OBJECT__111
10
-7.500000
20
135.783005
30
-518.047974
70
192
0
VERTEX
8
OBJECT__111
10
-7.500000
20
139.645996
30
-517.435974
70
192
0
VERTEX
8
OBJECT__111
10
-7.500000
20
135.783005
30
-493.048004
70
192
0
VERTEX
8
OBJECT__111
10
-7.500000
20
135.783005
30
-492.048004
70
192
0
VERTEX
8
OBJECT__111
10
-7.500000
20
142.533005
30
-493.855988
70
192
0
VERTEX
8
OBJECT__111
10
-7.500000
20
142.533005
30
-517.239014
70
192
0
VERTEX
8
OBJECT__111
10
-7.500000
20
143.130005
30
-515.659973
70
192
0
VERTEX
8
OBJECT__111
10
-7.500000
20
122.282997
30
-505.548004
70
192
0
VERTEX
8
OBJECT__111
10
-7.500000
20
124.092003
30
-498.798004
70
192
0
VERTEX
8
OBJECT__111
10
-7.500000
20
123.894997
30
-501.684998
70
192
0
VERTEX
8
OBJECT__111
10
-7.500000
20
123.894997
30
-509.410004
70
192
0
VERTEX
8
OBJECT__111
10
-7.500000
20
129.033005
30
-493.855988
70
192
0
VERTEX
8
OBJECT__111
10
-7.500000
20
128.436005
30
-495.434998
70
192
0
VERTEX
8
OBJECT__111
10
-7.500000
20
124.092003
30
-512.297974
70
192
0
VERTEX
8
OBJECT__111
10
0
20
0
30
0
70
128
71
1
72
2
73
3
0
VERTEX
8
OBJECT__111
10
0
20
0
30
0
70
128
71
4
72
3
73
5
0
VERTEX
8
OBJECT__111
10
0
20
0
30
0
70
128
71
1
72
6
73
2
0
VERTEX
8
OBJECT__111
10
0
20
0
30
0
70
128
71
7
72
8
73
9
0
VERTEX
8
OBJECT__111
10
0
20
0
30
0
70
128
71
10
72
11
73
12
0
VERTEX
8
OBJECT__111
10
0
20
0
30
0
70
128
71
3
72
4
73
1
0
VERTEX
8
OBJECT__111
10
0
20
0
30
0
70
128
71
6
72
13
73
14
0
VERTEX
8
OBJECT__111
10
0
20
0
30
0
70
128
71
9
72
13
73
7
0
VERTEX
8
OBJECT__111
10
0
20
0
30
0
70
128
71
15
72
16
73
17
0
VERTEX
8
OBJECT__111
10
0
20
0
30
0
70
128
71
5
72
12
73
4
0
VERTEX
8
OBJECT__111
10
0
20
0
30
0
70
128
71
9
72
14
73
13
0
VERTEX
8
OBJECT__111
10
0
20
0
30
0
70
128
71
17
72
18
73
15
0
VERTEX
8
OBJECT__111
10
0
20
0
30
0
70
128
71
16
72
19
73
20
0
VERTEX
8
OBJECT__111
10
0
20
0
30
0
70
128
71
14
72
2
73
6
0
VERTEX
8
OBJECT__111
10
0
20
0
30
0
70
128
71
21
72
18
73
8
0
VERTEX
8
OBJECT__111
10
0
20
0
30
0
70
128
71
20
72
17
73
16
0
VERTEX
8
OBJECT__111
10
0
20
0
30
0
70
128
71
10
72
20
73
19
0
VERTEX
8
OBJECT__111
10
0
20
0
30
0
70
128
71
8
72
7
73
21
0
VERTEX
8
OBJECT__111
10
0
20
0
30
0
70
128
71
19
72
11
73
10
0
VERTEX
8
OBJECT__111
10
0
20
0
30
0
70
128
71
18
72
21
73
15
0
VERTEX
8
OBJECT__111
10
0
20
0
30
0
70
128
71
12
72
5
73
10
0
SEQEND
8
OBJECT__111
0
POLYLINE
8
OBJECT__112
66
1
70
64
71
23
72
23
62
253
0
VERTEX
8
OBJECT__112
10
-7.500000
20
135.783005
30
-493.048004
70
192
0
VERTEX
8
OBJECT__112
10
-41.500000
20
135.783005
30
-493.048004
70
192
0
VERTEX
8
OBJECT__112
10
-41.500000
20
128.667999
30
-495.994995
70
192
0
VERTEX
8
OBJECT__112
10
-7.500000
20
143.130005
30
-495.434998
70
192
0
VERTEX
8
OBJECT__112
10
-41.500000
20
142.897995
30
-495.994995
70
192
0
VERTEX
8
OBJECT__112
10
-41.500000
20
126.944000
30
-496.709015
70
192
0
VERTEX
8
OBJECT__112
10
-41.500000
20
123.282997
30
-505.548004
70
192
0
VERTEX
8
OBJECT__112
10
-7.500000
20
123.894997
30
-501.684998
70
192
0
VERTEX
8
OBJECT__112
10
-7.500000
20
128.436005
30
-495.434998
70
192
0
VERTEX
8
OBJECT__112
10
-38.074001
20
124.879997
30
-508.972992
70
192
0
VERTEX
8
OBJECT__112
10
-7.500000
20
123.894997
30
-509.410004
70
192
0
VERTEX
8
OBJECT__112
10
-31.927999
20
127.744003
30
-515.119019
70
192
0
VERTEX
8
OBJECT__112
10
-29.716999
20
135.972000
30
-517.330017
70
192
0
VERTEX
8
OBJECT__112
10
-7.500000
20
143.130005
30
-515.659973
70
192
0
VERTEX
8
OBJECT__112
10
-7.500000
20
139.645996
30
-517.435974
70
192
0
VERTEX
8
OBJECT__112
10
-29.188000
20
137.942001
30
-517.859985
70
192
0
VERTEX
8
OBJECT__112
10
-35.235001
20
146.600006
30
-511.812988
70
192
0
VERTEX
8
OBJECT__112
10
-7.500000
20
147.671005
30
-509.410004
70
192
0
VERTEX
8
OBJECT__112
10
-7.500000
20
135.783005
30
-518.047974
70
192
0
VERTEX
8
OBJECT__112
10
-7.500000
20
147.671005
30
-501.684998
70
192
0
VERTEX
8
OBJECT__112
10
-37.747002
20
147.274994
30
-509.299988
70
192
0
VERTEX
8
OBJECT__112
10
-41.500000
20
144.621994
30
-496.709015
70
192
0
VERTEX
8
OBJECT__112
10
-41.500000
20
148.283005
30
-505.548004
70
192
0
VERTEX
8
OBJECT__112
10
0
20
0
30
0
70
128
71
1
72
2
73
3
0
VERTEX
8
OBJECT__112
10
0
20
0
30
0
70
128
71
1
72
4
73
5
0
VERTEX
8
OBJECT__112
10
0
20
0
30
0
70
128
71
5
72
2
73
1
0
VERTEX
8
OBJECT__112
10
0
20
0
30
0
70
128
71
6
72
7
73
8
0
VERTEX
8
OBJECT__112
10
0
20
0
30
0
70
128
71
9
72
3
73
6
0
VERTEX
8
OBJECT__112
10
0
20
0
30
0
70
128
71
8
72
7
73
10
0
VERTEX
8
OBJECT__112
10
0
20
0
30
0
70
128
71
10
72
11
73
8
0
VERTEX
8
OBJECT__112
10
0
20
0
30
0
70
128
71
11
72
12
73
13
0
VERTEX
8
OBJECT__112
10
0
20
0
30
0
70
128
71
11
72
10
73
12
0
VERTEX
8
OBJECT__112
10
0
20
0
30
0
70
128
71
14
72
15
73
16
0
VERTEX
8
OBJECT__112
10
0
20
0
30
0
70
128
71
17
72
18
73
14
0
VERTEX
8
OBJECT__112
10
0
20
0
30
0
70
128
71
16
72
17
73
14
0
VERTEX
8
OBJECT__112
10
0
20
0
30
0
70
128
71
19
72
13
73
16
0
VERTEX
8
OBJECT__112
10
0
20
0
30
0
70
128
71
16
72
15
73
19
0
VERTEX
8
OBJECT__112
10
0
20
0
30
0
70
128
71
20
72
18
73
21
0
VERTEX
8
OBJECT__112
10
0
20
0
30
0
70
128
71
22
72
4
73
20
0
VERTEX
8
OBJECT__112
10
0
20
0
30
0
70
128
71
20
72
23
73
22
0
VERTEX
8
OBJECT__112
10
0
20
0
30
0
70
128
71
21
72
23
73
20
0
VERTEX
8
OBJECT__112
10
0
20
0
30
0
70
128
71
22
72
5
73
4
0
VERTEX
8
OBJECT__112
10
0
20
0
30
0
70
128
71
17
72
21
73
18
0
VERTEX
8
OBJECT__112
10
0
20
0
30
0
70
128
71
13
72
19
73
11
0
VERTEX
8
OBJECT__112
10
0
20
0
30
0
70
128
71
8
72
9
73
6
0
VERTEX
8
OBJECT__112
10
0
20
0
30
0
70
128
71
3
72
9
73
1
0
SEQEND
8
OBJECT__112
0
POLYLINE
8
OBJECT__113
66
1
70
64
71
17
72
18
62
253
0
VERTEX
8
OBJECT__113
10
-50.339001
20
135.783005
30
-496.709015
70
192
0
VERTEX
8
OBJECT__113
10
-47.750000
20
126.944000
30
-499.298004
70
192
0
VERTEX
8
OBJECT__113
10
-41.500000
20
128.667999
30
-495.994995
70
192
0
VERTEX
8
OBJECT__113
10
-41.500000
20
126.944000
30
-496.709015
70
192
0
VERTEX
8
OBJECT__113
10
-41.500000
20
135.783005
30
-493.048004
70
192
0
VERTEX
8
OBJECT__113
10
-41.500000
20
142.897995
30
-495.994995
70
192
0
VERTEX
8
OBJECT__113
10
-47.750000
20
144.621994
30
-499.298004
70
192
0
VERTEX
8
OBJECT__113
10
-51.500000
20
139.533005
30
-499.053009
70
192
0
VERTEX
8
OBJECT__113
10
-50.339001
20
144.621994
30
-505.548004
70
192
0
VERTEX
8
OBJECT__113
10
-51.500000
20
143.283005
30
-505.548004
70
192
0
VERTEX
8
OBJECT__113
10
-51.500000
20
132.033005
30
-499.053009
70
192
0
VERTEX
8
OBJECT__113
10
-51.500000
20
128.283005
30
-505.548004
70
192
0
VERTEX
8
OBJECT__113
10
-51.500000
20
135.783005
30
-499.053009
70
192
0
VERTEX
8
OBJECT__113
10
-50.339001
20
126.944000
30
-505.548004
70
192
0
VERTEX
8
OBJECT__113
10
-41.500000
20
148.283005
30
-505.548004
70
192
0
VERTEX
8
OBJECT__113
10
-41.500000
20
144.621994
30
-496.709015
70
192
0
VERTEX
8
OBJECT__113
10
-41.500000
20
123.282997
30
-505.548004
70
192
0
VERTEX
8
OBJECT__113
10
0
20
0
30
0
70
128
71
1
72
2
73
3
0
VERTEX
8
OBJECT__113
10
0
20
0
30
0
70
128
71
2
72
4
73
3
0
VERTEX
8
OBJECT__113
10
0
20
0
30
0
70
128
71
1
72
5
73
6
0
VERTEX
8
OBJECT__113
10
0
20
0
30
0
70
128
71
6
72
7
73
1
0
VERTEX
8
OBJECT__113
10
0
20
0
30
0
70
128
71
1
72
7
73
8
0
VERTEX
8
OBJECT__113
10
0
20
0
30
0
70
128
71
7
72
9
73
10
0
VERTEX
8
OBJECT__113
10
0
20
0
30
0
70
128
71
10
72
8
73
7
0
VERTEX
8
OBJECT__113
10
0
20
0
30
0
70
128
71
2
72
11
73
12
0
VERTEX
8
OBJECT__113
10
0
20
0
30
0
70
128
71
1
72
13
73
11
0
VERTEX
8
OBJECT__113
10
0
20
0
30
0
70
128
71
11
72
2
73
1
0
VERTEX
8
OBJECT__113
10
0
20
0
30
0
70
128
71
12
72
14
73
2
0
VERTEX
8
OBJECT__113
10
0
20
0
30
0
70
128
71
8
72
13
73
1
0
VERTEX
8
OBJECT__113
10
0
20
0
30
0
70
128
71
15
72
7
73
16
0
VERTEX
8
OBJECT__113
10
0
20
0
30
0
70
128
71
15
72
9
73
7
0
VERTEX
8
OBJECT__113
10
0
20
0
30
0
70
128
71
6
72
16
73
7
0
VERTEX
8
OBJECT__113
10
0
20
0
30
0
70
128
71
3
72
5
73
1
0
VERTEX
8
OBJECT__113
10
0
20
0
30
0
70
128
71
4
72
2
73
17
0
VERTEX
8
OBJECT__113
10
0
20
0
30
0
70
128
71
2
72
14
73
17
0
SEQEND
8
OBJECT__113
0
POLYLINE
8
OBJECT__114
66
1
70
64
71
27
72
27
62
253
0
VERTEX
8
OBJECT__114
10
-51.612999
20
143.130005
30
-535.547974
70
192
0
VERTEX
8
OBJECT__114
10
-53.388000
20
139.645996
30
-548.047974
70
192
0
VERTEX
8
OBJECT__114
10
-54.000000
20
135.783005
30
-548.047974
70
192
0
VERTEX
8
OBJECT__114
10
-51.612999
20
128.436005
30
-535.547974
70
192
0
VERTEX
8
OBJECT__114
10
-51.612999
20
143.130005
30
-548.047974
70
192
0
VERTEX
8
OBJECT__114
10
-37.747002
20
147.274994
30
-509.299988
70
192
0
VERTEX
8
OBJECT__114
10
-37.637001
20
147.671005
30
-548.047974
70
192
0
VERTEX
8
OBJECT__114
10
-51.500000
20
143.283005
30
-535.547974
70
192
0
VERTEX
8
OBJECT__114
10
-50.339001
20
144.621994
30
-505.548004
70
192
0
VERTEX
8
OBJECT__114
10
-41.500000
20
148.283005
30
-505.548004
70
192
0
VERTEX
8
OBJECT__114
10
-51.500000
20
143.283005
30
-505.548004
70
192
0
VERTEX
8
OBJECT__114
10
-45.362999
20
147.671005
30
-548.047974
70
192
0
VERTEX
8
OBJECT__114
10
-35.235001
20
146.600006
30
-511.812988
70
192
0
VERTEX
8
OBJECT__114
10
-29.188000
20
137.942001
30
-517.859985
70
192
0
VERTEX
8
OBJECT__114
10
-29.000000
20
135.783005
30
-548.047974
70
192
0
VERTEX
8
OBJECT__114
10
-31.386999
20
128.436005
30
-548.047974
70
192
0
VERTEX
8
OBJECT__114
10
-29.612000
20
131.919998
30
-548.047974
70
192
0
VERTEX
8
OBJECT__114
10
-29.716999
20
135.972000
30
-517.330017
70
192
0
VERTEX
8
OBJECT__114
10
-31.927999
20
127.744003
30
-515.119019
70
192
0
VERTEX
8
OBJECT__114
10
-37.637001
20
123.894997
30
-548.047974
70
192
0
VERTEX
8
OBJECT__114
10
-51.612999
20
128.436005
30
-548.047974
70
192
0
VERTEX
8
OBJECT__114
10
-45.362999
20
123.894997
30
-548.047974
70
192
0
VERTEX
8
OBJECT__114
10
-51.500000
20
128.283005
30
-535.547974
70
192
0
VERTEX
8
OBJECT__114
10
-38.074001
20
124.879997
30
-508.972992
70
192
0
VERTEX
8
OBJECT__114
10
-50.339001
20
126.944000
30
-505.548004
70
192
0
VERTEX
8
OBJECT__114
10
-41.500000
20
123.282997
30
-505.548004
70
192
0
VERTEX
8
OBJECT__114
10
-51.500000
20
128.283005
30
-505.548004
70
192
0
VERTEX
8
OBJECT__114
10
0
20
0
30
0
70
128
71
1
72
2
73
3
0
VERTEX
8
OBJECT__114
10
0
20
0
30
0
70
128
71
3
72
4
73
1
0
VERTEX
8
OBJECT__114
10
0
20
0
30
0
70
128
71
1
72
5
73
2
0
VERTEX
8
OBJECT__114
10
0
20
0
30
0
70
128
71
6
72
7
73
8
0
VERTEX
8
OBJECT__114
10
0
20
0
30
0
70
128
71
9
72
10
73
6
0
VERTEX
8
OBJECT__114
10
0
20
0
30
0
70
128
71
8
72
11
73
9
0
VERTEX
8
OBJECT__114
10
0
20
0
30
0
70
128
71
5
72
1
73
8
0
VERTEX
8
OBJECT__114
10
0
20
0
30
0
70
128
71
8
72
7
73
12
0
VERTEX
8
OBJECT__114
10
0
20
0
30
0
70
128
71
8
72
12
73
5
0
VERTEX
8
OBJECT__114
10
0
20
0
30
0
70
128
71
7
72
13
73
14
0
VERTEX
8
OBJECT__114
10
0
20
0
30
0
70
128
71
7
72
6
73
13
0
VERTEX
8
OBJECT__114
10
0
20
0
30
0
70
128
71
14
72
15
73
7
0
VERTEX
8
OBJECT__114
10
0
20
0
30
0
70
128
71
16
72
17
73
18
0
VERTEX
8
OBJECT__114
10
0
20
0
30
0
70
128
71
18
72
19
73
16
0
VERTEX
8
OBJECT__114
10
0
20
0
30
0
70
128
71
19
72
20
73
16
0
VERTEX
8
OBJECT__114
10
0
20
0
30
0
70
128
71
17
72
15
73
18
0
VERTEX
8
OBJECT__114
10
0
20
0
30
0
70
128
71
21
72
22
73
23
0
VERTEX
8
OBJECT__114
10
0
20
0
30
0
70
128
71
23
72
4
73
21
0
VERTEX
8
OBJECT__114
10
0
20
0
30
0
70
128
71
24
72
25
73
23
0
VERTEX
8
OBJECT__114
10
0
20
0
30
0
70
128
71
23
72
20
73
24
0
VERTEX
8
OBJECT__114
10
0
20
0
30
0
70
128
71
24
72
26
73
25
0
VERTEX
8
OBJECT__114
10
0
20
0
30
0
70
128
71
25
72
27
73
23
0
VERTEX
8
OBJECT__114
10
0
20
0
30
0
70
128
71
22
72
20
73
23
0
VERTEX
8
OBJECT__114
10
0
20
0
30
0
70
128
71
19
72
24
73
20
0
VERTEX
8
OBJECT__114
10
0
20
0
30
0
70
128
71
14
72
18
73
15
0
VERTEX
8
OBJECT__114
10
0
20
0
30
0
70
128
71
8
72
9
73
6
0
VERTEX
8
OBJECT__114
10
0
20
0
30
0
70
128
71
3
72
21
73
4
0
SEQEND
8
OBJECT__114
0
POLYLINE
8
OBJECT__115
66
1
70
64
71
22
72
22
62
253
0
VERTEX
8
OBJECT__115
10
-55.000000
20
135.783005
30
-548.047974
70
192
0
VERTEX
8
OBJECT__115
10
-54.000000
20
135.783005
30
-548.047974
70
192
0
VERTEX
8
OBJECT__115
10
-53.388000
20
139.645996
30
-548.047974
70
192
0
VERTEX
8
OBJECT__115
10
-53.191002
20
142.533005
30
-548.047974
70
192
0
VERTEX
8
OBJECT__115
10
-53.191002
20
129.033005
30
-548.047974
70
192
0
VERTEX
8
OBJECT__115
10
-41.500000
20
149.283005
30
-548.047974
70
192
0
VERTEX
8
OBJECT__115
10
-48.250000
20
147.473999
30
-548.047974
70
192
0
VERTEX
8
OBJECT__115
10
-45.362999
20
147.671005
30
-548.047974
70
192
0
VERTEX
8
OBJECT__115
10
-51.612999
20
143.130005
30
-548.047974
70
192
0
VERTEX
8
OBJECT__115
10
-51.612999
20
128.436005
30
-548.047974
70
192
0
VERTEX
8
OBJECT__115
10
-37.637001
20
147.671005
30
-548.047974
70
192
0
VERTEX
8
OBJECT__115
10
-48.250000
20
124.092003
30
-548.047974
70
192
0
VERTEX
8
OBJECT__115
10
-45.362999
20
123.894997
30
-548.047974
70
192
0
VERTEX
8
OBJECT__115
10
-41.500000
20
122.282997
30
-548.047974
70
192
0
VERTEX
8
OBJECT__115
10
-34.750000
20
124.092003
30
-548.047974
70
192
0
VERTEX
8
OBJECT__115
10
-37.637001
20
123.894997
30
-548.047974
70
192
0
VERTEX
8
OBJECT__115
10
-28.000000
20
135.783005
30
-548.047974
70
192
0
VERTEX
8
OBJECT__115
10
-29.000000
20
135.783005
30
-548.047974
70
192
0
VERTEX
8
OBJECT__115
10
-29.612000
20
131.919998
30
-548.047974
70
192
0
VERTEX
8
OBJECT__115
10
-29.809000
20
129.033005
30
-548.047974
70
192
0
VERTEX
8
OBJECT__115
10
-31.386999
20
128.436005
30
-548.047974
70
192
0
VERTEX
8
OBJECT__115
10
-34.750000
20
147.473999
30
-548.047974
70
192
0
VERTEX
8
OBJECT__115
10
0
20
0
30
0
70
128
71
1
72
2
73
3
0
VERTEX
8
OBJECT__115
10
0
20
0
30
0
70
128
71
3
72
4
73
1
0
VERTEX
8
OBJECT__115
10
0
20
0
30
0
70
128
71
2
72
1
73
5
0
VERTEX
8
OBJECT__115
10
0
20
0
30
0
70
128
71
6
72
7
73
8
0
VERTEX
8
OBJECT__115
10
0
20
0
30
0
70
128
71
7
72
4
73
9
0
VERTEX
8
OBJECT__115
10
0
20
0
30
0
70
128
71
5
72
10
73
2
0
VERTEX
8
OBJECT__115
10
0
20
0
30
0
70
128
71
8
72
11
73
6
0
VERTEX
8
OBJECT__115
10
0
20
0
30
0
70
128
71
3
72
9
73
4
0
VERTEX
8
OBJECT__115
10
0
20
0
30
0
70
128
71
9
72
8
73
7
0
VERTEX
8
OBJECT__115
10
0
20
0
30
0
70
128
71
12
72
13
73
10
0
VERTEX
8
OBJECT__115
10
0
20
0
30
0
70
128
71
14
72
15
73
16
0
VERTEX
8
OBJECT__115
10
0
20
0
30
0
70
128
71
17
72
18
73
19
0
VERTEX
8
OBJECT__115
10
0
20
0
30
0
70
128
71
10
72
5
73
12
0
VERTEX
8
OBJECT__115
10
0
20
0
30
0
70
128
71
16
72
13
73
14
0
VERTEX
8
OBJECT__115
10
0
20
0
30
0
70
128
71
15
72
20
73
21
0
VERTEX
8
OBJECT__115
10
0
20
0
30
0
70
128
71
19
72
20
73
17
0
VERTEX
8
OBJECT__115
10
0
20
0
30
0
70
128
71
13
72
12
73
14
0
VERTEX
8
OBJECT__115
10
0
20
0
30
0
70
128
71
19
72
21
73
20
0
VERTEX
8
OBJECT__115
10
0
20
0
30
0
70
128
71
22
72
11
73
18
0
VERTEX
8
OBJECT__115
10
0
20
0
30
0
70
128
71
21
72
16
73
15
0
VERTEX
8
OBJECT__115
10
0
20
0
30
0
70
128
71
11
72
22
73
6
0
VERTEX
8
OBJECT__115
10
0
20
0
30
0
70
128
71
18
72
17
73
22
0
SEQEND
8
OBJECT__115
0
POLYLINE
8
OBJECT__116
66
1
70
64
71
17
72
17
62
253
0
VERTEX
8
OBJECT__116
10
-55.000000
20
135.783005
30
-550.547974
70
192
0
VERTEX
8
OBJECT__116
10
-55.000000
20
135.783005
30
-548.047974
70
192
0
VERTEX
8
OBJECT__116
10
-53.191002
20
142.533005
30
-548.047974
70
192
0
VERTEX
8
OBJECT__116
10
-48.250000
20
147.473999
30
-550.547974
70
192
0
VERTEX
8
OBJECT__116
10
-34.750000
20
147.473999
30
-550.547974
70
192
0
VERTEX
8
OBJECT__116
10
-41.500000
20
149.283005
30
-548.047974
70
192
0
VERTEX
8
OBJECT__116
10
-48.250000
20
147.473999
30
-548.047974
70
192
0
VERTEX
8
OBJECT__116
10
-28.000000
20
135.783005
30
-548.047974
70
192
0
VERTEX
8
OBJECT__116
10
-28.000000
20
135.783005
30
-550.547974
70
192
0
VERTEX
8
OBJECT__116
10
-29.809000
20
129.033005
30
-548.047974
70
192
0
VERTEX
8
OBJECT__116
10
-34.750000
20
124.092003
30
-550.547974
70
192
0
VERTEX
8
OBJECT__116
10
-34.750000
20
124.092003
30
-548.047974
70
192
0
VERTEX
8
OBJECT__116
10
-41.500000
20
122.282997
30
-548.047974
70
192
0
VERTEX
8
OBJECT__116
10
-48.250000
20
124.092003
30
-550.547974
70
192
0
VERTEX
8
OBJECT__116
10
-53.191002
20
129.033005
30
-548.047974
70
192
0
VERTEX
8
OBJECT__116
10
-48.250000
20
124.092003
30
-548.047974
70
192
0
VERTEX
8
OBJECT__116
10
-34.750000
20
147.473999
30
-548.047974
70
192
0
VERTEX
8
OBJECT__116
10
0
20
0
30
0
70
128
71
1
72
2
73
3
0
VERTEX
8
OBJECT__116
10
0
20
0
30
0
70
128
71
3
72
4
73
1
0
VERTEX
8
OBJECT__116
10
0
20
0
30
0
70
128
71
5
72
4
73
6
0
VERTEX
8
OBJECT__116
10
0
20
0
30
0
70
128
71
4
72
7
73
6
0
VERTEX
8
OBJECT__116
10
0
20
0
30
0
70
128
71
8
72
9
73
5
0
VERTEX
8
OBJECT__116
10
0
20
0
30
0
70
128
71
9
72
8
73
10
0
VERTEX
8
OBJECT__116
10
0
20
0
30
0
70
128
71
10
72
11
73
9
0
VERTEX
8
OBJECT__116
10
0
20
0
30
0
70
128
71
11
72
12
73
13
0
VERTEX
8
OBJECT__116
10
0
20
0
30
0
70
128
71
13
72
14
73
11
0
VERTEX
8
OBJECT__116
10
0
20
0
30
0
70
128
71
1
72
14
73
15
0
VERTEX
8
OBJECT__116
10
0
20
0
30
0
70
128
71
14
72
16
73
15
0
VERTEX
8
OBJECT__116
10
0
20
0
30
0
70
128
71
15
72
2
73
1
0
VERTEX
8
OBJECT__116
10
0
20
0
30
0
70
128
71
13
72
16
73
14
0
VERTEX
8
OBJECT__116
10
0
20
0
30
0
70
128
71
10
72
12
73
11
0
VERTEX
8
OBJECT__116
10
0
20
0
30
0
70
128
71
5
72
17
73
8
0
VERTEX
8
OBJECT__116
10
0
20
0
30
0
70
128
71
6
72
17
73
5
0
VERTEX
8
OBJECT__116
10
0
20
0
30
0
70
128
71
3
72
7
73
4
0
SEQEND
8
OBJECT__116
0
POLYLINE
8
OBJECT__117
66
1
70
64
71
6
72
4
62
253
0
VERTEX
8
OBJECT__117
10
-28.000000
20
135.783005
30
-550.547974
70
192
0
VERTEX
8
OBJECT__117
10
-34.750000
20
124.092003
30
-550.547974
70
192
0
VERTEX
8
OBJECT__117
10
-48.250000
20
124.092003
30
-550.547974
70
192
0
VERTEX
8
OBJECT__117
10
-55.000000
20
135.783005
30
-550.547974
70
192
0
VERTEX
8
OBJECT__117
10
-48.250000
20
147.473999
30
-550.547974
70
192
0
VERTEX
8
OBJECT__117
10
-34.750000
20
147.473999
30
-550.547974
70
192
0
VERTEX
8
OBJECT__117
10
0
20
0
30
0
70
128
71
1
72
2
73
3
0
VERTEX
8
OBJECT__117
10
0
20
0
30
0
70
128
71
1
72
4
73
5
0
VERTEX
8
OBJECT__117
10
0
20
0
30
0
70
128
71
5
72
6
73
1
0
VERTEX
8
OBJECT__117
10
0
20
0
30
0
70
128
71
3
72
4
73
1
0
SEQEND
8
OBJECT__117
0
POLYLINE
8
OBJECT__118
66
1
70
64
71
6
72
4
62
253
0
VERTEX
8
OBJECT__118
10
-55.500000
20
128.283005
30
-535.547974
70
192
0
VERTEX
8
OBJECT__118
10
-55.500000
20
143.283005
30
-535.547974
70
192
0
VERTEX
8
OBJECT__118
10
-51.612999
20
143.130005
30
-535.547974
70
192
0
VERTEX
8
OBJECT__118
10
-51.500000
20
143.283005
30
-535.547974
70
192
0
VERTEX
8
OBJECT__118
10
-51.612999
20
128.436005
30
-535.547974
70
192
0
VERTEX
8
OBJECT__118
10
-51.500000
20
128.283005
30
-535.547974
70
192
0
VERTEX
8
OBJECT__118
10
0
20
0
30
0
70
128
71
1
72
2
73
3
0
VERTEX
8
OBJECT__118
10
0
20
0
30
0
70
128
71
2
72
4
73
3
0
VERTEX
8
OBJECT__118
10
0
20
0
30
0
70
128
71
3
72
5
73
1
0
VERTEX
8
OBJECT__118
10
0
20
0
30
0
70
128
71
5
72
6
73
1
0
SEQEND
8
OBJECT__118
0
POLYLINE
8
OBJECT__119
66
1
70
64
71
4
72
2
62
253
0
VERTEX
8
OBJECT__119
10
-55.500000
20
143.283005
30
-535.547974
70
192
0
VERTEX
8
OBJECT__119
10
-55.500000
20
149.283005
30
-510.548004
70
192
0
VERTEX
8
OBJECT__119
10
-51.500000
20
149.283005
30
-510.548004
70
192
0
VERTEX
8
OBJECT__119
10
-51.500000
20
143.283005
30
-535.547974
70
192
0
VERTEX
8
OBJECT__119
10
0
20
0
30
0
70
128
71
1
72
2
73
3
0
VERTEX
8
OBJECT__119
10
0
20
0
30
0
70
128
71
3
72
4
73
1
0
SEQEND
8
OBJECT__119
0
POLYLINE
8
OBJECT__120
66
1
70
64
71
8
72
6
62
253
0
VERTEX
8
OBJECT__120
10
-57.000000
20
149.283005
30
-501.548004
70
192
0
VERTEX
8
OBJECT__120
10
-55.500000
20
149.283005
30
-501.548004
70
192
0
VERTEX
8
OBJECT__120
10
-55.500000
20
149.283005
30
-509.548004
70
192
0
VERTEX
8
OBJECT__120
10
-51.500000
20
149.283005
30
-510.548004
70
192
0
VERTEX
8
OBJECT__120
10
-55.500000
20
149.283005
30
-510.548004
70
192
0
VERTEX
8
OBJECT__120
10
-51.500000
20
149.283005
30
-500.548004
70
192
0
VERTEX
8
OBJECT__120
10
-57.000000
20
149.283005
30
-509.548004
70
192
0
VERTEX
8
OBJECT__120
10
-55.500000
20
149.283005
30
-500.548004
70
192
0
VERTEX
8
OBJECT__120
10
0
20
0
30
0
70
128
71
1
72
2
73
3
0
VERTEX
8
OBJECT__120
10
0
20
0
30
0
70
128
71
4
72
5
73
3
0
VERTEX
8
OBJECT__120
10
0
20
0
30
0
70
128
71
6
72
4
73
2
0
VERTEX
8
OBJECT__120
10
0
20
0
30
0
70
128
71
3
72
2
73
4
0
VERTEX
8
OBJECT__120
10
0
20
0
30
0
70
128
71
3
72
7
73
1
0
VERTEX
8
OBJECT__120
10
0
20
0
30
0
70
128
71
2
72
8
73
6
0
SEQEND
8
OBJECT__120
0
POLYLINE
8
OBJECT__121
66
1
70
64
71
4
72
2
62
253
0
VERTEX
8
OBJECT__121
10
-55.500000
20
149.283005
30
-500.548004
70
192
0
VERTEX
8
OBJECT__121
10
-55.500000
20
143.283005
30
-475.548004
70
192
0
VERTEX
8
OBJECT__121
10
-51.500000
20
143.283005
30
-475.548004
70
192
0
VERTEX
8
OBJECT__121
10
-51.500000
20
149.283005
30
-500.548004
70
192
0
VERTEX
8
OBJECT__121
10
0
20
0
30
0
70
128
71
1
72
2
73
3
0
VERTEX
8
OBJECT__121
10
0
20
0
30
0
70
128
71
3
72
4
73
1
0
SEQEND
8
OBJECT__121
0
POLYLINE
8
OBJECT__122
66
1
70
64
71
4
72
2
62
253
0
VERTEX
8
OBJECT__122
10
-55.500000
20
128.283005
30
-475.548004
70
192
0
VERTEX
8
OBJECT__122
10
-51.500000
20
128.283005
30
-475.548004
70
192
0
VERTEX
8
OBJECT__122
10
-51.500000
20
143.283005
30
-475.548004
70
192
0
VERTEX
8
OBJECT__122
10
-55.500000
20
143.283005
30
-475.548004
70
192
0
VERTEX
8
OBJECT__122
10
0
20
0
30
0
70
128
71
1
72
2
73
3
0
VERTEX
8
OBJECT__122
10
0
20
0
30
0
70
128
71
3
72
4
73
1
0
SEQEND
8
OBJECT__122
0
POLYLINE
8
OBJECT__123
66
1
70
64
71
13
72
11
62
253
0
VERTEX
8
OBJECT__123
10
-51.500000
20
143.283005
30
-505.548004
70
192
0
VERTEX
8
OBJECT__123
10
-51.500000
20
143.283005
30
-535.547974
70
192
0
VERTEX
8
OBJECT__123
10
-51.500000
20
149.283005
30
-510.548004
70
192
0
VERTEX
8
OBJECT__123
10
-51.500000
20
149.283005
30
-500.548004
70
192
0
VERTEX
8
OBJECT__123
10
-51.500000
20
143.283005
30
-475.548004
70
192
0
VERTEX
8
OBJECT__123
10
-51.500000
20
139.533005
30
-499.053009
70
192
0
VERTEX
8
OBJECT__123
10
-51.500000
20
128.283005
30
-475.548004
70
192
0
VERTEX
8
OBJECT__123
10
-51.500000
20
135.783005
30
-499.053009
70
192
0
VERTEX
8
OBJECT__123
10
-51.500000
20
132.033005
30
-499.053009
70
192
0
VERTEX
8
OBJECT__123
10
-51.500000
20
122.282997
30
-500.548004
70
192
0
VERTEX
8
OBJECT__123
10
-51.500000
20
128.283005
30
-505.548004
70
192
0
VERTEX
8
OBJECT__123
10
-51.500000
20
122.282997
30
-510.548004
70
192
0
VERTEX
8
OBJECT__123
10
-51.500000
20
128.283005
30
-535.547974
70
192
0
VERTEX
8
OBJECT__123
10
0
20
0
30
0
70
128
71
1
72
2
73
3
0
VERTEX
8
OBJECT__123
10
0
20
0
30
0
70
128
71
4
72
5
73
6
0
VERTEX
8
OBJECT__123
10
0
20
0
30
0
70
128
71
5
72
7
73
8
0
VERTEX
8
OBJECT__123
10
0
20
0
30
0
70
128
71
6
72
1
73
4
0
VERTEX
8
OBJECT__123
10
0
20
0
30
0
70
128
71
7
72
9
73
8
0
VERTEX
8
OBJECT__123
10
0
20
0
30
0
70
128
71
10
72
11
73
9
0
VERTEX
8
OBJECT__123
10
0
20
0
30
0
70
128
71
11
72
10
73
12
0
VERTEX
8
OBJECT__123
10
0
20
0
30
0
70
128
71
8
72
6
73
5
0
VERTEX
8
OBJECT__123
10
0
20
0
30
0
70
128
71
12
72
13
73
11
0
VERTEX
8
OBJECT__123
10
0
20
0
30
0
70
128
71
9
72
7
73
10
0
VERTEX
8
OBJECT__123
10
0
20
0
30
0
70
128
71
3
72
4
73
1
0
SEQEND
8
OBJECT__123
0
POLYLINE
8
OBJECT__124
66
1
70
64
71
4
72
2
62
253
0
VERTEX
8
OBJECT__124
10
-55.500000
20
128.283005
30
-475.548004
70
192
0
VERTEX
8
OBJECT__124
10
-55.500000
20
122.282997
30
-500.548004
70
192
0
VERTEX
8
OBJECT__124
10
-51.500000
20
122.282997
30
-500.548004
70
192
0
VERTEX
8
OBJECT__124
10
-51.500000
20
128.283005
30
-475.548004
70
192
0
VERTEX
8
OBJECT__124
10
0
20
0
30
0
70
128
71
1
72
2
73
3
0
VERTEX
8
OBJECT__124
10
0
20
0
30
0
70
128
71
3
72
4
73
1
0
SEQEND
8
OBJECT__124
0
POLYLINE
8
OBJECT__125
66
1
70
64
71
8
72
6
62
253
0
VERTEX
8
OBJECT__125
10
-57.000000
20
122.282997
30
-509.548004
70
192
0
VERTEX
8
OBJECT__125
10
-55.500000
20
122.282997
30
-509.548004
70
192
0
VERTEX
8
OBJECT__125
10
-55.500000
20
122.282997
30
-501.548004
70
192
0
VERTEX
8
OBJECT__125
10
-51.500000
20
122.282997
30
-500.548004
70
192
0
VERTEX
8
OBJECT__125
10
-55.500000
20
122.282997
30
-500.548004
70
192
0
VERTEX
8
OBJECT__125
10
-51.500000
20
122.282997
30
-510.548004
70
192
0
VERTEX
8
OBJECT__125
10
-57.000000
20
122.282997
30
-501.548004
70
192
0
VERTEX
8
OBJECT__125
10
-55.500000
20
122.282997
30
-510.548004
70
192
0
VERTEX
8
OBJECT__125
10
0
20
0
30
0
70
128
71
1
72
2
73
3
0
VERTEX
8
OBJECT__125
10
0
20
0
30
0
70
128
71
4
72
5
73
3
0
VERTEX
8
OBJECT__125
10
0
20
0
30
0
70
128
71
6
72
4
73
2
0
VERTEX
8
OBJECT__125
10
0
20
0
30
0
70
128
71
3
72
2
73
4
0
VERTEX
8
OBJECT__125
10
0
20
0
30
0
70
128
71
3
72
7
73
1
0
VERTEX
8
OBJECT__125
10
0
20
0
30
0
70
128
71
2
72
8
73
6
0
SEQEND
8
OBJECT__125
0
POLYLINE
8
OBJECT__126
66
1
70
64
71
4
72
2
62
253
0
VERTEX
8
OBJECT__126
10
-55.500000
20
122.282997
30
-510.548004
70
192
0
VERTEX
8
OBJECT__126
10
-55.500000
20
128.283005
30
-535.547974
70
192
0
VERTEX
8
OBJECT__126
10
-51.500000
20
128.283005
30
-535.547974
70
192
0
VERTEX
8
OBJECT__126
10
-51.500000
20
122.282997
30
-510.548004
70
192
0
VERTEX
8
OBJECT__126
10
0
20
0
30
0
70
128
71
1
72
2
73
3
0
VERTEX
8
OBJECT__126
10
0
20
0
30
0
70
128
71
3
72
4
73
1
0
SEQEND
8
OBJECT__126
0
POLYLINE
8
OBJECT__127
66
1
70
64
71
4
72
2
62
253
0
VERTEX
8
OBJECT__127
10
-47.099998
20
435.782990
30
-1070.547974
70
192
0
VERTEX
8
OBJECT__127
10
-47.099998
20
465.782990
30
-1070.547974
70
192
0
VERTEX
8
OBJECT__127
10
0.000000
20
465.782990
30
-1070.547974
70
192
0
VERTEX
8
OBJECT__127
10
0.000000
20
435.782990
30
-1070.547974
70
192
0
VERTEX
8
OBJECT__127
10
0
20
0
30
0
70
128
71
1
72
2
73
3
0
VERTEX
8
OBJECT__127
10
0
20
0
30
0
70
128
71
3
72
4
73
1
0
SEQEND
8
OBJECT__127
0
POLYLINE
8
OBJECT__128
66
1
70
64
71
6
72
4
62
253
0
VERTEX
8
OBJECT__128
10
0.000000
20
435.782990
30
-1070.547974
70
192
0
VERTEX
8
OBJECT__128
10
0.000000
20
435.782990
30
39.452000
70
192
0
VERTEX
8
OBJECT__128
10
-47.099998
20
435.782990
30
-1050.047974
70
192
0
VERTEX
8
OBJECT__128
10
-50.000000
20
435.782990
30
39.452000
70
192
0
VERTEX
8
OBJECT__128
10
-50.000000
20
435.782990
30
-1050.047974
70
192
0
VERTEX
8
OBJECT__128
10
-47.099998
20
435.782990
30
-1070.547974
70
192
0
VERTEX
8
OBJECT__128
10
0
20
0
30
0
70
128
71
1
72
2
73
3
0
VERTEX
8
OBJECT__128
10
0
20
0
30
0
70
128
71
4
72
5
73
3
0
VERTEX
8
OBJECT__128
10
0
20
0
30
0
70
128
71
3
72
2
73
4
0
VERTEX
8
OBJECT__128
10
0
20
0
30
0
70
128
71
3
72
6
73
1
0
SEQEND
8
OBJECT__128
0
POLYLINE
8
OBJECT__130
66
1
70
64
71
4
72
2
62
253
0
VERTEX
8
OBJECT__130
10
0.000000
20
435.782990
30
39.452000
70
192
0
VERTEX
8
OBJECT__130
10
0.000000
20
-4.217000
30
39.452000
70
192
0
VERTEX
8
OBJECT__130
10
-50.000000
20
-4.217000
30
39.452000
70
192
0
VERTEX
8
OBJECT__130
10
-50.000000
20
435.782990
30
39.452000
70
192
0
VERTEX
8
OBJECT__130
10
0
20
0
30
0
70
128
71
1
72
2
73
3
0
VERTEX
8
OBJECT__130
10
0
20
0
30
0
70
128
71
3
72
4
73
1
0
SEQEND
8
OBJECT__130
0
POLYLINE
8
OBJECT__131
66
1
70
64
71
4
72
2
62
253
0
VERTEX
8
OBJECT__131
10
0.000000
20
-4.217000
30
39.452000
70
192
0
VERTEX
8
OBJECT__131
10
0.000000
20
-4.217000
30
-1070.547974
70
192
0
VERTEX
8
OBJECT__131
10
-50.000000
20
-4.217000
30
-1070.547974
70
192
0
VERTEX
8
OBJECT__131
10
-50.000000
20
-4.217000
30
39.452000
70
192
0
VERTEX
8
OBJECT__131
10
0
20
0
30
0
70
128
71
1
72
2
73
3
0
VERTEX
8
OBJECT__131
10
0
20
0
30
0
70
128
71
3
72
4
73
1
0
SEQEND
8
OBJECT__131
0
POLYLINE
8
OBJECT__132
66
1
70
64
71
4
72
2
62
253
0
VERTEX
8
OBJECT__132
10
0.000000
20
-34.216999
30
-1070.547974
70
192
0
VERTEX
8
OBJECT__132
10
-50.000000
20
-34.216999
30
-1070.547974
70
192
0
VERTEX
8
OBJECT__132
10
-50.000000
20
-4.217000
30
-1070.547974
70
192
0
VERTEX
8
OBJECT__132
10
0.000000
20
-4.217000
30
-1070.547974
70
192
0
VERTEX
8
OBJECT__132
10
0
20
0
30
0
70
128
71
1
72
2
73
3
0
VERTEX
8
OBJECT__132
10
0
20
0
30
0
70
128
71
3
72
4
73
1
0
SEQEND
8
OBJECT__132
0
POLYLINE
8
OBJECT__133
66
1
70
64
71
8
72
6
62
253
0
VERTEX
8
OBJECT__133
10
-50.000000
20
-34.216999
30
-1070.547974
70
192
0
VERTEX
8
OBJECT__133
10
-50.000000
20
-34.216999
30
69.452003
70
192
0
VERTEX
8
OBJECT__133
10
-50.000000
20
-4.217000
30
39.452000
70
192
0
VERTEX
8
OBJECT__133
10
-50.000000
20
465.782990
30
69.452003
70
192
0
VERTEX
8
OBJECT__133
10
-50.000000
20
435.782990
30
39.452000
70
192
0
VERTEX
8
OBJECT__133
10
-50.000000
20
465.782990
30
-1050.047974
70
192
0
VERTEX
8
OBJECT__133
10
-50.000000
20
435.782990
30
-1050.047974
70
192
0
VERTEX
8
OBJECT__133
10
-50.000000
20
-4.217000
30
-1070.547974
70
192
0
VERTEX
8
OBJECT__133
10
0
20
0
30
0
70
128
71
1
72
2
73
3
0
VERTEX
8
OBJECT__133
10
0
20
0
30
0
70
128
71
4
72
5
73
3
0
VERTEX
8
OBJECT__133
10
0
20
0
30
0
70
128
71
3
72
2
73
4
0
VERTEX
8
OBJECT__133
10
0
20
0
30
0
70
128
71
6
72
7
73
5
0
VERTEX
8
OBJECT__133
10
0
20
0
30
0
70
128
71
5
72
4
73
6
0
VERTEX
8
OBJECT__133
10
0
20
0
30
0
70
128
71
3
72
8
73
1
0
SEQEND
8
OBJECT__133
0
POLYLINE
8
OBJECT__134
66
1
70
64
71
8
72
6
62
253
0
VERTEX
8
OBJECT__134
10
0.000000
20
465.782990
30
-1070.547974
70
192
0
VERTEX
8
OBJECT__134
10
0.000000
20
465.782990
30
69.452003
70
192
0
VERTEX
8
OBJECT__134
10
0.000000
20
435.782990
30
39.452000
70
192
0
VERTEX
8
OBJECT__134
10
0.000000
20
-34.216999
30
69.452003
70
192
0
VERTEX
8
OBJECT__134
10
0.000000
20
-4.217000
30
39.452000
70
192
0
VERTEX
8
OBJECT__134
10
0.000000
20
-34.216999
30
-1070.547974
70
192
0
VERTEX
8
OBJECT__134
10
0.000000
20
-4.217000
30
-1070.547974
70
192
0
VERTEX
8
OBJECT__134
10
0.000000
20
435.782990
30
-1070.547974
70
192
0
VERTEX
8
OBJECT__134
10
0
20
0
30
0
70
128
71
1
72
2
73
3
0
VERTEX
8
OBJECT__134
10
0
20
0
30
0
70
128
71
2
72
4
73
5
0
VERTEX
8
OBJECT__134
10
0
20
0
30
0
70
128
71
5
72
3
73
2
0
VERTEX
8
OBJECT__134
10
0
20
0
30
0
70
128
71
6
72
7
73
5
0
VERTEX
8
OBJECT__134
10
0
20
0
30
0
70
128
71
5
72
4
73
6
0
VERTEX
8
OBJECT__134
10
0
20
0
30
0
70
128
71
3
72
8
73
1
0
SEQEND
8
OBJECT__134
0
POLYLINE
8
OBJECT__135
66
1
70
64
71
4
72
2
62
253
0
VERTEX
8
OBJECT__135
10
-50.000000
20
-34.216999
30
69.452003
70
192
0
VERTEX
8
OBJECT__135
10
0.000000
20
-34.216999
30
69.452003
70
192
0
VERTEX
8
OBJECT__135
10
0.000000
20
465.782990
30
69.452003
70
192
0
VERTEX
8
OBJECT__135
10
-50.000000
20
465.782990
30
69.452003
70
192
0
VERTEX
8
OBJECT__135
10
0
20
0
30
0
70
128
71
1
72
2
73
3
0
VERTEX
8
OBJECT__135
10
0
20
0
30
0
70
128
71
3
72
4
73
1
0
SEQEND
8
OBJECT__135
0
POLYLINE
8
OBJECT__136
66
1
70
64
71
4
72
2
62
253
0
VERTEX
8
OBJECT__136
10
0.000000
20
-34.216999
30
-1070.547974
70
192
0
VERTEX
8
OBJECT__136
10
0.000000
20
-34.216999
30
69.452003
70
192
0
VERTEX
8
OBJECT__136
10
-50.000000
20
-34.216999
30
69.452003
70
192
0
VERTEX
8
OBJECT__136
10
-50.000000
20
-34.216999
30
-1070.547974
70
192
0
VERTEX
8
OBJECT__136
10
0
20
0
30
0
70
128
71
1
72
2
73
3
0
VERTEX
8
OBJECT__136
10
0
20
0
30
0
70
128
71
3
72
4
73
1
0
SEQEND
8
OBJECT__136
0
POLYLINE
8
OBJECT__137
66
1
70
64
71
6
72
4
62
253
0
VERTEX
8
OBJECT__137
10
-47.099998
20
375.782990
30
-1050.047974
70
192
0
VERTEX
8
OBJECT__137
10
-47.099998
20
375.782990
30
-1075.547974
70
192
0
VERTEX
8
OBJECT__137
10
-47.099998
20
435.782990
30
-1070.547974
70
192
0
VERTEX
8
OBJECT__137
10
-47.099998
20
465.782990
30
-1075.547974
70
192
0
VERTEX
8
OBJECT__137
10
-47.099998
20
465.782990
30
-1070.547974
70
192
0
VERTEX
8
OBJECT__137
10
-47.099998
20
435.782990
30
-1050.047974
70
192
0
VERTEX
8
OBJECT__137
10
0
20
0
30
0
70
128
71
1
72
2
73
3
0
VERTEX
8
OBJECT__137
10
0
20
0
30
0
70
128
71
4
72
5
73
3
0
VERTEX
8
OBJECT__137
10
0
20
0
30
0
70
128
71
3
72
2
73
4
0
VERTEX
8
OBJECT__137
10
0
20
0
30
0
70
128
71
3
72
6
73
1
0
SEQEND
8
OBJECT__137
0
POLYLINE
8
OBJECT__138
66
1
70
64
71
6
72
4
62
253
0
VERTEX
8
OBJECT__138
10
-50.099998
20
465.782990
30
-1050.047974
70
192
0
VERTEX
8
OBJECT__138
10
-50.099998
20
375.782990
30
-1050.047974
70
192
0
VERTEX
8
OBJECT__138
10
-50.000000
20
435.782990
30
-1050.047974
70
192
0
VERTEX
8
OBJECT__138
10
-47.099998
20
375.782990
30
-1050.047974
70
192
0
VERTEX
8
OBJECT__138
10
-47.099998
20
435.782990
30
-1050.047974
70
192
0
VERTEX
8
OBJECT__138
10
-50.000000
20
465.782990
30
-1050.047974
70
192
0
VERTEX
8
OBJECT__138
10
0
20
0
30
0
70
128
71
1
72
2
73
3
0
VERTEX
8
OBJECT__138
10
0
20
0
30
0
70
128
71
4
72
5
73
3
0
VERTEX
8
OBJECT__138
10
0
20
0
30
0
70
128
71
3
72
2
73
4
0
VERTEX
8
OBJECT__138
10
0
20
0
30
0
70
128
71
3
72
6
73
1
0
SEQEND
8
OBJECT__138
0
POLYLINE
8
OBJECT__139
66
1
70
64
71
4
72
2
62
253
0
VERTEX
8
OBJECT__139
10
-50.099998
20
375.782990
30
-1075.547974
70
192
0
VERTEX
8
OBJECT__139
10
-50.099998
20
375.782990
30
-1050.047974
70
192
0
VERTEX
8
OBJECT__139
10
-50.099998
20
465.782990
30
-1050.047974
70
192
0
VERTEX
8
OBJECT__139
10
-50.099998
20
465.782990
30
-1075.547974
70
192
0
VERTEX
8
OBJECT__139
10
0
20
0
30
0
70
128
71
1
72
2
73
3
0
VERTEX
8
OBJECT__139
10
0
20
0
30
0
70
128
71
3
72
4
73
1
0
SEQEND
8
OBJECT__139
0
POLYLINE
8
OBJECT__140
66
1
70
64
71
6
72
4
62
253
0
VERTEX
8
OBJECT__140
10
-48.636002
20
375.782990
30
-1079.083008
70
192
0
VERTEX
8
OBJECT__140
10
-48.636002
20
465.782990
30
-1079.083008
70
192
0
VERTEX
8
OBJECT__140
10
-45.099998
20
465.782990
30
-1080.547974
70
192
0
VERTEX
8
OBJECT__140
10
-50.099998
20
375.782990
30
-1075.547974
70
192
0
VERTEX
8
OBJECT__140
10
-50.099998
20
465.782990
30
-1075.547974
70
192
0
VERTEX
8
OBJECT__140
10
-45.099998
20
375.782990
30
-1080.547974
70
192
0
VERTEX
8
OBJECT__140
10
0
20
0
30
0
70
128
71
1
72
2
73
3
0
VERTEX
8
OBJECT__140
10
0
20
0
30
0
70
128
71
4
72
5
73
2
0
VERTEX
8
OBJECT__140
10
0
20
0
30
0
70
128
71
2
72
1
73
4
0
VERTEX
8
OBJECT__140
10
0
20
0
30
0
70
128
71
3
72
6
73
1
0
SEQEND
8
OBJECT__140
0
POLYLINE
8
OBJECT__141
66
1
70
64
71
4
72
2
62
253
0
VERTEX
8
OBJECT__141
10
-1.700000
20
375.782990
30
-1080.547974
70
192
0
VERTEX
8
OBJECT__141
10
-45.099998
20
375.782990
30
-1080.547974
70
192
0
VERTEX
8
OBJECT__141
10
-45.099998
20
465.782990
30
-1080.547974
70
192
0
VERTEX
8
OBJECT__141
10
-1.700000
20
465.782990
30
-1080.547974
70
192
0
VERTEX
8
OBJECT__141
10
0
20
0
30
0
70
128
71
1
72
2
73
3
0
VERTEX
8
OBJECT__141
10
0
20
0
30
0
70
128
71
3
72
4
73
1
0
SEQEND
8
OBJECT__141
0
POLYLINE
8
OBJECT__142
66
1
70
64
71
13
72
11
62
253
0
VERTEX
8
OBJECT__142
10
-48.636002
20
465.782990
30
-1079.083008
70
192
0
VERTEX
8
OBJECT__142
10
-47.099998
20
465.782990
30
-1075.547974
70
192
0
VERTEX
8
OBJECT__142
10
-45.099998
20
465.782990
30
-1077.547974
70
192
0
VERTEX
8
OBJECT__142
10
-1.700000
20
465.782990
30
-1080.547974
70
192
0
VERTEX
8
OBJECT__142
10
-45.099998
20
465.782990
30
-1080.547974
70
192
0
VERTEX
8
OBJECT__142
10
-50.099998
20
465.782990
30
-1075.547974
70
192
0
VERTEX
8
OBJECT__142
10
-50.099998
20
465.782990
30
-1050.047974
70
192
0
VERTEX
8
OBJECT__142
10
-50.000000
20
465.782990
30
-1050.047974
70
192
0
VERTEX
8
OBJECT__142
10
-47.099998
20
465.782990
30
-1070.547974
70
192
0
VERTEX
8
OBJECT__142
10
0.000000
20
465.782990
30
69.452003
70
192
0
VERTEX
8
OBJECT__142
10
0.000000
20
465.782990
30
-1070.547974
70
192
0
VERTEX
8
OBJECT__142
10
-1.700000
20
465.782990
30
-1077.547974
70
192
0
VERTEX
8
OBJECT__142
10
-50.000000
20
465.782990
30
69.452003
70
192
0
VERTEX
8
OBJECT__142
10
0
20
0
30
0
70
128
71
1
72
2
73
3
0
VERTEX
8
OBJECT__142
10
0
20
0
30
0
70
128
71
4
72
5
73
3
0
VERTEX
8
OBJECT__142
10
0
20
0
30
0
70
128
71
1
72
6
73
2
0
VERTEX
8
OBJECT__142
10
0
20
0
30
0
70
128
71
7
72
8
73
9
0
VERTEX
8
OBJECT__142
10
0
20
0
30
0
70
128
71
10
72
11
73
8
0
VERTEX
8
OBJECT__142
10
0
20
0
30
0
70
128
71
3
72
5
73
1
0
VERTEX
8
OBJECT__142
10
0
20
0
30
0
70
128
71
9
72
6
73
7
0
VERTEX
8
OBJECT__142
10
0
20
0
30
0
70
128
71
11
72
9
73
8
0
VERTEX
8
OBJECT__142
10
0
20
0
30
0
70
128
71
9
72
2
73
6
0
VERTEX
8
OBJECT__142
10
0
20
0
30
0
70
128
71
3
72
12
73
4
0
VERTEX
8
OBJECT__142
10
0
20
0
30
0
70
128
71
8
72
13
73
10
0
SEQEND
8
OBJECT__142
0
POLYLINE
8
OBJECT__143
66
1
70
64
71
9
72
7
62
253
0
VERTEX
8
OBJECT__143
10
-48.636002
20
375.782990
30
-1079.083008
70
192
0
VERTEX
8
OBJECT__143
10
-45.099998
20
375.782990
30
-1077.547974
70
192
0
VERTEX
8
OBJECT__143
10
-47.099998
20
375.782990
30
-1075.547974
70
192
0
VERTEX
8
OBJECT__143
10
-50.099998
20
375.782990
30
-1075.547974
70
192
0
VERTEX
8
OBJECT__143
10
-47.099998
20
375.782990
30
-1050.047974
70
192
0
VERTEX
8
OBJECT__143
10
-45.099998
20
375.782990
30
-1080.547974
70
192
0
VERTEX
8
OBJECT__143
10
-1.700000
20
375.782990
30
-1080.547974
70
192
0
VERTEX
8
OBJECT__143
10
-1.700000
20
375.782990
30
-1077.547974
70
192
0
VERTEX
8
OBJECT__143
10
-50.099998
20
375.782990
30
-1050.047974
70
192
0
VERTEX
8
OBJECT__143
10
0
20
0
30
0
70
128
71
1
72
2
73
3
0
VERTEX
8
OBJECT__143
10
0
20
0
30
0
70
128
71
4
72
3
73
5
0
VERTEX
8
OBJECT__143
10
0
20
0
30
0
70
128
71
1
72
6
73
2
0
VERTEX
8
OBJECT__143
10
0
20
0
30
0
70
128
71
3
72
4
73
1
0
VERTEX
8
OBJECT__143
10
0
20
0
30
0
70
128
71
2
72
6
73
7
0
VERTEX
8
OBJECT__143
10
0
20
0
30
0
70
128
71
7
72
8
73
2
0
VERTEX
8
OBJECT__143
10
0
20
0
30
0
70
128
71
5
72
9
73
4
0
SEQEND
8
OBJECT__143
0
POLYLINE
8
OBJECT__144
66
1
70
64
71
4
72
2
62
253
0
VERTEX
8
OBJECT__144
10
-1.700000
20
465.782990
30
-1077.547974
70
192
0
VERTEX
8
OBJECT__144
10
-1.700000
20
375.782990
30
-1077.547974
70
192
0
VERTEX
8
OBJECT__144
10
-1.700000
20
375.782990
30
-1080.547974
70
192
0
VERTEX
8
OBJECT__144
10
-1.700000
20
465.782990
30
-1080.547974
70
192
0
VERTEX
8
OBJECT__144
10
0
20
0
30
0
70
128
71
1
72
2
73
3
0
VERTEX
8
OBJECT__144
10
0
20
0
30
0
70
128
71
3
72
4
73
1
0
SEQEND
8
OBJECT__144
0
POLYLINE
8
OBJECT__145
66
1
70
64
71
4
72
2
62
253
0
VERTEX
8
OBJECT__145
10
-45.099998
20
465.782990
30
-1077.547974
70
192
0
VERTEX
8
OBJECT__145
10
-45.099998
20
375.782990
30
-1077.547974
70
192
0
VERTEX
8
OBJECT__145
10
-1.700000
20
375.782990
30
-1077.547974
70
192
0
VERTEX
8
OBJECT__145
10
-1.700000
20
465.782990
30
-1077.547974
70
192
0
VERTEX
8
OBJECT__145
10
0
20
0
30
0
70
128
71
1
72
2
73
3
0
VERTEX
8
OBJECT__145
10
0
20
0
30
0
70
128
71
3
72
4
73
1
0
SEQEND
8
OBJECT__145
0
POLYLINE
8
OBJECT__146
66
1
70
64
71
4
72
2
62
253
0
VERTEX
8
OBJECT__146
10
-45.099998
20
465.782990
30
-1077.547974
70
192
0
VERTEX
8
OBJECT__146
10
-47.099998
20
465.782990
30
-1075.547974
70
192
0
VERTEX
8
OBJECT__146
10
-47.099998
20
375.782990
30
-1075.547974
70
192
0
VERTEX
8
OBJECT__146
10
-45.099998
20
375.782990
30
-1077.547974
70
192
0
VERTEX
8
OBJECT__146
10
0
20
0
30
0
70
128
71
1
72
2
73
3
0
VERTEX
8
OBJECT__146
10
0
20
0
30
0
70
128
71
3
72
4
73
1
0
SEQEND
8
OBJECT__146
0
POLYLINE
8
OBJECT__147
66
1
70
64
71
4
72
2
62
253
0
VERTEX
8
OBJECT__147
10
-53.500000
20
217.783005
30
-521.547974
70
192
0
VERTEX
8
OBJECT__147
10
-48.500000
20
217.783005
30
-516.547974
70
192
0
VERTEX
8
OBJECT__147
10
-48.500000
20
213.783005
30
-516.547974
70
192
0
VERTEX
8
OBJECT__147
10
-53.500000
20
213.783005
30
-521.547974
70
192
0
VERTEX
8
OBJECT__147
10
0
20
0
30
0
70
128
71
1
72
2
73
3
0
VERTEX
8
OBJECT__147
10
0
20
0
30
0
70
128
71
3
72
4
73
1
0
SEQEND
8
OBJECT__147
0
POLYLINE
8
OBJECT__148
66
1
70
64
71
11
72
9
62
253
0
VERTEX
8
OBJECT__148
10
-1.500000
20
200.783005
30
-516.547974
70
192
0
VERTEX
8
OBJECT__148
10
-6.500000
20
195.783005
30
-516.547974
70
192
0
VERTEX
8
OBJECT__148
10
-48.500000
20
213.783005
30
-516.547974
70
192
0
VERTEX
8
OBJECT__148
10
-48.500000
20
217.783005
30
-516.547974
70
192
0
VERTEX
8
OBJECT__148
10
-1.500000
20
230.783005
30
-516.547974
70
192
0
VERTEX
8
OBJECT__148
10
-6.500000
20
235.783005
30
-516.547974
70
192
0
VERTEX
8
OBJECT__148
10
-2.964000
20
234.319000
30
-516.547974
70
192
0
VERTEX
8
OBJECT__148
10
-52.500000
20
195.783005
30
-516.547974
70
192
0
VERTEX
8
OBJECT__148
10
-52.500000
20
213.783005
30
-516.547974
70
192
0
VERTEX
8
OBJECT__148
10
-52.500000
20
235.783005
30
-516.547974
70
192
0
VERTEX
8
OBJECT__148
10
-52.500000
20
217.783005
30
-516.547974
70
192
0
VERTEX
8
OBJECT__148
10
0
20
0
30
0
70
128
71
1
72
2
73
3
0
VERTEX
8
OBJECT__148
10
0
20
0
30
0
70
128
71
4
72
5
73
1
0
VERTEX
8
OBJECT__148
10
0
20
0
30
0
70
128
71
4
72
6
73
7
0
VERTEX
8
OBJECT__148
10
0
20
0
30
0
70
128
71
7
72
5
73
4
0
VERTEX
8
OBJECT__148
10
0
20
0
30
0
70
128
71
8
72
9
73
3
0
VERTEX
8
OBJECT__148
10
0
20
0
30
0
70
128
71
10
72
6
73
4
0
VERTEX
8
OBJECT__148
10
0
20
0
30
0
70
128
71
3
72
2
73
8
0
VERTEX
8
OBJECT__148
10
0
20
0
30
0
70
128
71
3
72
4
73
1
0
VERTEX
8
OBJECT__148
10
0
20
0
30
0
70
128
71
4
72
11
73
10
0
SEQEND
8
OBJECT__148
0
POLYLINE
8
OBJECT__150
66
1
70
64
71
6
72
4
62
253
0
VERTEX
8
OBJECT__150
10
-53.207001
20
217.783005
30
-516.841003
70
192
0
VERTEX
8
OBJECT__150
10
-53.207001
20
235.783005
30
-516.841003
70
192
0
VERTEX
8
OBJECT__150
10
-52.500000
20
235.783005
30
-516.547974
70
192
0
VERTEX
8
OBJECT__150
10
-53.500000
20
217.783005
30
-517.547974
70
192
0
VERTEX
8
OBJECT__150
10
-53.500000
20
235.783005
30
-517.547974
70
192
0
VERTEX
8
OBJECT__150
10
-52.500000
20
217.783005
30
-516.547974
70
192
0
VERTEX
8
OBJECT__150
10
0
20
0
30
0
70
128
71
1
72
2
73
3
0
VERTEX
8
OBJECT__150
10
0
20
0
30
0
70
128
71
4
72
5
73
2
0
VERTEX
8
OBJECT__150
10
0
20
0
30
0
70
128
71
2
72
1
73
4
0
VERTEX
8
OBJECT__150
10
0
20
0
30
0
70
128
71
3
72
6
73
1
0
SEQEND
8
OBJECT__150
0
POLYLINE
8
OBJECT__151
66
1
70
64
71
6
72
4
62
253
0
VERTEX
8
OBJECT__151
10
-53.207001
20
195.783005
30
-516.841003
70
192
0
VERTEX
8
OBJECT__151
10
-53.207001
20
213.783005
30
-516.841003
70
192
0
VERTEX
8
OBJECT__151
10
-52.500000
20
213.783005
30
-516.547974
70
192
0
VERTEX
8
OBJECT__151
10
-53.500000
20
195.783005
30
-517.547974
70
192
0
VERTEX
8
OBJECT__151
10
-53.500000
20
213.783005
30
-517.547974
70
192
0
VERTEX
8
OBJECT__151
10
-52.500000
20
195.783005
30
-516.547974
70
192
0
VERTEX
8
OBJECT__151
10
0
20
0
30
0
70
128
71
1
72
2
73
3
0
VERTEX
8
OBJECT__151
10
0
20
0
30
0
70
128
71
4
72
5
73
2
0
VERTEX
8
OBJECT__151
10
0
20
0
30
0
70
128
71
2
72
1
73
4
0
VERTEX
8
OBJECT__151
10
0
20
0
30
0
70
128
71
3
72
6
73
1
0
SEQEND
8
OBJECT__151
0
POLYLINE
8
OBJECT__152
66
1
70
64
71
6
72
4
62
253
0
VERTEX
8
OBJECT__152
10
-2.964000
20
234.319000
30
-514.547974
70
192
0
VERTEX
8
OBJECT__152
10
-2.964000
20
234.319000
30
-516.547974
70
192
0
VERTEX
8
OBJECT__152
10
-6.500000
20
235.783005
30
-516.547974
70
192
0
VERTEX
8
OBJECT__152
10
-1.500000
20
230.783005
30
-514.547974
70
192
0
VERTEX
8
OBJECT__152
10
-1.500000
20
230.783005
30
-516.547974
70
192
0
VERTEX
8
OBJECT__152
10
-6.500000
20
235.783005
30
-514.547974
70
192
0
VERTEX
8
OBJECT__152
10
0
20
0
30
0
70
128
71
1
72
2
73
3
0
VERTEX
8
OBJECT__152
10
0
20
0
30
0
70
128
71
4
72
5
73
2
0
VERTEX
8
OBJECT__152
10
0
20
0
30
0
70
128
71
2
72
1
73
4
0
VERTEX
8
OBJECT__152
10
0
20
0
30
0
70
128
71
3
72
6
73
1
0
SEQEND
8
OBJECT__152
0
POLYLINE
8
OBJECT__153
66
1
70
64
71
4
72
2
62
253
0
VERTEX
8
OBJECT__153
10
-6.500000
20
195.783005
30
-514.547974
70
192
0
VERTEX
8
OBJECT__153
10
-6.500000
20
195.783005
30
-516.547974
70
192
0
VERTEX
8
OBJECT__153
10
-1.500000
20
200.783005
30
-516.547974
70
192
0
VERTEX
8
OBJECT__153
10
-1.500000
20
200.783005
30
-514.547974
70
192
0
VERTEX
8
OBJECT__153
10
0
20
0
30
0
70
128
71
1
72
2
73
3
0
VERTEX
8
OBJECT__153
10
0
20
0
30
0
70
128
71
3
72
4
73
1
0
SEQEND
8
OBJECT__153
0
POLYLINE
8
OBJECT__154
66
1
70
64
71
4
72
2
62
253
0
VERTEX
8
OBJECT__154
10
-1.500000
20
200.783005
30
-514.547974
70
192
0
VERTEX
8
OBJECT__154
10
-1.500000
20
200.783005
30
-516.547974
70
192
0
VERTEX
8
OBJECT__154
10
-1.500000
20
230.783005
30
-516.547974
70
192
0
VERTEX
8
OBJECT__154
10
-1.500000
20
230.783005
30
-514.547974
70
192
0
VERTEX
8
OBJECT__154
10
0
20
0
30
0
70
128
71
1
72
2
73
3
0
VERTEX
8
OBJECT__154
10
0
20
0
30
0
70
128
71
3
72
4
73
1
0
SEQEND
8
OBJECT__154
0
POLYLINE
8
OBJECT__155
66
1
70
64
71
7
72
5
62
253
0
VERTEX
8
OBJECT__155
10
-6.500000
20
235.783005
30
-514.547974
70
192
0
VERTEX
8
OBJECT__155
10
-6.500000
20
195.783005
30
-514.547974
70
192
0
VERTEX
8
OBJECT__155
10
-1.500000
20
200.783005
30
-514.547974
70
192
0
VERTEX
8
OBJECT__155
10
-52.500000
20
195.783005
30
-514.547974
70
192
0
VERTEX
8
OBJECT__155
10
-1.500000
20
230.783005
30
-514.547974
70
192
0
VERTEX
8
OBJECT__155
10
-2.964000
20
234.319000
30
-514.547974
70
192
0
VERTEX
8
OBJECT__155
10
-52.500000
20
235.783005
30
-514.547974
70
192
0
VERTEX
8
OBJECT__155
10
0
20
0
30
0
70
128
71
1
72
2
73
3
0
VERTEX
8
OBJECT__155
10
0
20
0
30
0
70
128
71
4
72
2
73
1
0
VERTEX
8
OBJECT__155
10
0
20
0
30
0
70
128
71
3
72
5
73
1
0
VERTEX
8
OBJECT__155
10
0
20
0
30
0
70
128
71
5
72
6
73
1
0
VERTEX
8
OBJECT__155
10
0
20
0
30
0
70
128
71
1
72
7
73
4
0
SEQEND
8
OBJECT__155
0
POLYLINE
8
OBJECT__156
66
1
70
64
71
6
72
4
62
253
0
VERTEX
8
OBJECT__156
10
-54.620998
20
195.783005
30
-515.426025
70
192
0
VERTEX
8
OBJECT__156
10
-54.620998
20
235.783005
30
-515.426025
70
192
0
VERTEX
8
OBJECT__156
10
-55.500000
20
235.783005
30
-517.547974
70
192
0
VERTEX
8
OBJECT__156
10
-52.500000
20
195.783005
30
-514.547974
70
192
0
VERTEX
8
OBJECT__156
10
-52.500000
20
235.783005
30
-514.547974
70
192
0
VERTEX
8
OBJECT__156
10
-55.500000
20
195.783005
30
-517.547974
70
192
0
VERTEX
8
OBJECT__156
10
0
20
0
30
0
70
128
71
1
72
2
73
3
0
VERTEX
8
OBJECT__156
10
0
20
0
30
0
70
128
71
4
72
5
73
2
0
VERTEX
8
OBJECT__156
10
0
20
0
30
0
70
128
71
2
72
1
73
4
0
VERTEX
8
OBJECT__156
10
0
20
0
30
0
70
128
71
3
72
6
73
1
0
SEQEND
8
OBJECT__156
0
POLYLINE
8
OBJECT__157
66
1
70
64
71
10
72
8
62
253
0
VERTEX
8
OBJECT__157
10
-53.500000
20
235.783005
30
-517.547974
70
192
0
VERTEX
8
OBJECT__157
10
-53.500000
20
235.783005
30
-534.547974
70
192
0
VERTEX
8
OBJECT__157
10
-55.500000
20
235.783005
30
-534.547974
70
192
0
VERTEX
8
OBJECT__157
10
-55.500000
20
235.783005
30
-517.547974
70
192
0
VERTEX
8
OBJECT__157
10
-54.620998
20
235.783005
30
-515.426025
70
192
0
VERTEX
8
OBJECT__157
10
-53.207001
20
235.783005
30
-516.841003
70
192
0
VERTEX
8
OBJECT__157
10
-52.500000
20
235.783005
30
-514.547974
70
192
0
VERTEX
8
OBJECT__157
10
-52.500000
20
235.783005
30
-516.547974
70
192
0
VERTEX
8
OBJECT__157
10
-6.500000
20
235.783005
30
-514.547974
70
192
0
VERTEX
8
OBJECT__157
10
-6.500000
20
235.783005
30
-516.547974
70
192
0
VERTEX
8
OBJECT__157
10
0
20
0
30
0
70
128
71
1
72
2
73
3
0
VERTEX
8
OBJECT__157
10
0
20
0
30
0
70
128
71
4
72
5
73
6
0
VERTEX
8
OBJECT__157
10
0
20
0
30
0
70
128
71
7
72
8
73
6
0
VERTEX
8
OBJECT__157
10
0
20
0
30
0
70
128
71
7
72
9
73
10
0
VERTEX
8
OBJECT__157
10
0
20
0
30
0
70
128
71
6
72
1
73
4
0
VERTEX
8
OBJECT__157
10
0
20
0
30
0
70
128
71
10
72
8
73
7
0
VERTEX
8
OBJECT__157
10
0
20
0
30
0
70
128
71
6
72
5
73
7
0
VERTEX
8
OBJECT__157
10
0
20
0
30
0
70
128
71
3
72
4
73
1
0
SEQEND
8
OBJECT__157
0
POLYLINE
8
OBJECT__158
66
1
70
64
71
10
72
8
62
253
0
VERTEX
8
OBJECT__158
10
-6.500000
20
195.783005
30
-514.547974
70
192
0
VERTEX
8
OBJECT__158
10
-52.500000
20
195.783005
30
-514.547974
70
192
0
VERTEX
8
OBJECT__158
10
-52.500000
20
195.783005
30
-516.547974
70
192
0
VERTEX
8
OBJECT__158
10
-54.620998
20
195.783005
30
-515.426025
70
192
0
VERTEX
8
OBJECT__158
10
-53.207001
20
195.783005
30
-516.841003
70
192
0
VERTEX
8
OBJECT__158
10
-55.500000
20
195.783005
30
-517.547974
70
192
0
VERTEX
8
OBJECT__158
10
-53.500000
20
195.783005
30
-517.547974
70
192
0
VERTEX
8
OBJECT__158
10
-55.500000
20
195.783005
30
-534.547974
70
192
0
VERTEX
8
OBJECT__158
10
-53.500000
20
195.783005
30
-534.547974
70
192
0
VERTEX
8
OBJECT__158
10
-6.500000
20
195.783005
30
-516.547974
70
192
0
VERTEX
8
OBJECT__158
10
0
20
0
30
0
70
128
71
1
72
2
73
3
0
VERTEX
8
OBJECT__158
10
0
20
0
30
0
70
128
71
2
72
4
73
5
0
VERTEX
8
OBJECT__158
10
0
20
0
30
0
70
128
71
4
72
6
73
7
0
VERTEX
8
OBJECT__158
10
0
20
0
30
0
70
128
71
8
72
9
73
7
0
VERTEX
8
OBJECT__158
10
0
20
0
30
0
70
128
71
5
72
3
73
2
0
VERTEX
8
OBJECT__158
10
0
20
0
30
0
70
128
71
7
72
6
73
8
0
VERTEX
8
OBJECT__158
10
0
20
0
30
0
70
128
71
7
72
5
73
4
0
VERTEX
8
OBJECT__158
10
0
20
0
30
0
70
128
71
3
72
10
73
1
0
SEQEND
8
OBJECT__158
0
POLYLINE
8
OBJECT__159
66
1
70
64
71
10
72
8
62
253
0
VERTEX
8
OBJECT__159
10
-53.500000
20
213.783005
30
-521.547974
70
192
0
VERTEX
8
OBJECT__159
10
-53.500000
20
195.783005
30
-534.547974
70
192
0
VERTEX
8
OBJECT__159
10
-53.500000
20
200.783005
30
-539.547974
70
192
0
VERTEX
8
OBJECT__159
10
-53.500000
20
195.783005
30
-517.547974
70
192
0
VERTEX
8
OBJECT__159
10
-53.500000
20
230.783005
30
-539.547974
70
192
0
VERTEX
8
OBJECT__159
10
-53.500000
20
217.783005
30
-521.547974
70
192
0
VERTEX
8
OBJECT__159
10
-53.500000
20
235.783005
30
-534.547974
70
192
0
VERTEX
8
OBJECT__159
10
-53.500000
20
235.783005
30
-517.547974
70
192
0
VERTEX
8
OBJECT__159
10
-53.500000
20
217.783005
30
-517.547974
70
192
0
VERTEX
8
OBJECT__159
10
-53.500000
20
213.783005
30
-517.547974
70
192
0
VERTEX
8
OBJECT__159
10
0
20
0
30
0
70
128
71
1
72
2
73
3
0
VERTEX
8
OBJECT__159
10
0
20
0
30
0
70
128
71
4
72
2
73
1
0
VERTEX
8
OBJECT__159
10
0
20
0
30
0
70
128
71
5
72
6
73
1
0
VERTEX
8
OBJECT__159
10
0
20
0
30
0
70
128
71
6
72
5
73
7
0
VERTEX
8
OBJECT__159
10
0
20
0
30
0
70
128
71
3
72
5
73
1
0
VERTEX
8
OBJECT__159
10
0
20
0
30
0
70
128
71
8
72
9
73
6
0
VERTEX
8
OBJECT__159
10
0
20
0
30
0
70
128
71
7
72
8
73
6
0
VERTEX
8
OBJECT__159
10
0
20
0
30
0
70
128
71
1
72
10
73
4
0
SEQEND
8
OBJECT__159
0
POLYLINE
8
OBJECT__160
66
1
70
64
71
4
72
2
62
253
0
VERTEX
8
OBJECT__160
10
-55.500000
20
200.783005
30
-539.547974
70
192
0
VERTEX
8
OBJECT__160
10
-53.500000
20
200.783005
30
-539.547974
70
192
0
VERTEX
8
OBJECT__160
10
-53.500000
20
195.783005
30
-534.547974
70
192
0
VERTEX
8
OBJECT__160
10
-55.500000
20
195.783005
30
-534.547974
70
192
0
VERTEX
8
OBJECT__160
10
0
20
0
30
0
70
128
71
1
72
2
73
3
0
VERTEX
8
OBJECT__160
10
0
20
0
30
0
70
128
71
3
72
4
73
1
0
SEQEND
8
OBJECT__160
0
POLYLINE
8
OBJECT__161
66
1
70
64
71
4
72
2
62
253
0
VERTEX
8
OBJECT__161
10
-55.500000
20
235.783005
30
-534.547974
70
192
0
VERTEX
8
OBJECT__161
10
-53.500000
20
235.783005
30
-534.547974
70
192
0
VERTEX
8
OBJECT__161
10
-53.500000
20
230.783005
30
-539.547974
70
192
0
VERTEX
8
OBJECT__161
10
-55.500000
20
230.783005
30
-539.547974
70
192
0
VERTEX
8
OBJECT__161
10
0
20
0
30
0
70
128
71
1
72
2
73
3
0
VERTEX
8
OBJECT__161
10
0
20
0
30
0
70
128
71
3
72
4
73
1
0
SEQEND
8
OBJECT__161
0
POLYLINE
8
OBJECT__162
66
1
70
64
71
4
72
2
62
253
0
VERTEX
8
OBJECT__162
10
-55.500000
20
200.783005
30
-539.547974
70
192
0
VERTEX
8
OBJECT__162
10
-55.500000
20
230.783005
30
-539.547974
70
192
0
VERTEX
8
OBJECT__162
10
-53.500000
20
230.783005
30
-539.547974
70
192
0
VERTEX
8
OBJECT__162
10
-53.500000
20
200.783005
30
-539.547974
70
192
0
VERTEX
8
OBJECT__162
10
0
20
0
30
0
70
128
71
1
72
2
73
3
0
VERTEX
8
OBJECT__162
10
0
20
0
30
0
70
128
71
3
72
4
73
1
0
SEQEND
8
OBJECT__162
0
POLYLINE
8
OBJECT__163
66
1
70
64
71
8
72
8
62
253
0
VERTEX
8
OBJECT__163
10
-67.500000
20
299.782990
30
-505.548004
70
192
0
VERTEX
8
OBJECT__163
10
-57.000000
20
299.782990
30
-505.548004
70
192
0
VERTEX
8
OBJECT__163
10
-57.000000
20
295.782990
30
-509.548004
70
192
0
VERTEX
8
OBJECT__163
10
-67.500000
20
295.782990
30
-501.548004
70
192
0
VERTEX
8
OBJECT__163
10
-57.000000
20
295.782990
30
-501.548004
70
192
0
VERTEX
8
OBJECT__163
10
-67.500000
20
291.782990
30
-505.548004
70
192
0
VERTEX
8
OBJECT__163
10
-57.000000
20
291.782990
30
-505.548004
70
192
0
VERTEX
8
OBJECT__163
10
-67.500000
20
295.782990
30
-509.548004
70
192
0
VERTEX
8
OBJECT__163
10
0
20
0
30
0
70
128
71
1
72
2
73
3
0
VERTEX
8
OBJECT__163
10
0
20
0
30
0
70
128
71
4
72
5
73
2
0
VERTEX
8
OBJECT__163
10
0
20
0
30
0
70
128
71
6
72
7
73
5
0
VERTEX
8
OBJECT__163
10
0
20
0
30
0
70
128
71
8
72
3
73
7
0
VERTEX
8
OBJECT__163
10
0
20
0
30
0
70
128
71
7
72
6
73
8
0
VERTEX
8
OBJECT__163
10
0
20
0
30
0
70
128
71
5
72
4
73
6
0
VERTEX
8
OBJECT__163
10
0
20
0
30
0
70
128
71
2
72
1
73
4
0
VERTEX
8
OBJECT__163
10
0
20
0
30
0
70
128
71
3
72
8
73
1
0
SEQEND
8
OBJECT__163
0
POLYLINE
8
OBJECT__164
66
1
70
64
71
4
72
2
62
253
0
VERTEX
8
OBJECT__164
10
-67.500000
20
299.782990
30
-505.548004
70
192
0
VERTEX
8
OBJECT__164
10
-67.500000
20
295.782990
30
-509.548004
70
192
0
VERTEX
8
OBJECT__164
10
-67.500000
20
291.782990
30
-505.548004
70
192
0
VERTEX
8
OBJECT__164
10
-67.500000
20
295.782990
30
-501.548004
70
192
0
VERTEX
8
OBJECT__164
10
0
20
0
30
0
70
128
71
1
72
2
73
3
0
VERTEX
8
OBJECT__164
10
0
20
0
30
0
70
128
71
3
72
4
73
1
0
SEQEND
8
OBJECT__164
0
POLYLINE
8
OBJECT__166
66
1
70
64
71
6
72
4
62
253
0
VERTEX
8
OBJECT__166
10
17.500000
20
295.782990
30
-519.047974
70
192
0
VERTEX
8
OBJECT__166
10
17.500000
20
307.473999
30
-512.297974
70
192
0
VERTEX
8
OBJECT__166
10
17.500000
20
307.473999
30
-498.798004
70
192
0
VERTEX
8
OBJECT__166
10
17.500000
20
295.782990
30
-492.048004
70
192
0
VERTEX
8
OBJECT__166
10
17.500000
20
284.092010
30
-498.798004
70
192
0
VERTEX
8
OBJECT__166
10
17.500000
20
284.092010
30
-512.297974
70
192
0
VERTEX
8
OBJECT__166
10
0
20
0
30
0
70
128
71
1
72
2
73
3
0
VERTEX
8
OBJECT__166
10
0
20
0
30
0
70
128
71
1
72
4
73
5
0
VERTEX
8
OBJECT__166
10
0
20
0
30
0
70
128
71
5
72
6
73
1
0
VERTEX
8
OBJECT__166
10
0
20
0
30
0
70
128
71
3
72
4
73
1
0
SEQEND
8
OBJECT__166
0
POLYLINE
8
OBJECT__167
66
1
70
64
71
17
72
17
62
253
0
VERTEX
8
OBJECT__167
10
17.500000
20
295.782990
30
-492.048004
70
192
0
VERTEX
8
OBJECT__167
10
17.500000
20
307.473999
30
-498.798004
70
192
0
VERTEX
8
OBJECT__167
10
-7.500000
20
302.532990
30
-493.855988
70
192
0
VERTEX
8
OBJECT__167
10
-7.500000
20
307.473999
30
-498.798004
70
192
0
VERTEX
8
OBJECT__167
10
17.500000
20
307.473999
30
-512.297974
70
192
0
VERTEX
8
OBJECT__167
10
-7.500000
20
307.473999
30
-512.297974
70
192
0
VERTEX
8
OBJECT__167
10
-7.500000
20
309.282990
30
-505.548004
70
192
0
VERTEX
8
OBJECT__167
10
17.500000
20
295.782990
30
-519.047974
70
192
0
VERTEX
8
OBJECT__167
10
-7.500000
20
302.532990
30
-517.239014
70
192
0
VERTEX
8
OBJECT__167
10
-7.500000
20
295.782990
30
-519.047974
70
192
0
VERTEX
8
OBJECT__167
10
17.500000
20
284.092010
30
-512.297974
70
192
0
VERTEX
8
OBJECT__167
10
-7.500000
20
284.092010
30
-512.297974
70
192
0
VERTEX
8
OBJECT__167
10
17.500000
20
284.092010
30
-498.798004
70
192
0
VERTEX
8
OBJECT__167
10
-7.500000
20
282.282990
30
-505.548004
70
192
0
VERTEX
8
OBJECT__167
10
-7.500000
20
284.092010
30
-498.798004
70
192
0
VERTEX
8
OBJECT__167
10
-7.500000
20
295.782990
30
-492.048004
70
192
0
VERTEX
8
OBJECT__167
10
-7.500000
20
289.032990
30
-493.855988
70
192
0
VERTEX
8
OBJECT__167
10
0
20
0
30
0
70
128
71
1
72
2
73
3
0
VERTEX
8
OBJECT__167
10
0
20
0
30
0
70
128
71
2
72
4
73
3
0
VERTEX
8
OBJECT__167
10
0
20
0
30
0
70
128
71
5
72
6
73
7
0
VERTEX
8
OBJECT__167
10
0
20
0
30
0
70
128
71
7
72
2
73
5
0
VERTEX
8
OBJECT__167
10
0
20
0
30
0
70
128
71
5
72
8
73
9
0
VERTEX
8
OBJECT__167
10
0
20
0
30
0
70
128
71
8
72
10
73
9
0
VERTEX
8
OBJECT__167
10
0
20
0
30
0
70
128
71
11
72
12
73
10
0
VERTEX
8
OBJECT__167
10
0
20
0
30
0
70
128
71
11
72
13
73
14
0
VERTEX
8
OBJECT__167
10
0
20
0
30
0
70
128
71
13
72
15
73
14
0
VERTEX
8
OBJECT__167
10
0
20
0
30
0
70
128
71
1
72
16
73
17
0
VERTEX
8
OBJECT__167
10
0
20
0
30
0
70
128
71
17
72
13
73
1
0
VERTEX
8
OBJECT__167
10
0
20
0
30
0
70
128
71
17
72
15
73
13
0
VERTEX
8
OBJECT__167
10
0
20
0
30
0
70
128
71
14
72
12
73
11
0
VERTEX
8
OBJECT__167
10
0
20
0
30
0
70
128
71
10
72
8
73
11
0
VERTEX
8
OBJECT__167
10
0
20
0
30
0
70
128
71
9
72
6
73
5
0
VERTEX
8
OBJECT__167
10
0
20
0
30
0
70
128
71
7
72
4
73
2
0
VERTEX
8
OBJECT__167
10
0
20
0
30
0
70
128
71
3
72
16
73
1
0
SEQEND
8
OBJECT__167
0
POLYLINE
8
OBJECT__168
66
1
70
64
71
21
72
21
62
253
0
VERTEX
8
OBJECT__168
10
-7.500000
20
309.282990
30
-505.548004
70
192
0
VERTEX
8
OBJECT__168
10
-7.500000
20
307.473999
30
-512.297974
70
192
0
VERTEX
8
OBJECT__168
10
-7.500000
20
307.670990
30
-509.410004
70
192
0
VERTEX
8
OBJECT__168
10
-7.500000
20
295.782990
30
-519.047974
70
192
0
VERTEX
8
OBJECT__168
10
-7.500000
20
295.782990
30
-518.047974
70
192
0
VERTEX
8
OBJECT__168
10
-7.500000
20
299.645996
30
-517.435974
70
192
0
VERTEX
8
OBJECT__168
10
-7.500000
20
307.473999
30
-498.798004
70
192
0
VERTEX
8
OBJECT__168
10
-7.500000
20
307.670990
30
-501.684998
70
192
0
VERTEX
8
OBJECT__168
10
-7.500000
20
303.130005
30
-495.434998
70
192
0
VERTEX
8
OBJECT__168
10
-7.500000
20
302.532990
30
-517.239014
70
192
0
VERTEX
8
OBJECT__168
10
-7.500000
20
303.130005
30
-515.659973
70
192
0
VERTEX
8
OBJECT__168
10
-7.500000
20
282.282990
30
-505.548004
70
192
0
VERTEX
8
OBJECT__168
10
-7.500000
20
283.894989
30
-501.684998
70
192
0
VERTEX
8
OBJECT__168
10
-7.500000
20
283.894989
30
-509.410004
70
192
0
VERTEX
8
OBJECT__168
10
-7.500000
20
295.782990
30
-493.048004
70
192
0
VERTEX
8
OBJECT__168
10
-7.500000
20
295.782990
30
-492.048004
70
192
0
VERTEX
8
OBJECT__168
10
-7.500000
20
302.532990
30
-493.855988
70
192
0
VERTEX
8
OBJECT__168
10
-7.500000
20
284.092010
30
-498.798004
70
192
0
VERTEX
8
OBJECT__168
10
-7.500000
20
289.032990
30
-493.855988
70
192
0
VERTEX
8
OBJECT__168
10
-7.500000
20
288.436005
30
-495.434998
70
192
0
VERTEX
8
OBJECT__168
10
-7.500000
20
284.092010
30
-512.297974
70
192
0
VERTEX
8
OBJECT__168
10
0
20
0
30
0
70
128
71
1
72
2
73
3
0
VERTEX
8
OBJECT__168
10
0
20
0
30
0
70
128
71
4
72
5
73
6
0
VERTEX
8
OBJECT__168
10
0
20
0
30
0
70
128
71
7
72
8
73
9
0
VERTEX
8
OBJECT__168
10
0
20
0
30
0
70
128
71
3
72
8
73
1
0
VERTEX
8
OBJECT__168
10
0
20
0
30
0
70
128
71
2
72
10
73
11
0
VERTEX
8
OBJECT__168
10
0
20
0
30
0
70
128
71
6
72
10
73
4
0
VERTEX
8
OBJECT__168
10
0
20
0
30
0
70
128
71
8
72
7
73
1
0
VERTEX
8
OBJECT__168
10
0
20
0
30
0
70
128
71
6
72
11
73
10
0
VERTEX
8
OBJECT__168
10
0
20
0
30
0
70
128
71
12
72
13
73
14
0
VERTEX
8
OBJECT__168
10
0
20
0
30
0
70
128
71
15
72
16
73
17
0
VERTEX
8
OBJECT__168
10
0
20
0
30
0
70
128
71
11
72
3
73
2
0
VERTEX
8
OBJECT__168
10
0
20
0
30
0
70
128
71
12
72
18
73
13
0
VERTEX
8
OBJECT__168
10
0
20
0
30
0
70
128
71
18
72
19
73
20
0
VERTEX
8
OBJECT__168
10
0
20
0
30
0
70
128
71
9
72
17
73
7
0
VERTEX
8
OBJECT__168
10
0
20
0
30
0
70
128
71
21
72
14
73
5
0
VERTEX
8
OBJECT__168
10
0
20
0
30
0
70
128
71
20
72
13
73
18
0
VERTEX
8
OBJECT__168
10
0
20
0
30
0
70
128
71
15
72
20
73
19
0
VERTEX
8
OBJECT__168
10
0
20
0
30
0
70
128
71
5
72
4
73
21
0
VERTEX
8
OBJECT__168
10
0
20
0
30
0
70
128
71
19
72
16
73
15
0
VERTEX
8
OBJECT__168
10
0
20
0
30
0
70
128
71
14
72
21
73
12
0
VERTEX
8
OBJECT__168
10
0
20
0
30
0
70
128
71
17
72
9
73
15
0
SEQEND
8
OBJECT__168
0
POLYLINE
8
OBJECT__169
66
1
70
64
71
23
72
23
62
253
0
VERTEX
8
OBJECT__169
10
-7.500000
20
295.782990
30
-493.048004
70
192
0
VERTEX
8
OBJECT__169
10
-41.500000
20
295.782990
30
-493.048004
70
192
0
VERTEX
8
OBJECT__169
10
-41.500000
20
288.667999
30
-495.994995
70
192
0
VERTEX
8
OBJECT__169
10
-7.500000
20
303.130005
30
-495.434998
70
192
0
VERTEX
8
OBJECT__169
10
-41.500000
20
302.898010
30
-495.994995
70
192
0
VERTEX
8
OBJECT__169
10
-41.500000
20
286.944000
30
-496.709015
70
192
0
VERTEX
8
OBJECT__169
10
-41.500000
20
283.282990
30
-505.548004
70
192
0
VERTEX
8
OBJECT__169
10
-7.500000
20
283.894989
30
-501.684998
70
192
0
VERTEX
8
OBJECT__169
10
-7.500000
20
288.436005
30
-495.434998
70
192
0
VERTEX
8
OBJECT__169
10
-38.074001
20
284.880005
30
-508.972992
70
192
0
VERTEX
8
OBJECT__169
10
-7.500000
20
283.894989
30
-509.410004
70
192
0
VERTEX
8
OBJECT__169
10
-31.927999
20
287.743988
30
-515.119019
70
192
0
VERTEX
8
OBJECT__169
10
-29.716999
20
295.971985
30
-517.330017
70
192
0
VERTEX
8
OBJECT__169
10
-7.500000
20
303.130005
30
-515.659973
70
192
0
VERTEX
8
OBJECT__169
10
-7.500000
20
299.645996
30
-517.435974
70
192
0
VERTEX
8
OBJECT__169
10
-29.188000
20
297.941986
30
-517.859985
70
192
0
VERTEX
8
OBJECT__169
10
-35.235001
20
306.600006
30
-511.812988
70
192
0
VERTEX
8
OBJECT__169
10
-7.500000
20
307.670990
30
-509.410004
70
192
0
VERTEX
8
OBJECT__169
10
-7.500000
20
295.782990
30
-518.047974
70
192
0
VERTEX
8
OBJECT__169
10
-7.500000
20
307.670990
30
-501.684998
70
192
0
VERTEX
8
OBJECT__169
10
-37.747002
20
307.274994
30
-509.299988
70
192
0
VERTEX
8
OBJECT__169
10
-41.500000
20
304.622009
30
-496.709015
70
192
0
VERTEX
8
OBJECT__169
10
-41.500000
20
308.282990
30
-505.548004
70
192
0
VERTEX
8
OBJECT__169
10
0
20
0
30
0
70
128
71
1
72
2
73
3
0
VERTEX
8
OBJECT__169
10
0
20
0
30
0
70
128
71
1
72
4
73
5
0
VERTEX
8
OBJECT__169
10
0
20
0
30
0
70
128
71
5
72
2
73
1
0
VERTEX
8
OBJECT__169
10
0
20
0
30
0
70
128
71
6
72
7
73
8
0
VERTEX
8
OBJECT__169
10
0
20
0
30
0
70
128
71
9
72
3
73
6
0
VERTEX
8
OBJECT__169
10
0
20
0
30
0
70
128
71
8
72
7
73
10
0
VERTEX
8
OBJECT__169
10
0
20
0
30
0
70
128
71
10
72
11
73
8
0
VERTEX
8
OBJECT__169
10
0
20
0
30
0
70
128
71
11
72
12
73
13
0
VERTEX
8
OBJECT__169
10
0
20
0
30
0
70
128
71
11
72
10
73
12
0
VERTEX
8
OBJECT__169
10
0
20
0
30
0
70
128
71
14
72
15
73
16
0
VERTEX
8
OBJECT__169
10
0
20
0
30
0
70
128
71
17
72
18
73
14
0
VERTEX
8
OBJECT__169
10
0
20
0
30
0
70
128
71
16
72
17
73
14
0
VERTEX
8
OBJECT__169
10
0
20
0
30
0
70
128
71
19
72
13
73
16
0
VERTEX
8
OBJECT__169
10
0
20
0
30
0
70
128
71
16
72
15
73
19
0
VERTEX
8
OBJECT__169
10
0
20
0
30
0
70
128
71
20
72
18
73
21
0
VERTEX
8
OBJECT__169
10
0
20
0
30
0
70
128
71
22
72
4
73
20
0
VERTEX
8
OBJECT__169
10
0
20
0
30
0
70
128
71
20
72
23
73
22
0
VERTEX
8
OBJECT__169
10
0
20
0
30
0
70
128
71
21
72
23
73
20
0
VERTEX
8
OBJECT__169
10
0
20
0
30
0
70
128
71
22
72
5
73
4
0
VERTEX
8
OBJECT__169
10
0
20
0
30
0
70
128
71
17
72
21
73
18
0
VERTEX
8
OBJECT__169
10
0
20
0
30
0
70
128
71
13
72
19
73
11
0
VERTEX
8
OBJECT__169
10
0
20
0
30
0
70
128
71
8
72
9
73
6
0
VERTEX
8
OBJECT__169
10
0
20
0
30
0
70
128
71
3
72
9
73
1
0
SEQEND
8
OBJECT__169
0
POLYLINE
8
OBJECT__170
66
1
70
64
71
17
72
18
62
253
0
VERTEX
8
OBJECT__170
10
-50.339001
20
295.782990
30
-496.709015
70
192
0
VERTEX
8
OBJECT__170
10
-47.750000
20
286.944000
30
-499.298004
70
192
0
VERTEX
8
OBJECT__170
10
-41.500000
20
288.667999
30
-495.994995
70
192
0
VERTEX
8
OBJECT__170
10
-41.500000
20
286.944000
30
-496.709015
70
192
0
VERTEX
8
OBJECT__170
10
-41.500000
20
295.782990
30
-493.048004
70
192
0
VERTEX
8
OBJECT__170
10
-41.500000
20
302.898010
30
-495.994995
70
192
0
VERTEX
8
OBJECT__170
10
-47.750000
20
304.622009
30
-499.298004
70
192
0
VERTEX
8
OBJECT__170
10
-51.500000
20
299.532990
30
-499.053009
70
192
0
VERTEX
8
OBJECT__170
10
-50.339001
20
304.622009
30
-505.548004
70
192
0
VERTEX
8
OBJECT__170
10
-51.500000
20
303.282990
30
-505.548004
70
192
0
VERTEX
8
OBJECT__170
10
-51.500000
20
292.032990
30
-499.053009
70
192
0
VERTEX
8
OBJECT__170
10
-51.500000
20
288.282990
30
-505.548004
70
192
0
VERTEX
8
OBJECT__170
10
-51.500000
20
295.782990
30
-499.053009
70
192
0
VERTEX
8
OBJECT__170
10
-50.339001
20
286.944000
30
-505.548004
70
192
0
VERTEX
8
OBJECT__170
10
-41.500000
20
308.282990
30
-505.548004
70
192
0
VERTEX
8
OBJECT__170
10
-41.500000
20
304.622009
30
-496.709015
70
192
0
VERTEX
8
OBJECT__170
10
-41.500000
20
283.282990
30
-505.548004
70
192
0
VERTEX
8
OBJECT__170
10
0
20
0
30
0
70
128
71
1
72
2
73
3
0
VERTEX
8
OBJECT__170
10
0
20
0
30
0
70
128
71
2
72
4
73
3
0
VERTEX
8
OBJECT__170
10
0
20
0
30
0
70
128
71
1
72
5
73
6
0
VERTEX
8
OBJECT__170
10
0
20
0
30
0
70
128
71
6
72
7
73
1
0
VERTEX
8
OBJECT__170
10
0
20
0
30
0
70
128
71
1
72
7
73
8
0
VERTEX
8
OBJECT__170
10
0
20
0
30
0
70
128
71
7
72
9
73
10
0
VERTEX
8
OBJECT__170
10
0
20
0
30
0
70
128
71
10
72
8
73
7
0
VERTEX
8
OBJECT__170
10
0
20
0
30
0
70
128
71
2
72
11
73
12
0
VERTEX
8
OBJECT__170
10
0
20
0
30
0
70
128
71
1
72
13
73
11
0
VERTEX
8
OBJECT__170
10
0
20
0
30
0
70
128
71
11
72
2
73
1
0
VERTEX
8
OBJECT__170
10
0
20
0
30
0
70
128
71
12
72
14
73
2
0
VERTEX
8
OBJECT__170
10
0
20
0
30
0
70
128
71
8
72
13
73
1
0
VERTEX
8
OBJECT__170
10
0
20
0
30
0
70
128
71
15
72
7
73
16
0
VERTEX
8
OBJECT__170
10
0
20
0
30
0
70
128
71
15
72
9
73
7
0
VERTEX
8
OBJECT__170
10
0
20
0
30
0
70
128
71
6
72
16
73
7
0
VERTEX
8
OBJECT__170
10
0
20
0
30
0
70
128
71
3
72
5
73
1
0
VERTEX
8
OBJECT__170
10
0
20
0
30
0
70
128
71
4
72
2
73
17
0
VERTEX
8
OBJECT__170
10
0
20
0
30
0
70
128
71
2
72
14
73
17
0
SEQEND
8
OBJECT__170
0
POLYLINE
8
OBJECT__171
66
1
70
64
71
27
72
27
62
253
0
VERTEX
8
OBJECT__171
10
-51.612999
20
303.130005
30
-535.547974
70
192
0
VERTEX
8
OBJECT__171
10
-53.388000
20
299.645996
30
-548.047974
70
192
0
VERTEX
8
OBJECT__171
10
-54.000000
20
295.782990
30
-548.047974
70
192
0
VERTEX
8
OBJECT__171
10
-51.612999
20
288.436005
30
-535.547974
70
192
0
VERTEX
8
OBJECT__171
10
-51.612999
20
303.130005
30
-548.047974
70
192
0
VERTEX
8
OBJECT__171
10
-37.747002
20
307.274994
30
-509.299988
70
192
0
VERTEX
8
OBJECT__171
10
-37.637001
20
307.670990
30
-548.047974
70
192
0
VERTEX
8
OBJECT__171
10
-51.500000
20
303.282990
30
-535.547974
70
192
0
VERTEX
8
OBJECT__171
10
-50.339001
20
304.622009
30
-505.548004
70
192
0
VERTEX
8
OBJECT__171
10
-41.500000
20
308.282990
30
-505.548004
70
192
0
VERTEX
8
OBJECT__171
10
-51.500000
20
303.282990
30
-505.548004
70
192
0
VERTEX
8
OBJECT__171
10
-45.362999
20
307.670990
30
-548.047974
70
192
0
VERTEX
8
OBJECT__171
10
-35.235001
20
306.600006
30
-511.812988
70
192
0
VERTEX
8
OBJECT__171
10
-29.188000
20
297.941986
30
-517.859985
70
192
0
VERTEX
8
OBJECT__171
10
-29.000000
20
295.782990
30
-548.047974
70
192
0
VERTEX
8
OBJECT__171
10
-31.386999
20
288.436005
30
-548.047974
70
192
0
VERTEX
8
OBJECT__171
10
-29.612000
20
291.920013
30
-548.047974
70
192
0
VERTEX
8
OBJECT__171
10
-29.716999
20
295.971985
30
-517.330017
70
192
0
VERTEX
8
OBJECT__171
10
-31.927999
20
287.743988
30
-515.119019
70
192
0
VERTEX
8
OBJECT__171
10
-37.637001
20
283.894989
30
-548.047974
70
192
0
VERTEX
8
OBJECT__171
10
-51.612999
20
288.436005
30
-548.047974
70
192
0
VERTEX
8
OBJECT__171
10
-45.362999
20
283.894989
30
-548.047974
70
192
0
VERTEX
8
OBJECT__171
10
-51.500000
20
288.282990
30
-535.547974
70
192
0
VERTEX
8
OBJECT__171
10
-38.074001
20
284.880005
30
-508.972992
70
192
0
VERTEX
8
OBJECT__171
10
-50.339001
20
286.944000
30
-505.548004
70
192
0
VERTEX
8
OBJECT__171
10
-41.500000
20
283.282990
30
-505.548004
70
192
0
VERTEX
8
OBJECT__171
10
-51.500000
20
288.282990
30
-505.548004
70
192
0
VERTEX
8
OBJECT__171
10
0
20
0
30
0
70
128
71
1
72
2
73
3
0
VERTEX
8
OBJECT__171
10
0
20
0
30
0
70
128
71
3
72
4
73
1
0
VERTEX
8
OBJECT__171
10
0
20
0
30
0
70
128
71
1
72
5
73
2
0
VERTEX
8
OBJECT__171
10
0
20
0
30
0
70
128
71
6
72
7
73
8
0
VERTEX
8
OBJECT__171
10
0
20
0
30
0
70
128
71
9
72
10
73
6
0
VERTEX
8
OBJECT__171
10
0
20
0
30
0
70
128
71
8
72
11
73
9
0
VERTEX
8
OBJECT__171
10
0
20
0
30
0
70
128
71
5
72
1
73
8
0
VERTEX
8
OBJECT__171
10
0
20
0
30
0
70
128
71
8
72
7
73
12
0
VERTEX
8
OBJECT__171
10
0
20
0
30
0
70
128
71
8
72
12
73
5
0
VERTEX
8
OBJECT__171
10
0
20
0
30
0
70
128
71
7
72
13
73
14
0
VERTEX
8
OBJECT__171
10
0
20
0
30
0
70
128
71
7
72
6
73
13
0
VERTEX
8
OBJECT__171
10
0
20
0
30
0
70
128
71
14
72
15
73
7
0
VERTEX
8
OBJECT__171
10
0
20
0
30
0
70
128
71
16
72
17
73
18
0
VERTEX
8
OBJECT__171
10
0
20
0
30
0
70
128
71
18
72
19
73
16
0
VERTEX
8
OBJECT__171
10
0
20
0
30
0
70
128
71
19
72
20
73
16
0
VERTEX
8
OBJECT__171
10
0
20
0
30
0
70
128
71
17
72
15
73
18
0
VERTEX
8
OBJECT__171
10
0
20
0
30
0
70
128
71
21
72
22
73
23
0
VERTEX
8
OBJECT__171
10
0
20
0
30
0
70
128
71
23
72
4
73
21
0
VERTEX
8
OBJECT__171
10
0
20
0
30
0
70
128
71
24
72
25
73
23
0
VERTEX
8
OBJECT__171
10
0
20
0
30
0
70
128
71
23
72
20
73
24
0
VERTEX
8
OBJECT__171
10
0
20
0
30
0
70
128
71
24
72
26
73
25
0
VERTEX
8
OBJECT__171
10
0
20
0
30
0
70
128
71
25
72
27
73
23
0
VERTEX
8
OBJECT__171
10
0
20
0
30
0
70
128
71
22
72
20
73
23
0
VERTEX
8
OBJECT__171
10
0
20
0
30
0
70
128
71
19
72
24
73
20
0
VERTEX
8
OBJECT__171
10
0
20
0
30
0
70
128
71
14
72
18
73
15
0
VERTEX
8
OBJECT__171
10
0
20
0
30
0
70
128
71
8
72
9
73
6
0
VERTEX
8
OBJECT__171
10
0
20
0
30
0
70
128
71
3
72
21
73
4
0
SEQEND
8
OBJECT__171
0
POLYLINE
8
OBJECT__172
66
1
70
64
71
22
72
22
62
253
0
VERTEX
8
OBJECT__172
10
-55.000000
20
295.782990
30
-548.047974
70
192
0
VERTEX
8
OBJECT__172
10
-54.000000
20
295.782990
30
-548.047974
70
192
0
VERTEX
8
OBJECT__172
10
-53.388000
20
299.645996
30
-548.047974
70
192
0
VERTEX
8
OBJECT__172
10
-48.250000
20
307.473999
30
-548.047974
70
192
0
VERTEX
8
OBJECT__172
10
-53.191002
20
302.532990
30
-548.047974
70
192
0
VERTEX
8
OBJECT__172
10
-51.612999
20
303.130005
30
-548.047974
70
192
0
VERTEX
8
OBJECT__172
10
-41.500000
20
309.282990
30
-548.047974
70
192
0
VERTEX
8
OBJECT__172
10
-45.362999
20
307.670990
30
-548.047974
70
192
0
VERTEX
8
OBJECT__172
10
-37.637001
20
307.670990
30
-548.047974
70
192
0
VERTEX
8
OBJECT__172
10
-53.191002
20
289.032990
30
-548.047974
70
192
0
VERTEX
8
OBJECT__172
10
-28.000000
20
295.782990
30
-548.047974
70
192
0
VERTEX
8
OBJECT__172
10
-29.000000
20
295.782990
30
-548.047974
70
192
0
VERTEX
8
OBJECT__172
10
-29.612000
20
291.920013
30
-548.047974
70
192
0
VERTEX
8
OBJECT__172
10
-51.612999
20
288.436005
30
-548.047974
70
192
0
VERTEX
8
OBJECT__172
10
-41.500000
20
282.282990
30
-548.047974
70
192
0
VERTEX
8
OBJECT__172
10
-34.750000
20
284.092010
30
-548.047974
70
192
0
VERTEX
8
OBJECT__172
10
-37.637001
20
283.894989
30
-548.047974
70
192
0
VERTEX
8
OBJECT__172
10
-29.809000
20
289.032990
30
-548.047974
70
192
0
VERTEX
8
OBJECT__172
10
-31.386999
20
288.436005
30
-548.047974
70
192
0
VERTEX
8
OBJECT__172
10
-48.250000
20
284.092010
30
-548.047974
70
192
0
VERTEX
8
OBJECT__172
10
-45.362999
20
283.894989
30
-548.047974
70
192
0
VERTEX
8
OBJECT__172
10
-34.750000
20
307.473999
30
-548.047974
70
192
0
VERTEX
8
OBJECT__172
10
0
20
0
30
0
70
128
71
1
72
2
73
3
0
VERTEX
8
OBJECT__172
10
0
20
0
30
0
70
128
71
4
72
5
73
6
0
VERTEX
8
OBJECT__172
10
0
20
0
30
0
70
128
71
3
72
5
73
1
0
VERTEX
8
OBJECT__172
10
0
20
0
30
0
70
128
71
7
72
8
73
9
0
VERTEX
8
OBJECT__172
10
0
20
0
30
0
70
128
71
3
72
6
73
5
0
VERTEX
8
OBJECT__172
10
0
20
0
30
0
70
128
71
2
72
1
73
10
0
VERTEX
8
OBJECT__172
10
0
20
0
30
0
70
128
71
11
72
12
73
13
0
VERTEX
8
OBJECT__172
10
0
20
0
30
0
70
128
71
7
72
4
73
8
0
VERTEX
8
OBJECT__172
10
0
20
0
30
0
70
128
71
10
72
14
73
2
0
VERTEX
8
OBJECT__172
10
0
20
0
30
0
70
128
71
15
72
16
73
17
0
VERTEX
8
OBJECT__172
10
0
20
0
30
0
70
128
71
16
72
18
73
19
0
VERTEX
8
OBJECT__172
10
0
20
0
30
0
70
128
71
13
72
18
73
11
0
VERTEX
8
OBJECT__172
10
0
20
0
30
0
70
128
71
6
72
8
73
4
0
VERTEX
8
OBJECT__172
10
0
20
0
30
0
70
128
71
20
72
21
73
14
0
VERTEX
8
OBJECT__172
10
0
20
0
30
0
70
128
71
17
72
21
73
15
0
VERTEX
8
OBJECT__172
10
0
20
0
30
0
70
128
71
13
72
19
73
18
0
VERTEX
8
OBJECT__172
10
0
20
0
30
0
70
128
71
14
72
10
73
20
0
VERTEX
8
OBJECT__172
10
0
20
0
30
0
70
128
71
19
72
17
73
16
0
VERTEX
8
OBJECT__172
10
0
20
0
30
0
70
128
71
22
72
9
73
12
0
VERTEX
8
OBJECT__172
10
0
20
0
30
0
70
128
71
21
72
20
73
15
0
VERTEX
8
OBJECT__172
10
0
20
0
30
0
70
128
71
9
72
22
73
7
0
VERTEX
8
OBJECT__172
10
0
20
0
30
0
70
128
71
12
72
11
73
22
0
SEQEND
8
OBJECT__172
0
POLYLINE
8
OBJECT__173
66
1
70
64
71
17
72
17
62
253
0
VERTEX
8
OBJECT__173
10
-48.250000
20
307.473999
30
-550.547974
70
192
0
VERTEX
8
OBJECT__173
10
-55.000000
20
295.782990
30
-550.547974
70
192
0
VERTEX
8
OBJECT__173
10
-53.191002
20
302.532990
30
-548.047974
70
192
0
VERTEX
8
OBJECT__173
10
-55.000000
20
295.782990
30
-548.047974
70
192
0
VERTEX
8
OBJECT__173
10
-34.750000
20
307.473999
30
-550.547974
70
192
0
VERTEX
8
OBJECT__173
10
-41.500000
20
309.282990
30
-548.047974
70
192
0
VERTEX
8
OBJECT__173
10
-48.250000
20
307.473999
30
-548.047974
70
192
0
VERTEX
8
OBJECT__173
10
-28.000000
20
295.782990
30
-548.047974
70
192
0
VERTEX
8
OBJECT__173
10
-28.000000
20
295.782990
30
-550.547974
70
192
0
VERTEX
8
OBJECT__173
10
-34.750000
20
284.092010
30
-550.547974
70
192
0
VERTEX
8
OBJECT__173
10
-29.809000
20
289.032990
30
-548.047974
70
192
0
VERTEX
8
OBJECT__173
10
-34.750000
20
284.092010
30
-548.047974
70
192
0
VERTEX
8
OBJECT__173
10
-41.500000
20
282.282990
30
-548.047974
70
192
0
VERTEX
8
OBJECT__173
10
-48.250000
20
284.092010
30
-550.547974
70
192
0
VERTEX
8
OBJECT__173
10
-48.250000
20
284.092010
30
-548.047974
70
192
0
VERTEX
8
OBJECT__173
10
-53.191002
20
289.032990
30
-548.047974
70
192
0
VERTEX
8
OBJECT__173
10
-34.750000
20
307.473999
30
-548.047974
70
192
0
VERTEX
8
OBJECT__173
10
0
20
0
30
0
70
128
71
1
72
2
73
3
0
VERTEX
8
OBJECT__173
10
0
20
0
30
0
70
128
71
2
72
4
73
3
0
VERTEX
8
OBJECT__173
10
0
20
0
30
0
70
128
71
5
72
1
73
6
0
VERTEX
8
OBJECT__173
10
0
20
0
30
0
70
128
71
1
72
7
73
6
0
VERTEX
8
OBJECT__173
10
0
20
0
30
0
70
128
71
8
72
9
73
5
0
VERTEX
8
OBJECT__173
10
0
20
0
30
0
70
128
71
10
72
9
73
11
0
VERTEX
8
OBJECT__173
10
0
20
0
30
0
70
128
71
9
72
8
73
11
0
VERTEX
8
OBJECT__173
10
0
20
0
30
0
70
128
71
10
72
12
73
13
0
VERTEX
8
OBJECT__173
10
0
20
0
30
0
70
128
71
13
72
14
73
10
0
VERTEX
8
OBJECT__173
10
0
20
0
30
0
70
128
71
14
72
15
73
16
0
VERTEX
8
OBJECT__173
10
0
20
0
30
0
70
128
71
16
72
2
73
14
0
VERTEX
8
OBJECT__173
10
0
20
0
30
0
70
128
71
16
72
4
73
2
0
VERTEX
8
OBJECT__173
10
0
20
0
30
0
70
128
71
13
72
15
73
14
0
VERTEX
8
OBJECT__173
10
0
20
0
30
0
70
128
71
11
72
12
73
10
0
VERTEX
8
OBJECT__173
10
0
20
0
30
0
70
128
71
5
72
17
73
8
0
VERTEX
8
OBJECT__173
10
0
20
0
30
0
70
128
71
6
72
17
73
5
0
VERTEX
8
OBJECT__173
10
0
20
0
30
0
70
128
71
3
72
7
73
1
0
SEQEND
8
OBJECT__173
0
POLYLINE
8
OBJECT__174
66
1
70
64
71
6
72
4
62
253
0
VERTEX
8
OBJECT__174
10
-28.000000
20
295.782990
30
-550.547974
70
192
0
VERTEX
8
OBJECT__174
10
-34.750000
20
284.092010
30
-550.547974
70
192
0
VERTEX
8
OBJECT__174
10
-48.250000
20
284.092010
30
-550.547974
70
192
0
VERTEX
8
OBJECT__174
10
-55.000000
20
295.782990
30
-550.547974
70
192
0
VERTEX
8
OBJECT__174
10
-48.250000
20
307.473999
30
-550.547974
70
192
0
VERTEX
8
OBJECT__174
10
-34.750000
20
307.473999
30
-550.547974
70
192
0
VERTEX
8
OBJECT__174
10
0
20
0
30
0
70
128
71
1
72
2
73
3
0
VERTEX
8
OBJECT__174
10
0
20
0
30
0
70
128
71
1
72
4
73
5
0
VERTEX
8
OBJECT__174
10
0
20
0
30
0
70
128
71
5
72
6
73
1
0
VERTEX
8
OBJECT__174
10
0
20
0
30
0
70
128
71
3
72
4
73
1
0
SEQEND
8
OBJECT__174
0
POLYLINE
8
OBJECT__175
66
1
70
64
71
6
72
4
62
253
0
VERTEX
8
OBJECT__175
10
-55.500000
20
288.282990
30
-535.547974
70
192
0
VERTEX
8
OBJECT__175
10
-55.500000
20
303.282990
30
-535.547974
70
192
0
VERTEX
8
OBJECT__175
10
-51.612999
20
303.130005
30
-535.547974
70
192
0
VERTEX
8
OBJECT__175
10
-51.500000
20
303.282990
30
-535.547974
70
192
0
VERTEX
8
OBJECT__175
10
-51.612999
20
288.436005
30
-535.547974
70
192
0
VERTEX
8
OBJECT__175
10
-51.500000
20
288.282990
30
-535.547974
70
192
0
VERTEX
8
OBJECT__175
10
0
20
0
30
0
70
128
71
1
72
2
73
3
0
VERTEX
8
OBJECT__175
10
0
20
0
30
0
70
128
71
2
72
4
73
3
0
VERTEX
8
OBJECT__175
10
0
20
0
30
0
70
128
71
3
72
5
73
1
0
VERTEX
8
OBJECT__175
10
0
20
0
30
0
70
128
71
5
72
6
73
1
0
SEQEND
8
OBJECT__175
0
POLYLINE
8
OBJECT__176
66
1
70
64
71
4
72
2
62
253
0
VERTEX
8
OBJECT__176
10
-55.500000
20
303.282990
30
-535.547974
70
192
0
VERTEX
8
OBJECT__176
10
-55.500000
20
309.282990
30
-510.548004
70
192
0
VERTEX
8
OBJECT__176
10
-51.500000
20
309.282990
30
-510.548004
70
192
0
VERTEX
8
OBJECT__176
10
-51.500000
20
303.282990
30
-535.547974
70
192
0
VERTEX
8
OBJECT__176
10
0
20
0
30
0
70
128
71
1
72
2
73
3
0
VERTEX
8
OBJECT__176
10
0
20
0
30
0
70
128
71
3
72
4
73
1
0
SEQEND
8
OBJECT__176
0
POLYLINE
8
OBJECT__177
66
1
70
64
71
8
72
6
62
253
0
VERTEX
8
OBJECT__177
10
-57.000000
20
309.282990
30
-501.548004
70
192
0
VERTEX
8
OBJECT__177
10
-55.500000
20
309.282990
30
-501.548004
70
192
0
VERTEX
8
OBJECT__177
10
-55.500000
20
309.282990
30
-509.548004
70
192
0
VERTEX
8
OBJECT__177
10
-51.500000
20
309.282990
30
-510.548004
70
192
0
VERTEX
8
OBJECT__177
10
-55.500000
20
309.282990
30
-510.548004
70
192
0
VERTEX
8
OBJECT__177
10
-51.500000
20
309.282990
30
-500.548004
70
192
0
VERTEX
8
OBJECT__177
10
-57.000000
20
309.282990
30
-509.548004
70
192
0
VERTEX
8
OBJECT__177
10
-55.500000
20
309.282990
30
-500.548004
70
192
0
VERTEX
8
OBJECT__177
10
0
20
0
30
0
70
128
71
1
72
2
73
3
0
VERTEX
8
OBJECT__177
10
0
20
0
30
0
70
128
71
4
72
5
73
3
0
VERTEX
8
OBJECT__177
10
0
20
0
30
0
70
128
71
6
72
4
73
2
0
VERTEX
8
OBJECT__177
10
0
20
0
30
0
70
128
71
3
72
2
73
4
0
VERTEX
8
OBJECT__177
10
0
20
0
30
0
70
128
71
3
72
7
73
1
0
VERTEX
8
OBJECT__177
10
0
20
0
30
0
70
128
71
2
72
8
73
6
0
SEQEND
8
OBJECT__177
0
POLYLINE
8
OBJECT__178
66
1
70
64
71
4
72
2
62
253
0
VERTEX
8
OBJECT__178
10
-55.500000
20
309.282990
30
-500.548004
70
192
0
VERTEX
8
OBJECT__178
10
-55.500000
20
303.282990
30
-475.548004
70
192
0
VERTEX
8
OBJECT__178
10
-51.500000
20
303.282990
30
-475.548004
70
192
0
VERTEX
8
OBJECT__178
10
-51.500000
20
309.282990
30
-500.548004
70
192
0
VERTEX
8
OBJECT__178
10
0
20
0
30
0
70
128
71
1
72
2
73
3
0
VERTEX
8
OBJECT__178
10
0
20
0
30
0
70
128
71
3
72
4
73
1
0
SEQEND
8
OBJECT__178
0
POLYLINE
8
OBJECT__179
66
1
70
64
71
4
72
2
62
253
0
VERTEX
8
OBJECT__179
10
-55.500000
20
288.282990
30
-475.548004
70
192
0
VERTEX
8
OBJECT__179
10
-51.500000
20
288.282990
30
-475.548004
70
192
0
VERTEX
8
OBJECT__179
10
-51.500000
20
303.282990
30
-475.548004
70
192
0
VERTEX
8
OBJECT__179
10
-55.500000
20
303.282990
30
-475.548004
70
192
0
VERTEX
8
OBJECT__179
10
0
20
0
30
0
70
128
71
1
72
2
73
3
0
VERTEX
8
OBJECT__179
10
0
20
0
30
0
70
128
71
3
72
4
73
1
0
SEQEND
8
OBJECT__179
0
POLYLINE
8
OBJECT__180
66
1
70
64
71
13
72
11
62
253
0
VERTEX
8
OBJECT__180
10
-51.500000
20
303.282990
30
-505.548004
70
192
0
VERTEX
8
OBJECT__180
10
-51.500000
20
303.282990
30
-535.547974
70
192
0
VERTEX
8
OBJECT__180
10
-51.500000
20
309.282990
30
-510.548004
70
192
0
VERTEX
8
OBJECT__180
10
-51.500000
20
309.282990
30
-500.548004
70
192
0
VERTEX
8
OBJECT__180
10
-51.500000
20
303.282990
30
-475.548004
70
192
0
VERTEX
8
OBJECT__180
10
-51.500000
20
299.532990
30
-499.053009
70
192
0
VERTEX
8
OBJECT__180
10
-51.500000
20
288.282990
30
-475.548004
70
192
0
VERTEX
8
OBJECT__180
10
-51.500000
20
295.782990
30
-499.053009
70
192
0
VERTEX
8
OBJECT__180
10
-51.500000
20
292.032990
30
-499.053009
70
192
0
VERTEX
8
OBJECT__180
10
-51.500000
20
282.282990
30
-500.548004
70
192
0
VERTEX
8
OBJECT__180
10
-51.500000
20
288.282990
30
-505.548004
70
192
0
VERTEX
8
OBJECT__180
10
-51.500000
20
282.282990
30
-510.548004
70
192
0
VERTEX
8
OBJECT__180
10
-51.500000
20
288.282990
30
-535.547974
70
192
0
VERTEX
8
OBJECT__180
10
0
20
0
30
0
70
128
71
1
72
2
73
3
0
VERTEX
8
OBJECT__180
10
0
20
0
30
0
70
128
71
4
72
5
73
6
0
VERTEX
8
OBJECT__180
10
0
20
0
30
0
70
128
71
5
72
7
73
8
0
VERTEX
8
OBJECT__180
10
0
20
0
30
0
70
128
71
6
72
1
73
4
0
VERTEX
8
OBJECT__180
10
0
20
0
30
0
70
128
71
7
72
9
73
8
0
VERTEX
8
OBJECT__180
10
0
20
0
30
0
70
128
71
10
72
11
73
9
0
VERTEX
8
OBJECT__180
10
0
20
0
30
0
70
128
71
11
72
10
73
12
0
VERTEX
8
OBJECT__180
10
0
20
0
30
0
70
128
71
8
72
6
73
5
0
VERTEX
8
OBJECT__180
10
0
20
0
30
0
70
128
71
12
72
13
73
11
0
VERTEX
8
OBJECT__180
10
0
20
0
30
0
70
128
71
9
72
7
73
10
0
VERTEX
8
OBJECT__180
10
0
20
0
30
0
70
128
71
3
72
4
73
1
0
SEQEND
8
OBJECT__180
0
POLYLINE
8
OBJECT__181
66
1
70
64
71
4
72
2
62
253
0
VERTEX
8
OBJECT__181
10
-55.500000
20
288.282990
30
-475.548004
70
192
0
VERTEX
8
OBJECT__181
10
-55.500000
20
282.282990
30
-500.548004
70
192
0
VERTEX
8
OBJECT__181
10
-51.500000
20
282.282990
30
-500.548004
70
192
0
VERTEX
8
OBJECT__181
10
-51.500000
20
288.282990
30
-475.548004
70
192
0
VERTEX
8
OBJECT__181
10
0
20
0
30
0
70
128
71
1
72
2
73
3
0
VERTEX
8
OBJECT__181
10
0
20
0
30
0
70
128
71
3
72
4
73
1
0
SEQEND
8
OBJECT__181
0
POLYLINE
8
OBJECT__182
66
1
70
64
71
8
72
6
62
253
0
VERTEX
8
OBJECT__182
10
-57.000000
20
282.282990
30
-509.548004
70
192
0
VERTEX
8
OBJECT__182
10
-55.500000
20
282.282990
30
-509.548004
70
192
0
VERTEX
8
OBJECT__182
10
-55.500000
20
282.282990
30
-501.548004
70
192
0
VERTEX
8
OBJECT__182
10
-51.500000
20
282.282990
30
-500.548004
70
192
0
VERTEX
8
OBJECT__182
10
-55.500000
20
282.282990
30
-500.548004
70
192
0
VERTEX
8
OBJECT__182
10
-51.500000
20
282.282990
30
-510.548004
70
192
0
VERTEX
8
OBJECT__182
10
-57.000000
20
282.282990
30
-501.548004
70
192
0
VERTEX
8
OBJECT__182
10
-55.500000
20
282.282990
30
-510.548004
70
192
0
VERTEX
8
OBJECT__182
10
0
20
0
30
0
70
128
71
1
72
2
73
3
0
VERTEX
8
OBJECT__182
10
0
20
0
30
0
70
128
71
4
72
5
73
3
0
VERTEX
8
OBJECT__182
10
0
20
0
30
0
70
128
71
6
72
4
73
2
0
VERTEX
8
OBJECT__182
10
0
20
0
30
0
70
128
71
3
72
2
73
4
0
VERTEX
8
OBJECT__182
10
0
20
0
30
0
70
128
71
3
72
7
73
1
0
VERTEX
8
OBJECT__182
10
0
20
0
30
0
70
128
71
2
72
8
73
6
0
SEQEND
8
OBJECT__182
0
POLYLINE
8
OBJECT__183
66
1
70
64
71
4
72
2
62
253
0
VERTEX
8
OBJECT__183
10
-55.500000
20
282.282990
30
-510.548004
70
192
0
VERTEX
8
OBJECT__183
10
-55.500000
20
288.282990
30
-535.547974
70
192
0
VERTEX
8
OBJECT__183
10
-51.500000
20
288.282990
30
-535.547974
70
192
0
VERTEX
8
OBJECT__183
10
-51.500000
20
282.282990
30
-510.548004
70
192
0
VERTEX
8
OBJECT__183
10
0
20
0
30
0
70
128
71
1
72
2
73
3
0
VERTEX
8
OBJECT__183
10
0
20
0
30
0
70
128
71
3
72
4
73
1
0
SEQEND
8
OBJECT__183
0
POLYLINE
8
OBJECT__184
66
1
70
64
71
6
72
4
62
253
0
VERTEX
8
OBJECT__184
10
-50.000000
20
-25.253000
30
-472.011993
70
192
0
VERTEX
8
OBJECT__184
10
-52.000000
20
-25.253000
30
-472.011993
70
192
0
VERTEX
8
OBJECT__184
10
-52.000000
20
-26.716999
30
-475.548004
70
192
0
VERTEX
8
OBJECT__184
10
-50.000000
20
-21.716999
30
-470.548004
70
192
0
VERTEX
8
OBJECT__184
10
-52.000000
20
-21.716999
30
-470.548004
70
192
0
VERTEX
8
OBJECT__184
10
-50.000000
20
-26.716999
30
-475.548004
70
192
0
VERTEX
8
OBJECT__184
10
0
20
0
30
0
70
128
71
1
72
2
73
3
0
VERTEX
8
OBJECT__184
10
0
20
0
30
0
70
128
71
4
72
5
73
2
0
VERTEX
8
OBJECT__184
10
0
20
0
30
0
70
128
71
2
72
1
73
4
0
VERTEX
8
OBJECT__184
10
0
20
0
30
0
70
128
71
3
72
6
73
1
0
SEQEND
8
OBJECT__184
0
POLYLINE
8
OBJECT__185
66
1
70
64
71
4
72
2
62
253
0
VERTEX
8
OBJECT__185
10
-50.000000
20
-26.716999
30
-475.548004
70
192
0
VERTEX
8
OBJECT__185
10
-52.000000
20
-26.716999
30
-475.548004
70
192
0
VERTEX
8
OBJECT__185
10
-52.000000
20
-26.716999
30
-535.547974
70
192
0
VERTEX
8
OBJECT__185
10
-50.000000
20
-26.716999
30
-535.547974
70
192
0
VERTEX
8
OBJECT__185
10
0
20
0
30
0
70
128
71
1
72
2
73
3
0
VERTEX
8
OBJECT__185
10
0
20
0
30
0
70
128
71
3
72
4
73
1
0
SEQEND
8
OBJECT__185
0
POLYLINE
8
OBJECT__187
66
1
70
64
71
4
72
2
62
253
0
VERTEX
8
OBJECT__187
10
-50.000000
20
-26.716999
30
-535.547974
70
192
0
VERTEX
8
OBJECT__187
10
-52.000000
20
-26.716999
30
-535.547974
70
192
0
VERTEX
8
OBJECT__187
10
-52.000000
20
-21.716999
30
-540.547974
70
192
0
VERTEX
8
OBJECT__187
10
-50.000000
20
-21.716999
30
-540.547974
70
192
0
VERTEX
8
OBJECT__187
10
0
20
0
30
0
70
128
71
1
72
2
73
3
0
VERTEX
8
OBJECT__187
10
0
20
0
30
0
70
128
71
3
72
4
73
1
0
SEQEND
8
OBJECT__187
0
POLYLINE
8
OBJECT__188
66
1
70
64
71
7
72
5
62
253
0
VERTEX
8
OBJECT__188
10
-52.000000
20
-13.717000
30
-540.547974
70
192
0
VERTEX
8
OBJECT__188
10
-52.000000
20
-26.716999
30
-535.547974
70
192
0
VERTEX
8
OBJECT__188
10
-52.000000
20
-26.716999
30
-475.548004
70
192
0
VERTEX
8
OBJECT__188
10
-52.000000
20
-21.716999
30
-540.547974
70
192
0
VERTEX
8
OBJECT__188
10
-52.000000
20
-21.716999
30
-470.548004
70
192
0
VERTEX
8
OBJECT__188
10
-52.000000
20
-25.253000
30
-472.011993
70
192
0
VERTEX
8
OBJECT__188
10
-52.000000
20
-13.717000
30
-470.548004
70
192
0
VERTEX
8
OBJECT__188
10
0
20
0
30
0
70
128
71
1
72
2
73
3
0
VERTEX
8
OBJECT__188
10
0
20
0
30
0
70
128
71
1
72
4
73
2
0
VERTEX
8
OBJECT__188
10
0
20
0
30
0
70
128
71
3
72
5
73
1
0
VERTEX
8
OBJECT__188
10
0
20
0
30
0
70
128
71
3
72
6
73
5
0
VERTEX
8
OBJECT__188
10
0
20
0
30
0
70
128
71
5
72
7
73
1
0
SEQEND
8
OBJECT__188
0
POLYLINE
8
OBJECT__189
66
1
70
64
71
6
72
4
62
253
0
VERTEX
8
OBJECT__189
10
-52.292999
20
-13.010000
30
-540.547974
70
192
0
VERTEX
8
OBJECT__189
10
-52.000000
20
-13.717000
30
-540.547974
70
192
0
VERTEX
8
OBJECT__189
10
-52.000000
20
-13.717000
30
-470.548004
70
192
0
VERTEX
8
OBJECT__189
10
-53.000000
20
-12.717000
30
-540.547974
70
192
0
VERTEX
8
OBJECT__189
10
-52.292999
20
-13.010000
30
-470.548004
70
192
0
VERTEX
8
OBJECT__189
10
-53.000000
20
-12.717000
30
-470.548004
70
192
0
VERTEX
8
OBJECT__189
10
0
20
0
30
0
70
128
71
1
72
2
73
3
0
VERTEX
8
OBJECT__189
10
0
20
0
30
0
70
128
71
4
72
1
73
5
0
VERTEX
8
OBJECT__189
10
0
20
0
30
0
70
128
71
5
72
6
73
4
0
VERTEX
8
OBJECT__189
10
0
20
0
30
0
70
128
71
3
72
5
73
1
0
SEQEND
8
OBJECT__189
0
POLYLINE
8
OBJECT__190
66
1
70
64
71
4
72
2
62
253
0
VERTEX
8
OBJECT__190
10
-60.500000
20
-12.717000
30
-540.547974
70
192
0
VERTEX
8
OBJECT__190
10
-53.000000
20
-12.717000
30
-540.547974
70
192
0
VERTEX
8
OBJECT__190
10
-53.000000
20
-12.717000
30
-470.548004
70
192
0
VERTEX
8
OBJECT__190
10
-60.500000
20
-12.717000
30
-470.548004
70
192
0
VERTEX
8
OBJECT__190
10
0
20
0
30
0
70
128
71
1
72
2
73
3
0
VERTEX
8
OBJECT__190
10
0
20
0
30
0
70
128
71
3
72
4
73
1
0
SEQEND
8
OBJECT__190
0
POLYLINE
8
OBJECT__191
66
1
70
64
71
6
72
4
62
253
0
VERTEX
8
OBJECT__191
10
-62.620998
20
-11.838000
30
-470.548004
70
192
0
VERTEX
8
OBJECT__191
10
-63.500000
20
-9.717000
30
-470.548004
70
192
0
VERTEX
8
OBJECT__191
10
-63.500000
20
-9.717000
30
-540.547974
70
192
0
VERTEX
8
OBJECT__191
10
-60.500000
20
-12.717000
30
-470.548004
70
192
0
VERTEX
8
OBJECT__191
10
-62.620998
20
-11.838000
30
-540.547974
70
192
0
VERTEX
8
OBJECT__191
10
-60.500000
20
-12.717000
30
-540.547974
70
192
0
VERTEX
8
OBJECT__191
10
0
20
0
30
0
70
128
71
1
72
2
73
3
0
VERTEX
8
OBJECT__191
10
0
20
0
30
0
70
128
71
4
72
1
73
5
0
VERTEX
8
OBJECT__191
10
0
20
0
30
0
70
128
71
5
72
6
73
4
0
VERTEX
8
OBJECT__191
10
0
20
0
30
0
70
128
71
3
72
5
73
1
0
SEQEND
8
OBJECT__191
0
POLYLINE
8
OBJECT__192
66
1
70
64
71
4
72
2
62
253
0
VERTEX
8
OBJECT__192
10
-63.500000
20
-9.717000
30
-470.548004
70
192
0
VERTEX
8
OBJECT__192
10
-63.500000
20
14.283000
30
-470.548004
70
192
0
VERTEX
8
OBJECT__192
10
-63.500000
20
14.283000
30
-540.547974
70
192
0
VERTEX
8
OBJECT__192
10
-63.500000
20
-9.717000
30
-540.547974
70
192
0
VERTEX
8
OBJECT__192
10
0
20
0
30
0
70
128
71
1
72
2
73
3
0
VERTEX
8
OBJECT__192
10
0
20
0
30
0
70
128
71
3
72
4
73
1
0
SEQEND
8
OBJECT__192
0
POLYLINE
8
OBJECT__193
66
1
70
64
71
4
72
2
62
253
0
VERTEX
8
OBJECT__193
10
-61.500000
20
14.283000
30
-470.548004
70
192
0
VERTEX
8
OBJECT__193
10
-61.500000
20
14.283000
30
-540.547974
70
192
0
VERTEX
8
OBJECT__193
10
-63.500000
20
14.283000
30
-540.547974
70
192
0
VERTEX
8
OBJECT__193
10
-63.500000
20
14.283000
30
-470.548004
70
192
0
VERTEX
8
OBJECT__193
10
0
20
0
30
0
70
128
71
1
72
2
73
3
0
VERTEX
8
OBJECT__193
10
0
20
0
30
0
70
128
71
3
72
4
73
1
0
SEQEND
8
OBJECT__193
0
POLYLINE
8
OBJECT__194
66
1
70
64
71
15
72
13
62
253
0
VERTEX
8
OBJECT__194
10
-60.500000
20
-12.717000
30
-540.547974
70
192
0
VERTEX
8
OBJECT__194
10
-60.500000
20
-10.717000
30
-540.547974
70
192
0
VERTEX
8
OBJECT__194
10
-53.000000
20
-10.717000
30
-540.547974
70
192
0
VERTEX
8
OBJECT__194
10
-50.879002
20
-11.596000
30
-540.547974
70
192
0
VERTEX
8
OBJECT__194
10
-52.292999
20
-13.010000
30
-540.547974
70
192
0
VERTEX
8
OBJECT__194
10
-62.620998
20
-11.838000
30
-540.547974
70
192
0
VERTEX
8
OBJECT__194
10
-61.500000
20
-9.717000
30
-540.547974
70
192
0
VERTEX
8
OBJECT__194
10
-53.000000
20
-12.717000
30
-540.547974
70
192
0
VERTEX
8
OBJECT__194
10
-63.500000
20
-9.717000
30
-540.547974
70
192
0
VERTEX
8
OBJECT__194
10
-63.500000
20
14.283000
30
-540.547974
70
192
0
VERTEX
8
OBJECT__194
10
-61.500000
20
14.283000
30
-540.547974
70
192
0
VERTEX
8
OBJECT__194
10
-50.000000
20
-13.717000
30
-540.547974
70
192
0
VERTEX
8
OBJECT__194
10
-52.000000
20
-13.717000
30
-540.547974
70
192
0
VERTEX
8
OBJECT__194
10
-50.000000
20
-21.716999
30
-540.547974
70
192
0
VERTEX
8
OBJECT__194
10
-52.000000
20
-21.716999
30
-540.547974
70
192
0
VERTEX
8
OBJECT__194
10
0
20
0
30
0
70
128
71
1
72
2
73
3
0
VERTEX
8
OBJECT__194
10
0
20
0
30
0
70
128
71
3
72
4
73
5
0
VERTEX
8
OBJECT__194
10
0
20
0
30
0
70
128
71
6
72
7
73
2
0
VERTEX
8
OBJECT__194
10
0
20
0
30
0
70
128
71
5
72
8
73
3
0
VERTEX
8
OBJECT__194
10
0
20
0
30
0
70
128
71
6
72
9
73
7
0
VERTEX
8
OBJECT__194
10
0
20
0
30
0
70
128
71
2
72
1
73
6
0
VERTEX
8
OBJECT__194
10
0
20
0
30
0
70
128
71
10
72
11
73
7
0
VERTEX
8
OBJECT__194
10
0
20
0
30
0
70
128
71
12
72
13
73
5
0
VERTEX
8
OBJECT__194
10
0
20
0
30
0
70
128
71
13
72
12
73
14
0
VERTEX
8
OBJECT__194
10
0
20
0
30
0
70
128
71
7
72
9
73
10
0
VERTEX
8
OBJECT__194
10
0
20
0
30
0
70
128
71
14
72
15
73
13
0
VERTEX
8
OBJECT__194
10
0
20
0
30
0
70
128
71
5
72
4
73
12
0
VERTEX
8
OBJECT__194
10
0
20
0
30
0
70
128
71
3
72
8
73
1
0
SEQEND
8
OBJECT__194
0
POLYLINE
8
OBJECT__195
66
1
70
64
71
15
72
13
62
253
0
VERTEX
8
OBJECT__195
10
-62.620998
20
-11.838000
30
-470.548004
70
192
0
VERTEX
8
OBJECT__195
10
-60.500000
20
-12.717000
30
-470.548004
70
192
0
VERTEX
8
OBJECT__195
10
-60.500000
20
-10.717000
30
-470.548004
70
192
0
VERTEX
8
OBJECT__195
10
-50.000000
20
-21.716999
30
-470.548004
70
192
0
VERTEX
8
OBJECT__195
10
-50.000000
20
-13.717000
30
-470.548004
70
192
0
VERTEX
8
OBJECT__195
10
-52.000000
20
-13.717000
30
-470.548004
70
192
0
VERTEX
8
OBJECT__195
10
-50.879002
20
-11.596000
30
-470.548004
70
192
0
VERTEX
8
OBJECT__195
10
-52.292999
20
-13.010000
30
-470.548004
70
192
0
VERTEX
8
OBJECT__195
10
-53.000000
20
-10.717000
30
-470.548004
70
192
0
VERTEX
8
OBJECT__195
10
-53.000000
20
-12.717000
30
-470.548004
70
192
0
VERTEX
8
OBJECT__195
10
-61.500000
20
-9.717000
30
-470.548004
70
192
0
VERTEX
8
OBJECT__195
10
-61.500000
20
14.283000
30
-470.548004
70
192
0
VERTEX
8
OBJECT__195
10
-63.500000
20
14.283000
30
-470.548004
70
192
0
VERTEX
8
OBJECT__195
10
-63.500000
20
-9.717000
30
-470.548004
70
192
0
VERTEX
8
OBJECT__195
10
-52.000000
20
-21.716999
30
-470.548004
70
192
0
VERTEX
8
OBJECT__195
10
0
20
0
30
0
70
128
71
1
72
2
73
3
0
VERTEX
8
OBJECT__195
10
0
20
0
30
0
70
128
71
4
72
5
73
6
0
VERTEX
8
OBJECT__195
10
0
20
0
30
0
70
128
71
7
72
8
73
6
0
VERTEX
8
OBJECT__195
10
0
20
0
30
0
70
128
71
7
72
9
73
10
0
VERTEX
8
OBJECT__195
10
0
20
0
30
0
70
128
71
10
72
9
73
3
0
VERTEX
8
OBJECT__195
10
0
20
0
30
0
70
128
71
11
72
12
73
13
0
VERTEX
8
OBJECT__195
10
0
20
0
30
0
70
128
71
11
72
14
73
1
0
VERTEX
8
OBJECT__195
10
0
20
0
30
0
70
128
71
6
72
5
73
7
0
VERTEX
8
OBJECT__195
10
0
20
0
30
0
70
128
71
3
72
2
73
10
0
VERTEX
8
OBJECT__195
10
0
20
0
30
0
70
128
71
3
72
11
73
1
0
VERTEX
8
OBJECT__195
10
0
20
0
30
0
70
128
71
10
72
8
73
7
0
VERTEX
8
OBJECT__195
10
0
20
0
30
0
70
128
71
6
72
15
73
4
0
VERTEX
8
OBJECT__195
10
0
20
0
30
0
70
128
71
13
72
14
73
11
0
SEQEND
8
OBJECT__195
0
POLYLINE
8
OBJECT__196
66
1
70
64
71
6
72
4
62
253
0
VERTEX
8
OBJECT__196
10
-50.879002
20
-11.596000
30
-470.548004
70
192
0
VERTEX
8
OBJECT__196
10
-50.879002
20
-11.596000
30
-540.547974
70
192
0
VERTEX
8
OBJECT__196
10
-53.000000
20
-10.717000
30
-540.547974
70
192
0
VERTEX
8
OBJECT__196
10
-50.000000
20
-13.717000
30
-470.548004
70
192
0
VERTEX
8
OBJECT__196
10
-50.000000
20
-13.717000
30
-540.547974
70
192
0
VERTEX
8
OBJECT__196
10
-53.000000
20
-10.717000
30
-470.548004
70
192
0
VERTEX
8
OBJECT__196
10
0
20
0
30
0
70
128
71
1
72
2
73
3
0
VERTEX
8
OBJECT__196
10
0
20
0
30
0
70
128
71
4
72
5
73
2
0
VERTEX
8
OBJECT__196
10
0
20
0
30
0
70
128
71
2
72
1
73
4
0
VERTEX
8
OBJECT__196
10
0
20
0
30
0
70
128
71
3
72
6
73
1
0
SEQEND
8
OBJECT__196
0
POLYLINE
8
OBJECT__197
66
1
70
64
71
4
72
2
62
253
0
VERTEX
8
OBJECT__197
10
-53.000000
20
-10.717000
30
-470.548004
70
192
0
VERTEX
8
OBJECT__197
10
-53.000000
20
-10.717000
30
-540.547974
70
192
0
VERTEX
8
OBJECT__197
10
-60.500000
20
-10.717000
30
-540.547974
70
192
0
VERTEX
8
OBJECT__197
10
-60.500000
20
-10.717000
30
-470.548004
70
192
0
VERTEX
8
OBJECT__197
10
0
20
0
30
0
70
128
71
1
72
2
73
3
0
VERTEX
8
OBJECT__197
10
0
20
0
30
0
70
128
71
3
72
4
73
1
0
SEQEND
8
OBJECT__197
0
POLYLINE
8
OBJECT__198
66
1
70
64
71
4
72
2
62
253
0
VERTEX
8
OBJECT__198
10
-28.500000
20
435.782990
30
-326.048004
70
192
0
VERTEX
8
OBJECT__198
10
-28.500000
20
435.782990
30
-305.048004
70
192
0
VERTEX
8
OBJECT__198
10
-28.500000
20
-4.217000
30
-305.048004
70
192
0
VERTEX
8
OBJECT__198
10
-28.500000
20
-4.217000
30
-326.048004
70
192
0
VERTEX
8
OBJECT__198
10
0
20
0
30
0
70
128
71
1
72
2
73
3
0
VERTEX
8
OBJECT__198
10
0
20
0
30
0
70
128
71
3
72
4
73
1
0
SEQEND
8
OBJECT__198
0
POLYLINE
8
OBJECT__199
66
1
70
64
71
4
72
2
62
253
0
VERTEX
8
OBJECT__199
10
-2.000000
20
435.782990
30
-304.548004
70
192
0
VERTEX
8
OBJECT__199
10
-2.000000
20
-4.217000
30
-304.548004
70
192
0
VERTEX
8
OBJECT__199
10
-28.000000
20
-4.217000
30
-304.548004
70
192
0
VERTEX
8
OBJECT__199
10
-28.000000
20
435.782990
30
-304.548004
70
192
0
VERTEX
8
OBJECT__199
10
0
20
0
30
0
70
128
71
1
72
2
73
3
0
VERTEX
8
OBJECT__199
10
0
20
0
30
0
70
128
71
3
72
4
73
1
0
SEQEND
8
OBJECT__199
0
POLYLINE
8
OBJECT__201
66
1
70
64
71
4
72
2
62
253
0
VERTEX
8
OBJECT__201
10
-2.000000
20
-4.217000
30
-328.048004
70
192
0
VERTEX
8
OBJECT__201
10
-2.000000
20
435.782990
30
-328.048004
70
192
0
VERTEX
8
OBJECT__201
10
0.000000
20
435.782990
30
-326.048004
70
192
0
VERTEX
8
OBJECT__201
10
0.000000
20
-4.217000
30
-326.048004
70
192
0
VERTEX
8
OBJECT__201
10
0
20
0
30
0
70
128
71
1
72
2
73
3
0
VERTEX
8
OBJECT__201
10
0
20
0
30
0
70
128
71
3
72
4
73
1
0
SEQEND
8
OBJECT__201
0
POLYLINE
8
OBJECT__202
66
1
70
64
71
4
72
2
62
253
0
VERTEX
8
OBJECT__202
10
-2.000000
20
-4.217000
30
-328.048004
70
192
0
VERTEX
8
OBJECT__202
10
-28.000000
20
-4.217000
30
-328.048004
70
192
0
VERTEX
8
OBJECT__202
10
-28.000000
20
435.782990
30
-328.048004
70
192
0
VERTEX
8
OBJECT__202
10
-2.000000
20
435.782990
30
-328.048004
70
192
0
VERTEX
8
OBJECT__202
10
0
20
0
30
0
70
128
71
1
72
2
73
3
0
VERTEX
8
OBJECT__202
10
0
20
0
30
0
70
128
71
3
72
4
73
1
0
SEQEND
8
OBJECT__202
0
POLYLINE
8
OBJECT__203
66
1
70
64
71
4
72
2
62
253
0
VERTEX
8
OBJECT__203
10
-30.000000
20
-4.217000
30
-326.048004
70
192
0
VERTEX
8
OBJECT__203
10
-30.000000
20
435.782990
30
-326.048004
70
192
0
VERTEX
8
OBJECT__203
10
-28.000000
20
435.782990
30
-328.048004
70
192
0
VERTEX
8
OBJECT__203
10
-28.000000
20
-4.217000
30
-328.048004
70
192
0
VERTEX
8
OBJECT__203
10
0
20
0
30
0
70
128
71
1
72
2
73
3
0
VERTEX
8
OBJECT__203
10
0
20
0
30
0
70
128
71
3
72
4
73
1
0
SEQEND
8
OBJECT__203
0
POLYLINE
8
OBJECT__204
66
1
70
64
71
4
72
2
62
253
0
VERTEX
8
OBJECT__204
10
-30.000000
20
-4.217000
30
-326.048004
70
192
0
VERTEX
8
OBJECT__204
10
-30.000000
20
-4.217000
30
-305.048004
70
192
0
VERTEX
8
OBJECT__204
10
-30.000000
20
435.782990
30
-305.048004
70
192
0
VERTEX
8
OBJECT__204
10
-30.000000
20
435.782990
30
-326.048004
70
192
0
VERTEX
8
OBJECT__204
10
0
20
0
30
0
70
128
71
1
72
2
73
3
0
VERTEX
8
OBJECT__204
10
0
20
0
30
0
70
128
71
3
72
4
73
1
0
SEQEND
8
OBJECT__204
0
POLYLINE
8
OBJECT__205
66
1
70
64
71
6
72
4
62
253
0
VERTEX
8
OBJECT__205
10
-29.414000
20
435.782990
30
-303.632996
70
192
0
VERTEX
8
OBJECT__205
10
-30.000000
20
435.782990
30
-305.048004
70
192
0
VERTEX
8
OBJECT__205
10
-30.000000
20
-4.217000
30
-305.048004
70
192
0
VERTEX
8
OBJECT__205
10
-28.000000
20
435.782990
30
-303.048004
70
192
0
VERTEX
8
OBJECT__205
10
-29.414000
20
-4.217000
30
-303.632996
70
192
0
VERTEX
8
OBJECT__205
10
-28.000000
20
-4.217000
30
-303.048004
70
192
0
VERTEX
8
OBJECT__205
10
0
20
0
30
0
70
128
71
1
72
2
73
3
0
VERTEX
8
OBJECT__205
10
0
20
0
30
0
70
128
71
4
72
1
73
5
0
VERTEX
8
OBJECT__205
10
0
20
0
30
0
70
128
71
5
72
6
73
4
0
VERTEX
8
OBJECT__205
10
0
20
0
30
0
70
128
71
3
72
5
73
1
0
SEQEND
8
OBJECT__205
0
POLYLINE
8
OBJECT__206
66
1
70
64
71
4
72
2
62
253
0
VERTEX
8
OBJECT__206
10
-28.000000
20
-4.217000
30
-303.048004
70
192
0
VERTEX
8
OBJECT__206
10
-2.000000
20
-4.217000
30
-303.048004
70
192
0
VERTEX
8
OBJECT__206
10
-2.000000
20
435.782990
30
-303.048004
70
192
0
VERTEX
8
OBJECT__206
10
-28.000000
20
435.782990
30
-303.048004
70
192
0
VERTEX
8
OBJECT__206
10
0
20
0
30
0
70
128
71
1
72
2
73
3
0
VERTEX
8
OBJECT__206
10
0
20
0
30
0
70
128
71
3
72
4
73
1
0
SEQEND
8
OBJECT__206
0
POLYLINE
8
OBJECT__207
66
1
70
64
71
6
72
4
62
253
0
VERTEX
8
OBJECT__207
10
-0.586000
20
435.782990
30
-303.632996
70
192
0
VERTEX
8
OBJECT__207
10
-2.000000
20
435.782990
30
-303.048004
70
192
0
VERTEX
8
OBJECT__207
10
-2.000000
20
-4.217000
30
-303.048004
70
192
0
VERTEX
8
OBJECT__207
10
0.000000
20
-4.217000
30
-305.048004
70
192
0
VERTEX
8
OBJECT__207
10
0.000000
20
435.782990
30
-305.048004
70
192
0
VERTEX
8
OBJECT__207
10
-0.586000
20
-4.217000
30
-303.632996
70
192
0
VERTEX
8
OBJECT__207
10
0
20
0
30
0
70
128
71
1
72
2
73
3
0
VERTEX
8
OBJECT__207
10
0
20
0
30
0
70
128
71
4
72
5
73
1
0
VERTEX
8
OBJECT__207
10
0
20
0
30
0
70
128
71
1
72
6
73
4
0
VERTEX
8
OBJECT__207
10
0
20
0
30
0
70
128
71
3
72
6
73
1
0
SEQEND
8
OBJECT__207
0
POLYLINE
8
OBJECT__208
66
1
70
64
71
28
72
34
62
253
0
VERTEX
8
OBJECT__208
10
0.000000
20
-4.217000
30
-305.048004
70
192
0
VERTEX
8
OBJECT__208
10
0.000000
20
75.782997
30
-310.048004
70
192
0
VERTEX
8
OBJECT__208
10
0.000000
20
148.783005
30
-310.048004
70
192
0
VERTEX
8
OBJECT__208
10
0.000000
20
10.783000
30
-310.048004
70
192
0
VERTEX
8
OBJECT__208
10
0.000000
20
55.783001
30
-310.048004
70
192
0
VERTEX
8
OBJECT__208
10
0.000000
20
282.782990
30
-310.048004
70
192
0
VERTEX
8
OBJECT__208
10
0.000000
20
355.782990
30
-310.048004
70
192
0
VERTEX
8
OBJECT__208
10
0.000000
20
70.282997
30
-315.548004
70
192
0
VERTEX
8
OBJECT__208
10
0.000000
20
-4.217000
30
-326.048004
70
192
0
VERTEX
8
OBJECT__208
10
0.000000
20
5.283000
30
-315.548004
70
192
0
VERTEX
8
OBJECT__208
10
0.000000
20
435.782990
30
-305.048004
70
192
0
VERTEX
8
OBJECT__208
10
0.000000
20
375.782990
30
-310.048004
70
192
0
VERTEX
8
OBJECT__208
10
0.000000
20
75.782997
30
-321.048004
70
192
0
VERTEX
8
OBJECT__208
10
0.000000
20
55.783001
30
-321.048004
70
192
0
VERTEX
8
OBJECT__208
10
0.000000
20
435.782990
30
-326.048004
70
192
0
VERTEX
8
OBJECT__208
10
0.000000
20
148.783005
30
-321.048004
70
192
0
VERTEX
8
OBJECT__208
10
0.000000
20
355.782990
30
-321.048004
70
192
0
VERTEX
8
OBJECT__208
10
0.000000
20
282.782990
30
-321.048004
70
192
0
VERTEX
8
OBJECT__208
10
0.000000
20
420.782990
30
-321.048004
70
192
0
VERTEX
8
OBJECT__208
10
0.000000
20
375.782990
30
-321.048004
70
192
0
VERTEX
8
OBJECT__208
10
0.000000
20
420.782990
30
-310.048004
70
192
0
VERTEX
8
OBJECT__208
10
0.000000
20
277.282990
30
-315.548004
70
192
0
VERTEX
8
OBJECT__208
10
0.000000
20
370.282990
30
-315.548004
70
192
0
VERTEX
8
OBJECT__208
10
0.000000
20
361.282990
30
-315.548004
70
192
0
VERTEX
8
OBJECT__208
10
0.000000
20
61.283001
30
-315.548004
70
192
0
VERTEX
8
OBJECT__208
10
0.000000
20
10.783000
30
-321.048004
70
192
0
VERTEX
8
OBJECT__208
10
0.000000
20
154.283005
30
-315.548004
70
192
0
VERTEX
8
OBJECT__208
10
0.000000
20
426.282990
30
-315.548004
70
192
0
VERTEX
8
OBJECT__208
10
0
20
0
30
0
70
128
71
1
72
2
73
3
0
VERTEX
8
OBJECT__208
10
0
20
0
30
0
70
128
71
1
72
4
73
5
0
VERTEX
8
OBJECT__208
10
0
20
0
30
0
70
128
71
3
72
6
73
1
0
VERTEX
8
OBJECT__208
10
0
20
0
30
0
70
128
71
5
72
2
73
1
0
VERTEX
8
OBJECT__208
10
0
20
0
30
0
70
128
71
1
72
6
73
7
0
VERTEX
8
OBJECT__208
10
0
20
0
30
0
70
128
71
5
72
8
73
2
0
VERTEX
8
OBJECT__208
10
0
20
0
30
0
70
128
71
1
72
9
73
10
0
VERTEX
8
OBJECT__208
10
0
20
0
30
0
70
128
71
11
72
1
73
12
0
VERTEX
8
OBJECT__208
10
0
20
0
30
0
70
128
71
7
72
12
73
1
0
VERTEX
8
OBJECT__208
10
0
20
0
30
0
70
128
71
10
72
4
73
1
0
VERTEX
8
OBJECT__208
10
0
20
0
30
0
70
128
71
9
72
13
73
14
0
VERTEX
8
OBJECT__208
10
0
20
0
30
0
70
128
71
9
72
15
73
16
0
VERTEX
8
OBJECT__208
10
0
20
0
30
0
70
128
71
15
72
17
73
18
0
VERTEX
8
OBJECT__208
10
0
20
0
30
0
70
128
71
15
72
19
73
20
0
VERTEX
8
OBJECT__208
10
0
20
0
30
0
70
128
71
12
72
21
73
11
0
VERTEX
8
OBJECT__208
10
0
20
0
30
0
70
128
71
3
72
22
73
6
0
VERTEX
8
OBJECT__208
10
0
20
0
30
0
70
128
71
16
72
13
73
9
0
VERTEX
8
OBJECT__208
10
0
20
0
30
0
70
128
71
18
72
16
73
15
0
VERTEX
8
OBJECT__208
10
0
20
0
30
0
70
128
71
20
72
17
73
15
0
VERTEX
8
OBJECT__208
10
0
20
0
30
0
70
128
71
7
72
23
73
12
0
VERTEX
8
OBJECT__208
10
0
20
0
30
0
70
128
71
23
72
7
73
24
0
VERTEX
8
OBJECT__208
10
0
20
0
30
0
70
128
71
13
72
25
73
14
0
VERTEX
8
OBJECT__208
10
0
20
0
30
0
70
128
71
14
72
26
73
9
0
VERTEX
8
OBJECT__208
10
0
20
0
30
0
70
128
71
20
72
24
73
17
0
VERTEX
8
OBJECT__208
10
0
20
0
30
0
70
128
71
24
72
20
73
23
0
VERTEX
8
OBJECT__208
10
0
20
0
30
0
70
128
71
27
72
18
73
22
0
VERTEX
8
OBJECT__208
10
0
20
0
30
0
70
128
71
15
72
28
73
19
0
VERTEX
8
OBJECT__208
10
0
20
0
30
0
70
128
71
22
72
3
73
27
0
VERTEX
8
OBJECT__208
10
0
20
0
30
0
70
128
71
18
72
27
73
16
0
VERTEX
8
OBJECT__208
10
0
20
0
30
0
70
128
71
26
72
10
73
9
0
VERTEX
8
OBJECT__208
10
0
20
0
30
0
70
128
71
25
72
13
73
8
0
VERTEX
8
OBJECT__208
10
0
20
0
30
0
70
128
71
8
72
5
73
25
0
VERTEX
8
OBJECT__208
10
0
20
0
30
0
70
128
71
21
72
28
73
11
0
VERTEX
8
OBJECT__208
10
0
20
0
30
0
70
128
71
28
72
15
73
11
0
SEQEND
8
OBJECT__208
0
POLYLINE
8
OBJECT__209
66
1
70
64
71
6
72
4
62
253
0
VERTEX
8
OBJECT__209
10
-1.500000
20
370.282990
30
-315.548004
70
192
0
VERTEX
8
OBJECT__209
10
0.000000
20
370.282990
30
-315.548004
70
192
0
VERTEX
8
OBJECT__209
10
0.000000
20
375.782990
30
-321.048004
70
192
0
VERTEX
8
OBJECT__209
10
0.000000
20
375.782990
30
-310.048004
70
192
0
VERTEX
8
OBJECT__209
10
-1.500000
20
375.782990
30
-310.048004
70
192
0
VERTEX
8
OBJECT__209
10
-1.500000
20
375.782990
30
-321.048004
70
192
0
VERTEX
8
OBJECT__209
10
0
20
0
30
0
70
128
71
1
72
2
73
3
0
VERTEX
8
OBJECT__209
10
0
20
0
30
0
70
128
71
4
72
2
73
1
0
VERTEX
8
OBJECT__209
10
0
20
0
30
0
70
128
71
1
72
5
73
4
0
VERTEX
8
OBJECT__209
10
0
20
0
30
0
70
128
71
3
72
6
73
1
0
SEQEND
8
OBJECT__209
0
POLYLINE
8
OBJECT__210
66
1
70
64
71
4
72
2
62
253
0
VERTEX
8
OBJECT__210
10
0.000000
20
375.782990
30
-321.048004
70
192
0
VERTEX
8
OBJECT__210
10
0.000000
20
420.782990
30
-321.048004
70
192
0
VERTEX
8
OBJECT__210
10
-1.500000
20
420.782990
30
-321.048004
70
192
0
VERTEX
8
OBJECT__210
10
-1.500000
20
375.782990
30
-321.048004
70
192
0
VERTEX
8
OBJECT__210
10
0
20
0
30
0
70
128
71
1
72
2
73
3
0
VERTEX
8
OBJECT__210
10
0
20
0
30
0
70
128
71
3
72
4
73
1
0
SEQEND
8
OBJECT__210
0
POLYLINE
8
OBJECT__211
66
1
70
64
71
6
72
4
62
253
0
VERTEX
8
OBJECT__211
10
0.000000
20
426.282990
30
-315.548004
70
192
0
VERTEX
8
OBJECT__211
10
0.000000
20
420.782990
30
-310.048004
70
192
0
VERTEX
8
OBJECT__211
10
-1.500000
20
420.782990
30
-310.048004
70
192
0
VERTEX
8
OBJECT__211
10
-1.500000
20
420.782990
30
-321.048004
70
192
0
VERTEX
8
OBJECT__211
10
0.000000
20
420.782990
30
-321.048004
70
192
0
VERTEX
8
OBJECT__211
10
-1.500000
20
426.282990
30
-315.548004
70
192
0
VERTEX
8
OBJECT__211
10
0
20
0
30
0
70
128
71
1
72
2
73
3
0
VERTEX
8
OBJECT__211
10
0
20
0
30
0
70
128
71
4
72
5
73
1
0
VERTEX
8
OBJECT__211
10
0
20
0
30
0
70
128
71
1
72
6
73
4
0
VERTEX
8
OBJECT__211
10
0
20
0
30
0
70
128
71
3
72
6
73
1
0
SEQEND
8
OBJECT__211
0
POLYLINE
8
OBJECT__212
66
1
70
64
71
4
72
2
62
253
0
VERTEX
8
OBJECT__212
10
-1.500000
20
375.782990
30
-310.048004
70
192
0
VERTEX
8
OBJECT__212
10
-1.500000
20
420.782990
30
-310.048004
70
192
0
VERTEX
8
OBJECT__212
10
0.000000
20
420.782990
30
-310.048004
70
192
0
VERTEX
8
OBJECT__212
10
0.000000
20
375.782990
30
-310.048004
70
192
0
VERTEX
8
OBJECT__212
10
0
20
0
30
0
70
128
71
1
72
2
73
3
0
VERTEX
8
OBJECT__212
10
0
20
0
30
0
70
128
71
3
72
4
73
1
0
SEQEND
8
OBJECT__212
0
POLYLINE
8
OBJECT__213
66
1
70
64
71
6
72
4
62
253
0
VERTEX
8
OBJECT__213
10
0.000000
20
361.282990
30
-315.548004
70
192
0
VERTEX
8
OBJECT__213
10
0.000000
20
355.782990
30
-310.048004
70
192
0
VERTEX
8
OBJECT__213
10
-1.500000
20
355.782990
30
-310.048004
70
192
0
VERTEX
8
OBJECT__213
10
-1.500000
20
355.782990
30
-321.048004
70
192
0
VERTEX
8
OBJECT__213
10
0.000000
20
355.782990
30
-321.048004
70
192
0
VERTEX
8
OBJECT__213
10
-1.500000
20
361.282990
30
-315.548004
70
192
0
VERTEX
8
OBJECT__213
10
0
20
0
30
0
70
128
71
1
72
2
73
3
0
VERTEX
8
OBJECT__213
10
0
20
0
30
0
70
128
71
4
72
5
73
1
0
VERTEX
8
OBJECT__213
10
0
20
0
30
0
70
128
71
1
72
6
73
4
0
VERTEX
8
OBJECT__213
10
0
20
0
30
0
70
128
71
3
72
6
73
1
0
SEQEND
8
OBJECT__213
0
POLYLINE
8
OBJECT__214
66
1
70
64
71
4
72
2
62
253
0
VERTEX
8
OBJECT__214
10
0.000000
20
355.782990
30
-321.048004
70
192
0
VERTEX
8
OBJECT__214
10
-1.500000
20
355.782990
30
-321.048004
70
192
0
VERTEX
8
OBJECT__214
10
-1.500000
20
282.782990
30
-321.048004
70
192
0
VERTEX
8
OBJECT__214
10
0.000000
20
282.782990
30
-321.048004
70
192
0
VERTEX
8
OBJECT__214
10
0
20
0
30
0
70
128
71
1
72
2
73
3
0
VERTEX
8
OBJECT__214
10
0
20
0
30
0
70
128
71
3
72
4
73
1
0
SEQEND
8
OBJECT__214
0
POLYLINE
8
OBJECT__215
66
1
70
64
71
6
72
4
62
253
0
VERTEX
8
OBJECT__215
10
-1.500000
20
277.282990
30
-315.548004
70
192
0
VERTEX
8
OBJECT__215
10
0.000000
20
277.282990
30
-315.548004
70
192
0
VERTEX
8
OBJECT__215
10
0.000000
20
282.782990
30
-321.048004
70
192
0
VERTEX
8
OBJECT__215
10
0.000000
20
282.782990
30
-310.048004
70
192
0
VERTEX
8
OBJECT__215
10
-1.500000
20
282.782990
30
-310.048004
70
192
0
VERTEX
8
OBJECT__215
10
-1.500000
20
282.782990
30
-321.048004
70
192
0
VERTEX
8
OBJECT__215
10
0
20
0
30
0
70
128
71
1
72
2
73
3
0
VERTEX
8
OBJECT__215
10
0
20
0
30
0
70
128
71
4
72
2
73
1
0
VERTEX
8
OBJECT__215
10
0
20
0
30
0
70
128
71
1
72
5
73
4
0
VERTEX
8
OBJECT__215
10
0
20
0
30
0
70
128
71
3
72
6
73
1
0
SEQEND
8
OBJECT__215
0
POLYLINE
8
OBJECT__216
66
1
70
64
71
4
72
2
62
253
0
VERTEX
8
OBJECT__216
10
0.000000
20
355.782990
30
-310.048004
70
192
0
VERTEX
8
OBJECT__216
10
0.000000
20
282.782990
30
-310.048004
70
192
0
VERTEX
8
OBJECT__216
10
-1.500000
20
282.782990
30
-310.048004
70
192
0
VERTEX
8
OBJECT__216
10
-1.500000
20
355.782990
30
-310.048004
70
192
0
VERTEX
8
OBJECT__216
10
0
20
0
30
0
70
128
71
1
72
2
73
3
0
VERTEX
8
OBJECT__216
10
0
20
0
30
0
70
128
71
3
72
4
73
1
0
SEQEND
8
OBJECT__216
0
POLYLINE
8
OBJECT__217
66
1
70
64
71
4
72
2
62
253
0
VERTEX
8
OBJECT__217
10
-1.500000
20
55.783001
30
-321.048004
70
192
0
VERTEX
8
OBJECT__217
10
-1.500000
20
10.783000
30
-321.048004
70
192
0
VERTEX
8
OBJECT__217
10
0.000000
20
10.783000
30
-321.048004
70
192
0
VERTEX
8
OBJECT__217
10
0.000000
20
55.783001
30
-321.048004
70
192
0
VERTEX
8
OBJECT__217
10
0
20
0
30
0
70
128
71
1
72
2
73
3
0
VERTEX
8
OBJECT__217
10
0
20
0
30
0
70
128
71
3
72
4
73
1
0
SEQEND
8
OBJECT__217
0
POLYLINE
8
OBJECT__218
66
1
70
64
71
6
72
4
62
253
0
VERTEX
8
OBJECT__218
10
0.000000
20
61.283001
30
-315.548004
70
192
0
VERTEX
8
OBJECT__218
10
0.000000
20
55.783001
30
-310.048004
70
192
0
VERTEX
8
OBJECT__218
10
-1.500000
20
55.783001
30
-310.048004
70
192
0
VERTEX
8
OBJECT__218
10
-1.500000
20
55.783001
30
-321.048004
70
192
0
VERTEX
8
OBJECT__218
10
0.000000
20
55.783001
30
-321.048004
70
192
0
VERTEX
8
OBJECT__218
10
-1.500000
20
61.283001
30
-315.548004
70
192
0
VERTEX
8
OBJECT__218
10
0
20
0
30
0
70
128
71
1
72
2
73
3
0
VERTEX
8
OBJECT__218
10
0
20
0
30
0
70
128
71
4
72
5
73
1
0
VERTEX
8
OBJECT__218
10
0
20
0
30
0
70
128
71
1
72
6
73
4
0
VERTEX
8
OBJECT__218
10
0
20
0
30
0
70
128
71
3
72
6
73
1
0
SEQEND
8
OBJECT__218
0
POLYLINE
8
OBJECT__219
66
1
70
64
71
4
72
2
62
253
0
VERTEX
8
OBJECT__219
10
-1.500000
20
10.783000
30
-310.048004
70
192
0
VERTEX
8
OBJECT__219
10
-1.500000
20
55.783001
30
-310.048004
70
192
0
VERTEX
8
OBJECT__219
10
0.000000
20
55.783001
30
-310.048004
70
192
0
VERTEX
8
OBJECT__219
10
0.000000
20
10.783000
30
-310.048004
70
192
0
VERTEX
8
OBJECT__219
10
0
20
0
30
0
70
128
71
1
72
2
73
3
0
VERTEX
8
OBJECT__219
10
0
20
0
30
0
70
128
71
3
72
4
73
1
0
SEQEND
8
OBJECT__219
0
POLYLINE
8
OBJECT__220
66
1
70
64
71
6
72
4
62
253
0
VERTEX
8
OBJECT__220
10
-1.500000
20
5.283000
30
-315.548004
70
192
0
VERTEX
8
OBJECT__220
10
0.000000
20
5.283000
30
-315.548004
70
192
0
VERTEX
8
OBJECT__220
10
0.000000
20
10.783000
30
-321.048004
70
192
0
VERTEX
8
OBJECT__220
10
0.000000
20
10.783000
30
-310.048004
70
192
0
VERTEX
8
OBJECT__220
10
-1.500000
20
10.783000
30
-310.048004
70
192
0
VERTEX
8
OBJECT__220
10
-1.500000
20
10.783000
30
-321.048004
70
192
0
VERTEX
8
OBJECT__220
10
0
20
0
30
0
70
128
71
1
72
2
73
3
0
VERTEX
8
OBJECT__220
10
0
20
0
30
0
70
128
71
4
72
2
73
1
0
VERTEX
8
OBJECT__220
10
0
20
0
30
0
70
128
71
1
72
5
73
4
0
VERTEX
8
OBJECT__220
10
0
20
0
30
0
70
128
71
3
72
6
73
1
0
SEQEND
8
OBJECT__220
0
POLYLINE
8
OBJECT__221
66
1
70
64
71
4
72
2
62
253
0
VERTEX
8
OBJECT__221
10
0.000000
20
148.783005
30
-321.048004
70
192
0
VERTEX
8
OBJECT__221
10
-1.500000
20
148.783005
30
-321.048004
70
192
0
VERTEX
8
OBJECT__221
10
-1.500000
20
75.782997
30
-321.048004
70
192
0
VERTEX
8
OBJECT__221
10
0.000000
20
75.782997
30
-321.048004
70
192
0
VERTEX
8
OBJECT__221
10
0
20
0
30
0
70
128
71
1
72
2
73
3
0
VERTEX
8
OBJECT__221
10
0
20
0
30
0
70
128
71
3
72
4
73
1
0
SEQEND
8
OBJECT__221
0
POLYLINE
8
OBJECT__222
66
1
70
64
71
6
72
4
62
253
0
VERTEX
8
OBJECT__222
10
-1.500000
20
70.282997
30
-315.548004
70
192
0
VERTEX
8
OBJECT__222
10
0.000000
20
70.282997
30
-315.548004
70
192
0
VERTEX
8
OBJECT__222
10
0.000000
20
75.782997
30
-321.048004
70
192
0
VERTEX
8
OBJECT__222
10
0.000000
20
75.782997
30
-310.048004
70
192
0
VERTEX
8
OBJECT__222
10
-1.500000
20
75.782997
30
-310.048004
70
192
0
VERTEX
8
OBJECT__222
10
-1.500000
20
75.782997
30
-321.048004
70
192
0
VERTEX
8
OBJECT__222
10
0
20
0
30
0
70
128
71
1
72
2
73
3
0
VERTEX
8
OBJECT__222
10
0
20
0
30
0
70
128
71
4
72
2
73
1
0
VERTEX
8
OBJECT__222
10
0
20
0
30
0
70
128
71
1
72
5
73
4
0
VERTEX
8
OBJECT__222
10
0
20
0
30
0
70
128
71
3
72
6
73
1
0
SEQEND
8
OBJECT__222
0
POLYLINE
8
OBJECT__223
66
1
70
64
71
4
72
2
62
253
0
VERTEX
8
OBJECT__223
10
0.000000
20
148.783005
30
-310.048004
70
192
0
VERTEX
8
OBJECT__223
10
0.000000
20
75.782997
30
-310.048004
70
192
0
VERTEX
8
OBJECT__223
10
-1.500000
20
75.782997
30
-310.048004
70
192
0
VERTEX
8
OBJECT__223
10
-1.500000
20
148.783005
30
-310.048004
70
192
0
VERTEX
8
OBJECT__223
10
0
20
0
30
0
70
128
71
1
72
2
73
3
0
VERTEX
8
OBJECT__223
10
0
20
0
30
0
70
128
71
3
72
4
73
1
0
SEQEND
8
OBJECT__223
0
POLYLINE
8
OBJECT__224
66
1
70
64
71
6
72
4
62
253
0
VERTEX
8
OBJECT__224
10
0.000000
20
154.283005
30
-315.548004
70
192
0
VERTEX
8
OBJECT__224
10
0.000000
20
148.783005
30
-310.048004
70
192
0
VERTEX
8
OBJECT__224
10
-1.500000
20
148.783005
30
-310.048004
70
192
0
VERTEX
8
OBJECT__224
10
-1.500000
20
148.783005
30
-321.048004
70
192
0
VERTEX
8
OBJECT__224
10
0.000000
20
148.783005
30
-321.048004
70
192
0
VERTEX
8
OBJECT__224
10
-1.500000
20
154.283005
30
-315.548004
70
192
0
VERTEX
8
OBJECT__224
10
0
20
0
30
0
70
128
71
1
72
2
73
3
0
VERTEX
8
OBJECT__224
10
0
20
0
30
0
70
128
71
4
72
5
73
1
0
VERTEX
8
OBJECT__224
10
0
20
0
30
0
70
128
71
1
72
6
73
4
0
VERTEX
8
OBJECT__224
10
0
20
0
30
0
70
128
71
3
72
6
73
1
0
SEQEND
8
OBJECT__224
0
POLYLINE
8
OBJECT__225
66
1
70
64
71
4
72
2
62
253
0
VERTEX
8
OBJECT__225
10
-28.000000
20
435.782990
30
-326.548004
70
192
0
VERTEX
8
OBJECT__225
10
-28.000000
20
-4.217000
30
-326.548004
70
192
0
VERTEX
8
OBJECT__225
10
-2.000000
20
-4.217000
30
-326.548004
70
192
0
VERTEX
8
OBJECT__225
10
-2.000000
20
435.782990
30
-326.548004
70
192
0
VERTEX
8
OBJECT__225
10
0
20
0
30
0
70
128
71
1
72
2
73
3
0
VERTEX
8
OBJECT__225
10
0
20
0
30
0
70
128
71
3
72
4
73
1
0
SEQEND
8
OBJECT__225
0
POLYLINE
8
OBJECT__226
66
1
70
64
71
8
72
6
62
253
0
VERTEX
8
OBJECT__226
10
-51.500000
20
191.664993
30
-649.747986
70
192
0
VERTEX
8
OBJECT__226
10
-41.035000
20
237.513000
30
-649.747986
70
192
0
VERTEX
8
OBJECT__226
10
-27.986000
20
221.149994
30
-649.747986
70
192
0
VERTEX
8
OBJECT__226
10
-70.356003
20
200.744995
30
-649.747986
70
192
0
VERTEX
8
OBJECT__226
10
-75.014000
20
221.149994
30
-649.747986
70
192
0
VERTEX
8
OBJECT__226
10
-51.500000
20
239.901001
30
-649.747986
70
192
0
VERTEX
8
OBJECT__226
10
-61.965000
20
237.513000
30
-649.747986
70
192
0
VERTEX
8
OBJECT__226
10
-32.644001
20
200.744995
30
-649.747986
70
192
0
VERTEX
8
OBJECT__226
10
0
20
0
30
0
70
128
71
1
72
2
73
3
0
VERTEX
8
OBJECT__226
10
0
20
0
30
0
70
128
71
1
72
4
73
5
0
VERTEX
8
OBJECT__226
10
0
20
0
30
0
70
128
71
1
72
6
73
2
0
VERTEX
8
OBJECT__226
10
0
20
0
30
0
70
128
71
5
72
7
73
1
0
VERTEX
8
OBJECT__226
10
0
20
0
30
0
70
128
71
7
72
6
73
1
0
VERTEX
8
OBJECT__226
10
0
20
0
30
0
70
128
71
3
72
8
73
1
0
SEQEND
8
OBJECT__226
0
POLYLINE
8
OBJECT__227
66
1
70
64
71
22
72
22
62
253
0
VERTEX
8
OBJECT__227
10
-32.644001
20
200.744995
30
-649.747986
70
192
0
VERTEX
8
OBJECT__227
10
-31.954000
20
200.195999
30
-644.747986
70
192
0
VERTEX
8
OBJECT__227
10
-41.727001
20
195.488998
30
-644.747986
70
192
0
VERTEX
8
OBJECT__227
10
-51.500000
20
191.664993
30
-649.747986
70
192
0
VERTEX
8
OBJECT__227
10
-27.986000
20
221.149994
30
-649.747986
70
192
0
VERTEX
8
OBJECT__227
10
-27.127001
20
221.345993
30
-644.747986
70
192
0
VERTEX
8
OBJECT__227
10
-29.541000
20
210.770996
30
-644.747986
70
192
0
VERTEX
8
OBJECT__227
10
-41.035000
20
237.513000
30
-649.747986
70
192
0
VERTEX
8
OBJECT__227
10
-40.653000
20
238.307007
30
-644.747986
70
192
0
VERTEX
8
OBJECT__227
10
-33.889999
20
229.826996
30
-644.747986
70
192
0
VERTEX
8
OBJECT__227
10
-62.347000
20
238.307007
30
-644.747986
70
192
0
VERTEX
8
OBJECT__227
10
-51.500000
20
240.783005
30
-644.747986
70
192
0
VERTEX
8
OBJECT__227
10
-51.500000
20
239.901001
30
-649.747986
70
192
0
VERTEX
8
OBJECT__227
10
-61.965000
20
237.513000
30
-649.747986
70
192
0
VERTEX
8
OBJECT__227
10
-75.014000
20
221.149994
30
-649.747986
70
192
0
VERTEX
8
OBJECT__227
10
-69.110001
20
229.826996
30
-644.747986
70
192
0
VERTEX
8
OBJECT__227
10
-75.873001
20
221.345993
30
-644.747986
70
192
0
VERTEX
8
OBJECT__227
10
-70.356003
20
200.744995
30
-649.747986
70
192
0
VERTEX
8
OBJECT__227
10
-73.459000
20
210.770996
30
-644.747986
70
192
0
VERTEX
8
OBJECT__227
10
-71.045998
20
200.195999
30
-644.747986
70
192
0
VERTEX
8
OBJECT__227
10
-61.272999
20
195.488998
30
-644.747986
70
192
0
VERTEX
8
OBJECT__227
10
-51.500000
20
190.783005
30
-644.747986
70
192
0
VERTEX
8
OBJECT__227
10
0
20
0
30
0
70
128
71
1
72
2
73
3
0
VERTEX
8
OBJECT__227
10
0
20
0
30
0
70
128
71
3
72
4
73
1
0
VERTEX
8
OBJECT__227
10
0
20
0
30
0
70
128
71
5
72
6
73
7
0
VERTEX
8
OBJECT__227
10
0
20
0
30
0
70
128
71
7
72
1
73
5
0
VERTEX
8
OBJECT__227
10
0
20
0
30
0
70
128
71
8
72
9
73
10
0
VERTEX
8
OBJECT__227
10
0
20
0
30
0
70
128
71
10
72
5
73
8
0
VERTEX
8
OBJECT__227
10
0
20
0
30
0
70
128
71
11
72
12
73
13
0
VERTEX
8
OBJECT__227
10
0
20
0
30
0
70
128
71
9
72
8
73
13
0
VERTEX
8
OBJECT__227
10
0
20
0
30
0
70
128
71
13
72
12
73
9
0
VERTEX
8
OBJECT__227
10
0
20
0
30
0
70
128
71
14
72
15
73
16
0
VERTEX
8
OBJECT__227
10
0
20
0
30
0
70
128
71
15
72
17
73
16
0
VERTEX
8
OBJECT__227
10
0
20
0
30
0
70
128
71
15
72
18
73
19
0
VERTEX
8
OBJECT__227
10
0
20
0
30
0
70
128
71
18
72
20
73
19
0
VERTEX
8
OBJECT__227
10
0
20
0
30
0
70
128
71
18
72
4
73
21
0
VERTEX
8
OBJECT__227
10
0
20
0
30
0
70
128
71
4
72
22
73
21
0
VERTEX
8
OBJECT__227
10
0
20
0
30
0
70
128
71
21
72
20
73
18
0
VERTEX
8
OBJECT__227
10
0
20
0
30
0
70
128
71
19
72
17
73
15
0
VERTEX
8
OBJECT__227
10
0
20
0
30
0
70
128
71
16
72
11
73
14
0
VERTEX
8
OBJECT__227
10
0
20
0
30
0
70
128
71
13
72
14
73
11
0
VERTEX
8
OBJECT__227
10
0
20
0
30
0
70
128
71
10
72
6
73
5
0
VERTEX
8
OBJECT__227
10
0
20
0
30
0
70
128
71
7
72
2
73
1
0
VERTEX
8
OBJECT__227
10
0
20
0
30
0
70
128
71
3
72
22
73
4
0
SEQEND
8
OBJECT__227
0
POLYLINE
8
OBJECT__229
66
1
70
64
71
36
72
36
62
253
0
VERTEX
8
OBJECT__229
10
-40.653000
20
238.307007
30
-644.747986
70
192
0
VERTEX
8
OBJECT__229
10
-43.344002
20
236.854996
30
-586.728027
70
192
0
VERTEX
8
OBJECT__229
10
-34.287998
20
232.494003
30
-586.728027
70
192
0
VERTEX
8
OBJECT__229
10
-33.889999
20
229.826996
30
-644.747986
70
192
0
VERTEX
8
OBJECT__229
10
-51.500000
20
240.783005
30
-644.747986
70
192
0
VERTEX
8
OBJECT__229
10
-51.500000
20
240.783005
30
-586.728027
70
192
0
VERTEX
8
OBJECT__229
10
-27.127001
20
221.345993
30
-644.747986
70
192
0
VERTEX
8
OBJECT__229
10
-30.386000
20
224.498993
30
-586.728027
70
192
0
VERTEX
8
OBJECT__229
10
-28.302999
20
215.371994
30
-586.728027
70
192
0
VERTEX
8
OBJECT__229
10
-31.954000
20
231.369995
30
-586.728027
70
192
0
VERTEX
8
OBJECT__229
10
-29.541000
20
210.770996
30
-644.747986
70
192
0
VERTEX
8
OBJECT__229
10
-41.727001
20
195.488998
30
-644.747986
70
192
0
VERTEX
8
OBJECT__229
10
-31.954000
20
200.195999
30
-644.747986
70
192
0
VERTEX
8
OBJECT__229
10
-35.634998
20
199.550995
30
-586.728027
70
192
0
VERTEX
8
OBJECT__229
10
-29.340000
20
207.445007
30
-586.728027
70
192
0
VERTEX
8
OBJECT__229
10
-27.127001
20
210.220001
30
-586.728027
70
192
0
VERTEX
8
OBJECT__229
10
-51.500000
20
190.783005
30
-644.747986
70
192
0
VERTEX
8
OBJECT__229
10
-42.372002
20
192.865997
30
-586.728027
70
192
0
VERTEX
8
OBJECT__229
10
-51.500000
20
190.783005
30
-586.728027
70
192
0
VERTEX
8
OBJECT__229
10
-60.627998
20
192.865997
30
-586.728027
70
192
0
VERTEX
8
OBJECT__229
10
-61.272999
20
195.488998
30
-644.747986
70
192
0
VERTEX
8
OBJECT__229
10
-40.653000
20
193.259003
30
-586.728027
70
192
0
VERTEX
8
OBJECT__229
10
-73.660004
20
207.445007
30
-586.728027
70
192
0
VERTEX
8
OBJECT__229
10
-73.459000
20
210.770996
30
-644.747986
70
192
0
VERTEX
8
OBJECT__229
10
-71.045998
20
200.195999
30
-644.747986
70
192
0
VERTEX
8
OBJECT__229
10
-62.347000
20
193.259003
30
-586.728027
70
192
0
VERTEX
8
OBJECT__229
10
-67.364998
20
199.550995
30
-586.728027
70
192
0
VERTEX
8
OBJECT__229
10
-69.110001
20
229.826996
30
-644.747986
70
192
0
VERTEX
8
OBJECT__229
10
-75.873001
20
221.345993
30
-644.747986
70
192
0
VERTEX
8
OBJECT__229
10
-72.613998
20
224.498993
30
-586.728027
70
192
0
VERTEX
8
OBJECT__229
10
-74.696999
20
215.371994
30
-586.728027
70
192
0
VERTEX
8
OBJECT__229
10
-75.873001
20
210.220001
30
-586.728027
70
192
0
VERTEX
8
OBJECT__229
10
-62.347000
20
238.307007
30
-644.747986
70
192
0
VERTEX
8
OBJECT__229
10
-59.655998
20
236.854996
30
-586.728027
70
192
0
VERTEX
8
OBJECT__229
10
-68.711998
20
232.494003
30
-586.728027
70
192
0
VERTEX
8
OBJECT__229
10
-71.045998
20
231.369995
30
-586.728027
70
192
0
VERTEX
8
OBJECT__229
10
0
20
0
30
0
70
128
71
1
72
2
73
3
0
VERTEX
8
OBJECT__229
10
0
20
0
30
0
70
128
71
3
72
4
73
1
0
VERTEX
8
OBJECT__229
10
0
20
0
30
0
70
128
71
5
72
6
73
2
0
VERTEX
8
OBJECT__229
10
0
20
0
30
0
70
128
71
2
72
1
73
5
0
VERTEX
8
OBJECT__229
10
0
20
0
30
0
70
128
71
7
72
8
73
9
0
VERTEX
8
OBJECT__229
10
0
20
0
30
0
70
128
71
4
72
10
73
8
0
VERTEX
8
OBJECT__229
10
0
20
0
30
0
70
128
71
8
72
7
73
4
0
VERTEX
8
OBJECT__229
10
0
20
0
30
0
70
128
71
9
72
11
73
7
0
VERTEX
8
OBJECT__229
10
0
20
0
30
0
70
128
71
12
72
13
73
14
0
VERTEX
8
OBJECT__229
10
0
20
0
30
0
70
128
71
13
72
11
73
15
0
VERTEX
8
OBJECT__229
10
0
20
0
30
0
70
128
71
15
72
14
73
13
0
VERTEX
8
OBJECT__229
10
0
20
0
30
0
70
128
71
11
72
16
73
15
0
VERTEX
8
OBJECT__229
10
0
20
0
30
0
70
128
71
17
72
12
73
18
0
VERTEX
8
OBJECT__229
10
0
20
0
30
0
70
128
71
17
72
19
73
20
0
VERTEX
8
OBJECT__229
10
0
20
0
30
0
70
128
71
20
72
21
73
17
0
VERTEX
8
OBJECT__229
10
0
20
0
30
0
70
128
71
18
72
19
73
17
0
VERTEX
8
OBJECT__229
10
0
20
0
30
0
70
128
71
12
72
22
73
18
0
VERTEX
8
OBJECT__229
10
0
20
0
30
0
70
128
71
23
72
24
73
25
0
VERTEX
8
OBJECT__229
10
0
20
0
30
0
70
128
71
21
72
26
73
27
0
VERTEX
8
OBJECT__229
10
0
20
0
30
0
70
128
71
27
72
25
73
21
0
VERTEX
8
OBJECT__229
10
0
20
0
30
0
70
128
71
25
72
27
73
23
0
VERTEX
8
OBJECT__229
10
0
20
0
30
0
70
128
71
28
72
29
73
30
0
VERTEX
8
OBJECT__229
10
0
20
0
30
0
70
128
71
29
72
24
73
31
0
VERTEX
8
OBJECT__229
10
0
20
0
30
0
70
128
71
31
72
30
73
29
0
VERTEX
8
OBJECT__229
10
0
20
0
30
0
70
128
71
24
72
32
73
31
0
VERTEX
8
OBJECT__229
10
0
20
0
30
0
70
128
71
5
72
33
73
34
0
VERTEX
8
OBJECT__229
10
0
20
0
30
0
70
128
71
33
72
28
73
35
0
VERTEX
8
OBJECT__229
10
0
20
0
30
0
70
128
71
28
72
36
73
35
0
VERTEX
8
OBJECT__229
10
0
20
0
30
0
70
128
71
35
72
34
73
33
0
VERTEX
8
OBJECT__229
10
0
20
0
30
0
70
128
71
34
72
6
73
5
0
VERTEX
8
OBJECT__229
10
0
20
0
30
0
70
128
71
30
72
36
73
28
0
VERTEX
8
OBJECT__229
10
0
20
0
30
0
70
128
71
23
72
32
73
24
0
VERTEX
8
OBJECT__229
10
0
20
0
30
0
70
128
71
20
72
26
73
21
0
VERTEX
8
OBJECT__229
10
0
20
0
30
0
70
128
71
14
72
22
73
12
0
VERTEX
8
OBJECT__229
10
0
20
0
30
0
70
128
71
9
72
16
73
11
0
VERTEX
8
OBJECT__229
10
0
20
0
30
0
70
128
71
3
72
10
73
4
0
SEQEND
8
OBJECT__229
0
POLYLINE
8
OBJECT__230
66
1
70
64
71
86
72
134
62
253
0
VERTEX
8
OBJECT__230
10
-46.122002
20
238.283005
30
-567.416992
70
192
0
VERTEX
8
OBJECT__230
10
-38.042000
20
236.602997
30
-559.898010
70
192
0
VERTEX
8
OBJECT__230
10
-34.994999
20
235.141006
30
-566.914978
70
192
0
VERTEX
8
OBJECT__230
10
-51.500000
20
240.783005
30
-586.728027
70
192
0
VERTEX
8
OBJECT__230
10
-50.419998
20
239.962997
30
-576.918030
70
192
0
VERTEX
8
OBJECT__230
10
-42.188000
20
238.264999
30
-580.263000
70
192
0
VERTEX
8
OBJECT__230
10
-52.042000
20
194.863007
30
-561.645020
70
192
0
VERTEX
8
OBJECT__230
10
-46.122002
20
193.283005
30
-567.416992
70
192
0
VERTEX
8
OBJECT__230
10
-38.042000
20
194.962997
30
-559.898010
70
192
0
VERTEX
8
OBJECT__230
10
-60.627998
20
192.865997
30
-586.728027
70
192
0
VERTEX
8
OBJECT__230
10
-51.500000
20
190.783005
30
-586.728027
70
192
0
VERTEX
8
OBJECT__230
10
-50.419998
20
191.602997
30
-576.918030
70
192
0
VERTEX
8
OBJECT__230
10
-31.169001
20
207.501007
30
-582.000000
70
192
0
VERTEX
8
OBJECT__230
10
-30.040001
20
215.783005
30
-583.101013
70
192
0
VERTEX
8
OBJECT__230
10
-29.761999
20
215.783005
30
-578.960999
70
192
0
VERTEX
8
OBJECT__230
10
-27.500000
20
235.783005
30
-556.747986
70
192
0
VERTEX
8
OBJECT__230
10
-27.500000
20
232.975006
30
-563.528015
70
192
0
VERTEX
8
OBJECT__230
10
-34.750000
20
231.692993
30
-578.507019
70
192
0
VERTEX
8
OBJECT__230
10
-32.187000
20
230.505005
30
-573.377014
70
192
0
VERTEX
8
OBJECT__230
10
-30.344000
20
223.447006
30
-577.622009
70
192
0
VERTEX
8
OBJECT__230
10
-40.202000
20
236.703003
30
-573.190002
70
192
0
VERTEX
8
OBJECT__230
10
-31.169001
20
224.065002
30
-582.000000
70
192
0
VERTEX
8
OBJECT__230
10
-27.500000
20
229.925003
30
-570.890015
70
192
0
VERTEX
8
OBJECT__230
10
-27.500000
20
222.563004
30
-573.939026
70
192
0
VERTEX
8
OBJECT__230
10
-27.500000
20
215.783005
30
-576.747986
70
192
0
VERTEX
8
OBJECT__230
10
-30.344000
20
208.119003
30
-577.622009
70
192
0
VERTEX
8
OBJECT__230
10
-40.202000
20
194.863007
30
-573.190002
70
192
0
VERTEX
8
OBJECT__230
10
-34.750000
20
199.873001
30
-578.507019
70
192
0
VERTEX
8
OBJECT__230
10
-32.187000
20
201.061005
30
-573.377014
70
192
0
VERTEX
8
OBJECT__230
10
-34.994999
20
196.425003
30
-566.914978
70
192
0
VERTEX
8
OBJECT__230
10
-27.500000
20
201.641006
30
-570.890015
70
192
0
VERTEX
8
OBJECT__230
10
-27.500000
20
209.003006
30
-573.939026
70
192
0
VERTEX
8
OBJECT__230
10
-27.500000
20
198.591003
30
-563.528015
70
192
0
VERTEX
8
OBJECT__230
10
-28.054001
20
215.783005
30
-586.007019
70
192
0
VERTEX
8
OBJECT__230
10
-29.625000
20
206.882004
30
-585.369019
70
192
0
VERTEX
8
OBJECT__230
10
-27.127001
20
210.220001
30
-586.728027
70
192
0
VERTEX
8
OBJECT__230
10
-29.340000
20
207.445007
30
-586.728027
70
192
0
VERTEX
8
OBJECT__230
10
-29.625000
20
224.684006
30
-585.369019
70
192
0
VERTEX
8
OBJECT__230
10
-30.386000
20
224.498993
30
-586.728027
70
192
0
VERTEX
8
OBJECT__230
10
-31.954000
20
231.369995
30
-586.728027
70
192
0
VERTEX
8
OBJECT__230
10
-34.605000
20
232.880997
30
-583.344971
70
192
0
VERTEX
8
OBJECT__230
10
-43.344002
20
236.854996
30
-586.728027
70
192
0
VERTEX
8
OBJECT__230
10
-40.653000
20
193.259003
30
-586.728027
70
192
0
VERTEX
8
OBJECT__230
10
-35.634998
20
199.550995
30
-586.728027
70
192
0
VERTEX
8
OBJECT__230
10
-34.605000
20
198.684998
30
-583.344971
70
192
0
VERTEX
8
OBJECT__230
10
-42.188000
20
193.300995
30
-580.263000
70
192
0
VERTEX
8
OBJECT__230
10
-42.372002
20
192.865997
30
-586.728027
70
192
0
VERTEX
8
OBJECT__230
10
-74.696999
20
215.371994
30
-586.728027
70
192
0
VERTEX
8
OBJECT__230
10
-72.786003
20
215.783005
30
-567.828003
70
192
0
VERTEX
8
OBJECT__230
10
-71.216003
20
224.684006
30
-568.466003
70
192
0
VERTEX
8
OBJECT__230
10
-58.653000
20
193.300995
30
-573.572021
70
192
0
VERTEX
8
OBJECT__230
10
-73.660004
20
207.445007
30
-586.728027
70
192
0
VERTEX
8
OBJECT__230
10
-67.364998
20
199.550995
30
-586.728027
70
192
0
VERTEX
8
OBJECT__230
10
-66.235001
20
198.684998
30
-570.489990
70
192
0
VERTEX
8
OBJECT__230
10
-62.347000
20
193.259003
30
-586.728027
70
192
0
VERTEX
8
OBJECT__230
10
-75.873001
20
210.220001
30
-586.728027
70
192
0
VERTEX
8
OBJECT__230
10
-71.216003
20
206.882004
30
-568.466003
70
192
0
VERTEX
8
OBJECT__230
10
-57.493000
20
199.873001
30
-556.328003
70
192
0
VERTEX
8
OBJECT__230
10
-61.075001
20
207.501007
30
-552.835022
70
192
0
VERTEX
8
OBJECT__230
10
-62.203999
20
215.783005
30
-551.734009
70
192
0
VERTEX
8
OBJECT__230
10
-61.075001
20
224.065002
30
-552.835022
70
192
0
VERTEX
8
OBJECT__230
10
-68.711998
20
232.494003
30
-586.728027
70
192
0
VERTEX
8
OBJECT__230
10
-66.235001
20
232.880997
30
-570.489990
70
192
0
VERTEX
8
OBJECT__230
10
-58.653000
20
238.264999
30
-573.572021
70
192
0
VERTEX
8
OBJECT__230
10
-71.045998
20
231.369995
30
-586.728027
70
192
0
VERTEX
8
OBJECT__230
10
-59.655998
20
236.854996
30
-586.728027
70
192
0
VERTEX
8
OBJECT__230
10
-57.493000
20
231.692993
30
-556.328003
70
192
0
VERTEX
8
OBJECT__230
10
-52.042000
20
236.703003
30
-561.645020
70
192
0
VERTEX
8
OBJECT__230
10
-41.090000
20
196.425003
30
-552.880981
70
192
0
VERTEX
8
OBJECT__230
10
-27.500000
20
195.783005
30
-556.747986
70
192
0
VERTEX
8
OBJECT__230
10
-46.323002
20
215.783005
30
-540.835022
70
192
0
VERTEX
8
OBJECT__230
10
-45.741001
20
223.447006
30
-542.172974
70
192
0
VERTEX
8
OBJECT__230
10
-43.896999
20
201.061005
30
-546.418030
70
192
0
VERTEX
8
OBJECT__230
10
-45.741001
20
208.119003
30
-542.172974
70
192
0
VERTEX
8
OBJECT__230
10
-43.896999
20
230.505005
30
-546.418030
70
192
0
VERTEX
8
OBJECT__230
10
-41.090000
20
235.141006
30
-552.880981
70
192
0
VERTEX
8
OBJECT__230
10
-27.500000
20
215.783005
30
-536.747986
70
192
0
VERTEX
8
OBJECT__230
10
-27.500000
20
222.563004
30
-539.556030
70
192
0
VERTEX
8
OBJECT__230
10
-27.500000
20
201.641006
30
-542.606018
70
192
0
VERTEX
8
OBJECT__230
10
-27.500000
20
198.591003
30
-549.966980
70
192
0
VERTEX
8
OBJECT__230
10
-27.500000
20
209.003006
30
-539.556030
70
192
0
VERTEX
8
OBJECT__230
10
-27.500000
20
229.925003
30
-542.606018
70
192
0
VERTEX
8
OBJECT__230
10
-27.500000
20
232.975006
30
-549.966980
70
192
0
VERTEX
8
OBJECT__230
10
-72.613998
20
224.498993
30
-586.728027
70
192
0
VERTEX
8
OBJECT__230
10
-28.302999
20
215.371994
30
-586.728027
70
192
0
VERTEX
8
OBJECT__230
10
-34.287998
20
232.494003
30
-586.728027
70
192
0
VERTEX
8
OBJECT__230
10
0
20
0
30
0
70
128
71
1
72
2
73
3
0
VERTEX
8
OBJECT__230
10
0
20
0
30
0
70
128
71
4
72
5
73
6
0
VERTEX
8
OBJECT__230
10
0
20
0
30
0
70
128
71
7
72
8
73
9
0
VERTEX
8
OBJECT__230
10
0
20
0
30
0
70
128
71
10
72
11
73
12
0
VERTEX
8
OBJECT__230
10
0
20
0
30
0
70
128
71
13
72
14
73
15
0
VERTEX
8
OBJECT__230
10
0
20
0
30
0
70
128
71
2
72
16
73
17
0
VERTEX
8
OBJECT__230
10
0
20
0
30
0
70
128
71
18
72
19
73
20
0
VERTEX
8
OBJECT__230
10
0
20
0
30
0
70
128
71
21
72
3
73
19
0
VERTEX
8
OBJECT__230
10
0
20
0
30
0
70
128
71
22
72
20
73
15
0
VERTEX
8
OBJECT__230
10
0
20
0
30
0
70
128
71
19
72
23
73
24
0
VERTEX
8
OBJECT__230
10
0
20
0
30
0
70
128
71
3
72
17
73
23
0
VERTEX
8
OBJECT__230
10
0
20
0
30
0
70
128
71
20
72
24
73
25
0
VERTEX
8
OBJECT__230
10
0
20
0
30
0
70
128
71
26
72
15
73
25
0
VERTEX
8
OBJECT__230
10
0
20
0
30
0
70
128
71
27
72
28
73
29
0
VERTEX
8
OBJECT__230
10
0
20
0
30
0
70
128
71
28
72
13
73
26
0
VERTEX
8
OBJECT__230
10
0
20
0
30
0
70
128
71
8
72
27
73
30
0
VERTEX
8
OBJECT__230
10
0
20
0
30
0
70
128
71
30
72
29
73
31
0
VERTEX
8
OBJECT__230
10
0
20
0
30
0
70
128
71
29
72
26
73
32
0
VERTEX
8
OBJECT__230
10
0
20
0
30
0
70
128
71
9
72
30
73
33
0
VERTEX
8
OBJECT__230
10
0
20
0
30
0
70
128
71
5
72
1
73
21
0
VERTEX
8
OBJECT__230
10
0
20
0
30
0
70
128
71
34
72
35
73
36
0
VERTEX
8
OBJECT__230
10
0
20
0
30
0
70
128
71
35
72
37
73
36
0
VERTEX
8
OBJECT__230
10
0
20
0
30
0
70
128
71
38
72
39
73
40
0
VERTEX
8
OBJECT__230
10
0
20
0
30
0
70
128
71
40
72
41
73
38
0
VERTEX
8
OBJECT__230
10
0
20
0
30
0
70
128
71
42
72
6
73
41
0
VERTEX
8
OBJECT__230
10
0
20
0
30
0
70
128
71
39
72
38
73
34
0
VERTEX
8
OBJECT__230
10
0
20
0
30
0
70
128
71
43
72
44
73
45
0
VERTEX
8
OBJECT__230
10
0
20
0
30
0
70
128
71
46
72
47
73
43
0
VERTEX
8
OBJECT__230
10
0
20
0
30
0
70
128
71
44
72
37
73
35
0
VERTEX
8
OBJECT__230
10
0
20
0
30
0
70
128
71
11
72
47
73
46
0
VERTEX
8
OBJECT__230
10
0
20
0
30
0
70
128
71
35
72
34
73
14
0
VERTEX
8
OBJECT__230
10
0
20
0
30
0
70
128
71
41
72
18
73
22
0
VERTEX
8
OBJECT__230
10
0
20
0
30
0
70
128
71
6
72
21
73
18
0
VERTEX
8
OBJECT__230
10
0
20
0
30
0
70
128
71
38
72
22
73
14
0
VERTEX
8
OBJECT__230
10
0
20
0
30
0
70
128
71
46
72
45
73
28
0
VERTEX
8
OBJECT__230
10
0
20
0
30
0
70
128
71
45
72
35
73
13
0
VERTEX
8
OBJECT__230
10
0
20
0
30
0
70
128
71
12
72
46
73
27
0
VERTEX
8
OBJECT__230
10
0
20
0
30
0
70
128
71
48
72
49
73
50
0
VERTEX
8
OBJECT__230
10
0
20
0
30
0
70
128
71
51
72
12
73
8
0
VERTEX
8
OBJECT__230
10
0
20
0
30
0
70
128
71
52
72
53
73
54
0
VERTEX
8
OBJECT__230
10
0
20
0
30
0
70
128
71
54
72
53
73
55
0
VERTEX
8
OBJECT__230
10
0
20
0
30
0
70
128
71
55
72
51
73
54
0
VERTEX
8
OBJECT__230
10
0
20
0
30
0
70
128
71
49
72
48
73
56
0
VERTEX
8
OBJECT__230
10
0
20
0
30
0
70
128
71
56
72
57
73
49
0
VERTEX
8
OBJECT__230
10
0
20
0
30
0
70
128
71
57
72
54
73
58
0
VERTEX
8
OBJECT__230
10
0
20
0
30
0
70
128
71
54
72
51
73
7
0
VERTEX
8
OBJECT__230
10
0
20
0
30
0
70
128
71
49
72
57
73
59
0
VERTEX
8
OBJECT__230
10
0
20
0
30
0
70
128
71
49
72
60
73
61
0
VERTEX
8
OBJECT__230
10
0
20
0
30
0
70
128
71
62
72
63
73
64
0
VERTEX
8
OBJECT__230
10
0
20
0
30
0
70
128
71
50
72
63
73
65
0
VERTEX
8
OBJECT__230
10
0
20
0
30
0
70
128
71
63
72
62
73
65
0
VERTEX
8
OBJECT__230
10
0
20
0
30
0
70
128
71
66
72
64
73
5
0
VERTEX
8
OBJECT__230
10
0
20
0
30
0
70
128
71
63
72
67
73
68
0
VERTEX
8
OBJECT__230
10
0
20
0
30
0
70
128
71
50
72
61
73
67
0
VERTEX
8
OBJECT__230
10
0
20
0
30
0
70
128
71
64
72
68
73
1
0
VERTEX
8
OBJECT__230
10
0
20
0
30
0
70
128
71
69
72
9
73
70
0
VERTEX
8
OBJECT__230
10
0
20
0
30
0
70
128
71
60
72
71
73
72
0
VERTEX
8
OBJECT__230
10
0
20
0
30
0
70
128
71
59
72
58
73
73
0
VERTEX
8
OBJECT__230
10
0
20
0
30
0
70
128
71
58
72
7
73
69
0
VERTEX
8
OBJECT__230
10
0
20
0
30
0
70
128
71
60
72
59
73
74
0
VERTEX
8
OBJECT__230
10
0
20
0
30
0
70
128
71
67
72
75
73
76
0
VERTEX
8
OBJECT__230
10
0
20
0
30
0
70
128
71
61
72
72
73
75
0
VERTEX
8
OBJECT__230
10
0
20
0
30
0
70
128
71
68
72
76
73
2
0
VERTEX
8
OBJECT__230
10
0
20
0
30
0
70
128
71
71
72
77
73
78
0
VERTEX
8
OBJECT__230
10
0
20
0
30
0
70
128
71
74
72
73
73
79
0
VERTEX
8
OBJECT__230
10
0
20
0
30
0
70
128
71
73
72
69
73
80
0
VERTEX
8
OBJECT__230
10
0
20
0
30
0
70
128
71
71
72
74
73
81
0
VERTEX
8
OBJECT__230
10
0
20
0
30
0
70
128
71
75
72
82
73
83
0
VERTEX
8
OBJECT__230
10
0
20
0
30
0
70
128
71
72
72
78
73
82
0
VERTEX
8
OBJECT__230
10
0
20
0
30
0
70
128
71
76
72
83
73
16
0
VERTEX
8
OBJECT__230
10
0
20
0
30
0
70
128
71
16
72
2
73
76
0
VERTEX
8
OBJECT__230
10
0
20
0
30
0
70
128
71
82
72
75
73
72
0
VERTEX
8
OBJECT__230
10
0
20
0
30
0
70
128
71
83
72
76
73
75
0
VERTEX
8
OBJECT__230
10
0
20
0
30
0
70
128
71
81
72
77
73
71
0
VERTEX
8
OBJECT__230
10
0
20
0
30
0
70
128
71
80
72
79
73
73
0
VERTEX
8
OBJECT__230
10
0
20
0
30
0
70
128
71
79
72
81
73
74
0
VERTEX
8
OBJECT__230
10
0
20
0
30
0
70
128
71
78
72
72
73
71
0
VERTEX
8
OBJECT__230
10
0
20
0
30
0
70
128
71
2
72
1
73
68
0
VERTEX
8
OBJECT__230
10
0
20
0
30
0
70
128
71
75
72
67
73
61
0
VERTEX
8
OBJECT__230
10
0
20
0
30
0
70
128
71
76
72
68
73
67
0
VERTEX
8
OBJECT__230
10
0
20
0
30
0
70
128
71
74
72
71
73
60
0
VERTEX
8
OBJECT__230
10
0
20
0
30
0
70
128
71
69
72
73
73
58
0
VERTEX
8
OBJECT__230
10
0
20
0
30
0
70
128
71
73
72
74
73
59
0
VERTEX
8
OBJECT__230
10
0
20
0
30
0
70
128
71
72
72
61
73
60
0
VERTEX
8
OBJECT__230
10
0
20
0
30
0
70
128
71
70
72
80
73
69
0
VERTEX
8
OBJECT__230
10
0
20
0
30
0
70
128
71
1
72
5
73
64
0
VERTEX
8
OBJECT__230
10
0
20
0
30
0
70
128
71
67
72
63
73
50
0
VERTEX
8
OBJECT__230
10
0
20
0
30
0
70
128
71
68
72
64
73
63
0
VERTEX
8
OBJECT__230
10
0
20
0
30
0
70
128
71
5
72
4
73
66
0
VERTEX
8
OBJECT__230
10
0
20
0
30
0
70
128
71
65
72
84
73
50
0
VERTEX
8
OBJECT__230
10
0
20
0
30
0
70
128
71
64
72
66
73
62
0
VERTEX
8
OBJECT__230
10
0
20
0
30
0
70
128
71
61
72
50
73
49
0
VERTEX
8
OBJECT__230
10
0
20
0
30
0
70
128
71
59
72
60
73
49
0
VERTEX
8
OBJECT__230
10
0
20
0
30
0
70
128
71
7
72
58
73
54
0
VERTEX
8
OBJECT__230
10
0
20
0
30
0
70
128
71
58
72
59
73
57
0
VERTEX
8
OBJECT__230
10
0
20
0
30
0
70
128
71
56
72
52
73
57
0
VERTEX
8
OBJECT__230
10
0
20
0
30
0
70
128
71
55
72
10
73
51
0
VERTEX
8
OBJECT__230
10
0
20
0
30
0
70
128
71
54
72
57
73
52
0
VERTEX
8
OBJECT__230
10
0
20
0
30
0
70
128
71
8
72
7
73
51
0
VERTEX
8
OBJECT__230
10
0
20
0
30
0
70
128
71
50
72
84
73
48
0
VERTEX
8
OBJECT__230
10
0
20
0
30
0
70
128
71
27
72
8
73
12
0
VERTEX
8
OBJECT__230
10
0
20
0
30
0
70
128
71
13
72
28
73
45
0
VERTEX
8
OBJECT__230
10
0
20
0
30
0
70
128
71
28
72
27
73
46
0
VERTEX
8
OBJECT__230
10
0
20
0
30
0
70
128
71
14
72
34
73
38
0
VERTEX
8
OBJECT__230
10
0
20
0
30
0
70
128
71
18
72
41
73
6
0
VERTEX
8
OBJECT__230
10
0
20
0
30
0
70
128
71
22
72
38
73
41
0
VERTEX
8
OBJECT__230
10
0
20
0
30
0
70
128
71
14
72
13
73
35
0
VERTEX
8
OBJECT__230
10
0
20
0
30
0
70
128
71
46
72
12
73
11
0
VERTEX
8
OBJECT__230
10
0
20
0
30
0
70
128
71
35
72
45
73
44
0
VERTEX
8
OBJECT__230
10
0
20
0
30
0
70
128
71
45
72
46
73
43
0
VERTEX
8
OBJECT__230
10
0
20
0
30
0
70
128
71
34
72
85
73
39
0
VERTEX
8
OBJECT__230
10
0
20
0
30
0
70
128
71
41
72
86
73
42
0
VERTEX
8
OBJECT__230
10
0
20
0
30
0
70
128
71
40
72
86
73
41
0
VERTEX
8
OBJECT__230
10
0
20
0
30
0
70
128
71
36
72
85
73
34
0
VERTEX
8
OBJECT__230
10
0
20
0
30
0
70
128
71
21
72
6
73
5
0
VERTEX
8
OBJECT__230
10
0
20
0
30
0
70
128
71
33
72
70
73
9
0
VERTEX
8
OBJECT__230
10
0
20
0
30
0
70
128
71
32
72
31
73
29
0
VERTEX
8
OBJECT__230
10
0
20
0
30
0
70
128
71
31
72
33
73
30
0
VERTEX
8
OBJECT__230
10
0
20
0
30
0
70
128
71
30
72
9
73
8
0
VERTEX
8
OBJECT__230
10
0
20
0
30
0
70
128
71
26
72
29
73
28
0
VERTEX
8
OBJECT__230
10
0
20
0
30
0
70
128
71
29
72
30
73
27
0
VERTEX
8
OBJECT__230
10
0
20
0
30
0
70
128
71
25
72
32
73
26
0
VERTEX
8
OBJECT__230
10
0
20
0
30
0
70
128
71
25
72
15
73
20
0
VERTEX
8
OBJECT__230
10
0
20
0
30
0
70
128
71
23
72
19
73
3
0
VERTEX
8
OBJECT__230
10
0
20
0
30
0
70
128
71
24
72
20
73
19
0
VERTEX
8
OBJECT__230
10
0
20
0
30
0
70
128
71
15
72
14
73
22
0
VERTEX
8
OBJECT__230
10
0
20
0
30
0
70
128
71
19
72
18
73
21
0
VERTEX
8
OBJECT__230
10
0
20
0
30
0
70
128
71
20
72
22
73
18
0
VERTEX
8
OBJECT__230
10
0
20
0
30
0
70
128
71
17
72
3
73
2
0
VERTEX
8
OBJECT__230
10
0
20
0
30
0
70
128
71
15
72
26
73
13
0
VERTEX
8
OBJECT__230
10
0
20
0
30
0
70
128
71
12
72
51
73
10
0
VERTEX
8
OBJECT__230
10
0
20
0
30
0
70
128
71
9
72
69
73
7
0
VERTEX
8
OBJECT__230
10
0
20
0
30
0
70
128
71
6
72
42
73
4
0
VERTEX
8
OBJECT__230
10
0
20
0
30
0
70
128
71
3
72
21
73
1
0
SEQEND
8
OBJECT__230
0
POLYLINE
8
OBJECT__231
66
1
70
64
71
24
72
24
62
253
0
VERTEX
8
OBJECT__231
10
-23.000000
20
234.875000
30
-537.656006
70
192
0
VERTEX
8
OBJECT__231
10
-23.000000
20
242.783005
30
-556.747986
70
192
0
VERTEX
8
OBJECT__231
10
-27.500000
20
232.975006
30
-549.966980
70
192
0
VERTEX
8
OBJECT__231
10
-27.500000
20
235.783005
30
-556.747986
70
192
0
VERTEX
8
OBJECT__231
10
-27.500000
20
229.925003
30
-542.606018
70
192
0
VERTEX
8
OBJECT__231
10
-27.500000
20
222.563004
30
-539.556030
70
192
0
VERTEX
8
OBJECT__231
10
-23.000000
20
215.783005
30
-529.747986
70
192
0
VERTEX
8
OBJECT__231
10
-23.000000
20
196.690994
30
-537.656006
70
192
0
VERTEX
8
OBJECT__231
10
-27.500000
20
209.003006
30
-539.556030
70
192
0
VERTEX
8
OBJECT__231
10
-27.500000
20
215.783005
30
-536.747986
70
192
0
VERTEX
8
OBJECT__231
10
-27.500000
20
201.641006
30
-542.606018
70
192
0
VERTEX
8
OBJECT__231
10
-27.500000
20
198.591003
30
-549.966980
70
192
0
VERTEX
8
OBJECT__231
10
-23.000000
20
188.783005
30
-556.747986
70
192
0
VERTEX
8
OBJECT__231
10
-23.000000
20
196.690994
30
-575.840027
70
192
0
VERTEX
8
OBJECT__231
10
-27.500000
20
198.591003
30
-563.528015
70
192
0
VERTEX
8
OBJECT__231
10
-27.500000
20
195.783005
30
-556.747986
70
192
0
VERTEX
8
OBJECT__231
10
-27.500000
20
201.641006
30
-570.890015
70
192
0
VERTEX
8
OBJECT__231
10
-27.500000
20
209.003006
30
-573.939026
70
192
0
VERTEX
8
OBJECT__231
10
-23.000000
20
215.783005
30
-583.747986
70
192
0
VERTEX
8
OBJECT__231
10
-23.000000
20
234.875000
30
-575.840027
70
192
0
VERTEX
8
OBJECT__231
10
-27.500000
20
222.563004
30
-573.939026
70
192
0
VERTEX
8
OBJECT__231
10
-27.500000
20
215.783005
30
-576.747986
70
192
0
VERTEX
8
OBJECT__231
10
-27.500000
20
229.925003
30
-570.890015
70
192
0
VERTEX
8
OBJECT__231
10
-27.500000
20
232.975006
30
-563.528015
70
192
0
VERTEX
8
OBJECT__231
10
0
20
0
30
0
70
128
71
1
72
2
73
3
0
VERTEX
8
OBJECT__231
10
0
20
0
30
0
70
128
71
2
72
4
73
3
0
VERTEX
8
OBJECT__231
10
0
20
0
30
0
70
128
71
1
72
5
73
6
0
VERTEX
8
OBJECT__231
10
0
20
0
30
0
70
128
71
6
72
7
73
1
0
VERTEX
8
OBJECT__231
10
0
20
0
30
0
70
128
71
8
72
7
73
9
0
VERTEX
8
OBJECT__231
10
0
20
0
30
0
70
128
71
7
72
10
73
9
0
VERTEX
8
OBJECT__231
10
0
20
0
30
0
70
128
71
8
72
11
73
12
0
VERTEX
8
OBJECT__231
10
0
20
0
30
0
70
128
71
12
72
13
73
8
0
VERTEX
8
OBJECT__231
10
0
20
0
30
0
70
128
71
14
72
13
73
15
0
VERTEX
8
OBJECT__231
10
0
20
0
30
0
70
128
71
13
72
16
73
15
0
VERTEX
8
OBJECT__231
10
0
20
0
30
0
70
128
71
14
72
17
73
18
0
VERTEX
8
OBJECT__231
10
0
20
0
30
0
70
128
71
18
72
19
73
14
0
VERTEX
8
OBJECT__231
10
0
20
0
30
0
70
128
71
20
72
19
73
21
0
VERTEX
8
OBJECT__231
10
0
20
0
30
0
70
128
71
19
72
22
73
21
0
VERTEX
8
OBJECT__231
10
0
20
0
30
0
70
128
71
20
72
23
73
24
0
VERTEX
8
OBJECT__231
10
0
20
0
30
0
70
128
71
24
72
2
73
20
0
VERTEX
8
OBJECT__231
10
0
20
0
30
0
70
128
71
24
72
4
73
2
0
VERTEX
8
OBJECT__231
10
0
20
0
30
0
70
128
71
21
72
23
73
20
0
VERTEX
8
OBJECT__231
10
0
20
0
30
0
70
128
71
18
72
22
73
19
0
VERTEX
8
OBJECT__231
10
0
20
0
30
0
70
128
71
15
72
17
73
14
0
VERTEX
8
OBJECT__231
10
0
20
0
30
0
70
128
71
12
72
16
73
13
0
VERTEX
8
OBJECT__231
10
0
20
0
30
0
70
128
71
9
72
11
73
8
0
VERTEX
8
OBJECT__231
10
0
20
0
30
0
70
128
71
6
72
10
73
7
0
VERTEX
8
OBJECT__231
10
0
20
0
30
0
70
128
71
3
72
5
73
1
0
SEQEND
8
OBJECT__231
0
POLYLINE
8
OBJECT__232
66
1
70
64
71
16
72
16
62
253
0
VERTEX
8
OBJECT__232
10
2.500000
20
188.783005
30
-556.747986
70
192
0
VERTEX
8
OBJECT__232
10
2.500000
20
196.690994
30
-537.656006
70
192
0
VERTEX
8
OBJECT__232
10
-23.000000
20
196.690994
30
-537.656006
70
192
0
VERTEX
8
OBJECT__232
10
-23.000000
20
215.783005
30
-529.747986
70
192
0
VERTEX
8
OBJECT__232
10
-23.000000
20
234.875000
30
-537.656006
70
192
0
VERTEX
8
OBJECT__232
10
2.500000
20
215.783005
30
-529.747986
70
192
0
VERTEX
8
OBJECT__232
10
-23.000000
20
242.783005
30
-556.747986
70
192
0
VERTEX
8
OBJECT__232
10
2.500000
20
234.875000
30
-537.656006
70
192
0
VERTEX
8
OBJECT__232
10
2.500000
20
234.875000
30
-575.840027
70
192
0
VERTEX
8
OBJECT__232
10
-23.000000
20
234.875000
30
-575.840027
70
192
0
VERTEX
8
OBJECT__232
10
2.500000
20
215.783005
30
-583.747986
70
192
0
VERTEX
8
OBJECT__232
10
-23.000000
20
215.783005
30
-583.747986
70
192
0
VERTEX
8
OBJECT__232
10
2.500000
20
196.690994
30
-575.840027
70
192
0
VERTEX
8
OBJECT__232
10
-23.000000
20
188.783005
30
-556.747986
70
192
0
VERTEX
8
OBJECT__232
10
-23.000000
20
196.690994
30
-575.840027
70
192
0
VERTEX
8
OBJECT__232
10
2.500000
20
242.783005
30
-556.747986
70
192
0
VERTEX
8
OBJECT__232
10
0
20
0
30
0
70
128
71
1
72
2
73
3
0
VERTEX
8
OBJECT__232
10
0
20
0
30
0
70
128
71
4
72
3
73
2
0
VERTEX
8
OBJECT__232
10
0
20
0
30
0
70
128
71
5
72
4
73
6
0
VERTEX
8
OBJECT__232
10
0
20
0
30
0
70
128
71
7
72
5
73
8
0
VERTEX
8
OBJECT__232
10
0
20
0
30
0
70
128
71
9
72
10
73
7
0
VERTEX
8
OBJECT__232
10
0
20
0
30
0
70
128
71
11
72
12
73
10
0
VERTEX
8
OBJECT__232
10
0
20
0
30
0
70
128
71
12
72
11
73
13
0
VERTEX
8
OBJECT__232
10
0
20
0
30
0
70
128
71
1
72
14
73
15
0
VERTEX
8
OBJECT__232
10
0
20
0
30
0
70
128
71
15
72
13
73
1
0
VERTEX
8
OBJECT__232
10
0
20
0
30
0
70
128
71
13
72
15
73
12
0
VERTEX
8
OBJECT__232
10
0
20
0
30
0
70
128
71
10
72
9
73
11
0
VERTEX
8
OBJECT__232
10
0
20
0
30
0
70
128
71
7
72
16
73
9
0
VERTEX
8
OBJECT__232
10
0
20
0
30
0
70
128
71
8
72
16
73
7
0
VERTEX
8
OBJECT__232
10
0
20
0
30
0
70
128
71
6
72
8
73
5
0
VERTEX
8
OBJECT__232
10
0
20
0
30
0
70
128
71
2
72
6
73
4
0
VERTEX
8
OBJECT__232
10
0
20
0
30
0
70
128
71
3
72
14
73
1
0
SEQEND
8
OBJECT__232
0
POLYLINE
8
OBJECT__233
66
1
70
64
71
16
72
16
62
253
0
VERTEX
8
OBJECT__233
10
4.500000
20
195.983994
30
-536.948975
70
192
0
VERTEX
8
OBJECT__233
10
2.500000
20
195.983994
30
-536.948975
70
192
0
VERTEX
8
OBJECT__233
10
2.500000
20
187.783005
30
-556.747986
70
192
0
VERTEX
8
OBJECT__233
10
4.500000
20
215.783005
30
-528.747986
70
192
0
VERTEX
8
OBJECT__233
10
2.500000
20
215.783005
30
-528.747986
70
192
0
VERTEX
8
OBJECT__233
10
4.500000
20
235.582001
30
-536.948975
70
192
0
VERTEX
8
OBJECT__233
10
2.500000
20
235.582001
30
-536.948975
70
192
0
VERTEX
8
OBJECT__233
10
4.500000
20
243.783005
30
-556.747986
70
192
0
VERTEX
8
OBJECT__233
10
2.500000
20
243.783005
30
-556.747986
70
192
0
VERTEX
8
OBJECT__233
10
2.500000
20
235.582001
30
-576.546997
70
192
0
VERTEX
8
OBJECT__233
10
2.500000
20
215.783005
30
-584.747986
70
192
0
VERTEX
8
OBJECT__233
10
4.500000
20
235.582001
30
-576.546997
70
192
0
VERTEX
8
OBJECT__233
10
2.500000
20
195.983994
30
-576.546997
70
192
0
VERTEX
8
OBJECT__233
10
4.500000
20
215.783005
30
-584.747986
70
192
0
VERTEX
8
OBJECT__233
10
4.500000
20
195.983994
30
-576.546997
70
192
0
VERTEX
8
OBJECT__233
10
4.500000
20
187.783005
30
-556.747986
70
192
0
VERTEX
8
OBJECT__233
10
0
20
0
30
0
70
128
71
1
72
2
73
3
0
VERTEX
8
OBJECT__233
10
0
20
0
30
0
70
128
71
4
72
5
73
2
0
VERTEX
8
OBJECT__233
10
0
20
0
30
0
70
128
71
6
72
7
73
5
0
VERTEX
8
OBJECT__233
10
0
20
0
30
0
70
128
71
8
72
9
73
7
0
VERTEX
8
OBJECT__233
10
0
20
0
30
0
70
128
71
10
72
9
73
8
0
VERTEX
8
OBJECT__233
10
0
20
0
30
0
70
128
71
11
72
10
73
12
0
VERTEX
8
OBJECT__233
10
0
20
0
30
0
70
128
71
13
72
11
73
14
0
VERTEX
8
OBJECT__233
10
0
20
0
30
0
70
128
71
3
72
13
73
15
0
VERTEX
8
OBJECT__233
10
0
20
0
30
0
70
128
71
15
72
16
73
3
0
VERTEX
8
OBJECT__233
10
0
20
0
30
0
70
128
71
14
72
15
73
13
0
VERTEX
8
OBJECT__233
10
0
20
0
30
0
70
128
71
12
72
14
73
11
0
VERTEX
8
OBJECT__233
10
0
20
0
30
0
70
128
71
8
72
12
73
10
0
VERTEX
8
OBJECT__233
10
0
20
0
30
0
70
128
71
7
72
6
73
8
0
VERTEX
8
OBJECT__233
10
0
20
0
30
0
70
128
71
5
72
4
73
6
0
VERTEX
8
OBJECT__233
10
0
20
0
30
0
70
128
71
2
72
1
73
4
0
VERTEX
8
OBJECT__233
10
0
20
0
30
0
70
128
71
3
72
16
73
1
0
SEQEND
8
OBJECT__233
0
POLYLINE
8
OBJECT__234
66
1
70
64
71
8
72
6
62
253
0
VERTEX
8
OBJECT__234
10
4.500000
20
215.783005
30
-584.747986
70
192
0
VERTEX
8
OBJECT__234
10
4.500000
20
235.582001
30
-576.546997
70
192
0
VERTEX
8
OBJECT__234
10
4.500000
20
243.783005
30
-556.747986
70
192
0
VERTEX
8
OBJECT__234
10
4.500000
20
195.983994
30
-576.546997
70
192
0
VERTEX
8
OBJECT__234
10
4.500000
20
215.783005
30
-528.747986
70
192
0
VERTEX
8
OBJECT__234
10
4.500000
20
195.983994
30
-536.948975
70
192
0
VERTEX
8
OBJECT__234
10
4.500000
20
235.582001
30
-536.948975
70
192
0
VERTEX
8
OBJECT__234
10
4.500000
20
187.783005
30
-556.747986
70
192
0
VERTEX
8
OBJECT__234
10
0
20
0
30
0
70
128
71
1
72
2
73
3
0
VERTEX
8
OBJECT__234
10
0
20
0
30
0
70
128
71
4
72
5
73
6
0
VERTEX
8
OBJECT__234
10
0
20
0
30
0
70
128
71
7
72
4
73
1
0
VERTEX
8
OBJECT__234
10
0
20
0
30
0
70
128
71
4
72
7
73
5
0
VERTEX
8
OBJECT__234
10
0
20
0
30
0
70
128
71
6
72
8
73
4
0
VERTEX
8
OBJECT__234
10
0
20
0
30
0
70
128
71
3
72
7
73
1
0
SEQEND
8
OBJECT__234
0
POLYLINE
8
OBJECT__235
66
1
70
64
71
4
72
2
62
253
0
VERTEX
8
OBJECT__235
10
-47.500000
20
-30.770000
30
-645.547974
70
192
0
VERTEX
8
OBJECT__235
10
-47.500000
20
-30.770000
30
-1077.547974
70
192
0
VERTEX
8
OBJECT__235
10
-2.500000
20
-30.770000
30
-1077.547974
70
192
0
VERTEX
8
OBJECT__235
10
-2.500000
20
-30.770000
30
-645.547974
70
192
0
VERTEX
8
OBJECT__235
10
0
20
0
30
0
70
128
71
1
72
2
73
3
0
VERTEX
8
OBJECT__235
10
0
20
0
30
0
70
128
71
3
72
4
73
1
0
SEQEND
8
OBJECT__235
0
POLYLINE
8
OBJECT__236
66
1
70
64
71
4
72
2
62
253
0
VERTEX
8
OBJECT__236
10
-2.500000
20
-30.770000
30
-1077.547974
70
192
0
VERTEX
8
OBJECT__236
10
-2.500000
20
-5.717000
30
-1077.547974
70
192
0
VERTEX
8
OBJECT__236
10
-2.500000
20
-5.717000
30
-645.547974
70
192
0
VERTEX
8
OBJECT__236
10
-2.500000
20
-30.770000
30
-645.547974
70
192
0
VERTEX
8
OBJECT__236
10
0
20
0
30
0
70
128
71
1
72
2
73
3
0
VERTEX
8
OBJECT__236
10
0
20
0
30
0
70
128
71
3
72
4
73
1
0
SEQEND
8
OBJECT__236
0
POLYLINE
8
OBJECT__238
66
1
70
64
71
4
72
2
62
253
0
VERTEX
8
OBJECT__238
10
-47.500000
20
-5.717000
30
-645.547974
70
192
0
VERTEX
8
OBJECT__238
10
-2.500000
20
-5.717000
30
-645.547974
70
192
0
VERTEX
8
OBJECT__238
10
-2.500000
20
-5.717000
30
-1077.547974
70
192
0
VERTEX
8
OBJECT__238
10
-47.500000
20
-5.717000
30
-1077.547974
70
192
0
VERTEX
8
OBJECT__238
10
0
20
0
30
0
70
128
71
1
72
2
73
3
0
VERTEX
8
OBJECT__238
10
0
20
0
30
0
70
128
71
3
72
4
73
1
0
SEQEND
8
OBJECT__238
0
POLYLINE
8
OBJECT__239
66
1
70
64
71
4
72
2
62
253
0
VERTEX
8
OBJECT__239
10
98.500000
20
111.615997
30
-315.548004
70
192
0
VERTEX
8
OBJECT__239
10
98.500000
20
115.782997
30
-319.713989
70
192
0
VERTEX
8
OBJECT__239
10
98.500000
20
119.949997
30
-315.548004
70
192
0
VERTEX
8
OBJECT__239
10
98.500000
20
115.782997
30
-311.381012
70
192
0
VERTEX
8
OBJECT__239
10
0
20
0
30
0
70
128
71
1
72
2
73
3
0
VERTEX
8
OBJECT__239
10
0
20
0
30
0
70
128
71
3
72
4
73
1
0
SEQEND
8
OBJECT__239
0
POLYLINE
8
OBJECT__240
66
1
70
64
71
8
72
8
62
253
0
VERTEX
8
OBJECT__240
10
97.667000
20
110.782997
30
-315.548004
70
192
0
VERTEX
8
OBJECT__240
10
98.500000
20
111.615997
30
-315.548004
70
192
0
VERTEX
8
OBJECT__240
10
98.500000
20
115.782997
30
-311.381012
70
192
0
VERTEX
8
OBJECT__240
10
97.667000
20
120.782997
30
-315.548004
70
192
0
VERTEX
8
OBJECT__240
10
97.667000
20
115.782997
30
-310.548004
70
192
0
VERTEX
8
OBJECT__240
10
98.500000
20
119.949997
30
-315.548004
70
192
0
VERTEX
8
OBJECT__240
10
98.500000
20
115.782997
30
-319.713989
70
192
0
VERTEX
8
OBJECT__240
10
97.667000
20
115.782997
30
-320.548004
70
192
0
VERTEX
8
OBJECT__240
10
0
20
0
30
0
70
128
71
1
72
2
73
3
0
VERTEX
8
OBJECT__240
10
0
20
0
30
0
70
128
71
4
72
5
73
3
0
VERTEX
8
OBJECT__240
10
0
20
0
30
0
70
128
71
4
72
6
73
7
0
VERTEX
8
OBJECT__240
10
0
20
0
30
0
70
128
71
1
72
8
73
7
0
VERTEX
8
OBJECT__240
10
0
20
0
30
0
70
128
71
7
72
2
73
1
0
VERTEX
8
OBJECT__240
10
0
20
0
30
0
70
128
71
7
72
8
73
4
0
VERTEX
8
OBJECT__240
10
0
20
0
30
0
70
128
71
3
72
6
73
4
0
VERTEX
8
OBJECT__240
10
0
20
0
30
0
70
128
71
3
72
5
73
1
0
SEQEND
8
OBJECT__240
0
POLYLINE
8
OBJECT__242
66
1
70
64
71
8
72
8
62
253
0
VERTEX
8
OBJECT__242
10
97.667000
20
115.782997
30
-310.548004
70
192
0
VERTEX
8
OBJECT__242
10
97.667000
20
120.782997
30
-315.548004
70
192
0
VERTEX
8
OBJECT__242
10
-1.500000
20
120.782997
30
-315.548004
70
192
0
VERTEX
8
OBJECT__242
10
97.667000
20
110.782997
30
-315.548004
70
192
0
VERTEX
8
OBJECT__242
10
-1.500000
20
115.782997
30
-310.548004
70
192
0
VERTEX
8
OBJECT__242
10
-1.500000
20
115.782997
30
-320.548004
70
192
0
VERTEX
8
OBJECT__242
10
97.667000
20
115.782997
30
-320.548004
70
192
0
VERTEX
8
OBJECT__242
10
-1.500000
20
110.782997
30
-315.548004
70
192
0
VERTEX
8
OBJECT__242
10
0
20
0
30
0
70
128
71
1
72
2
73
3
0
VERTEX
8
OBJECT__242
10
0
20
0
30
0
70
128
71
4
72
1
73
5
0
VERTEX
8
OBJECT__242
10
0
20
0
30
0
70
128
71
6
72
7
73
4
0
VERTEX
8
OBJECT__242
10
0
20
0
30
0
70
128
71
3
72
2
73
7
0
VERTEX
8
OBJECT__242
10
0
20
0
30
0
70
128
71
7
72
6
73
3
0
VERTEX
8
OBJECT__242
10
0
20
0
30
0
70
128
71
4
72
8
73
6
0
VERTEX
8
OBJECT__242
10
0
20
0
30
0
70
128
71
5
72
8
73
4
0
VERTEX
8
OBJECT__242
10
0
20
0
30
0
70
128
71
3
72
5
73
1
0
SEQEND
8
OBJECT__242
0
POLYLINE
8
OBJECT__243
66
1
70
64
71
12
72
12
62
253
0
VERTEX
8
OBJECT__243
10
-1.500000
20
110.782997
30
-315.548004
70
192
0
VERTEX
8
OBJECT__243
10
-1.500000
20
105.532997
30
-310.398010
70
192
0
VERTEX
8
OBJECT__243
10
-1.500000
20
104.532997
30
-311.398010
70
192
0
VERTEX
8
OBJECT__243
10
-1.500000
20
120.782997
30
-315.548004
70
192
0
VERTEX
8
OBJECT__243
10
-1.500000
20
126.032997
30
-320.697998
70
192
0
VERTEX
8
OBJECT__243
10
-1.500000
20
127.032997
30
-319.697998
70
192
0
VERTEX
8
OBJECT__243
10
-1.500000
20
104.532997
30
-315.697998
70
192
0
VERTEX
8
OBJECT__243
10
-1.500000
20
127.032997
30
-315.398010
70
192
0
VERTEX
8
OBJECT__243
10
-1.500000
20
122.032997
30
-310.398010
70
192
0
VERTEX
8
OBJECT__243
10
-1.500000
20
115.782997
30
-310.548004
70
192
0
VERTEX
8
OBJECT__243
10
-1.500000
20
109.532997
30
-320.697998
70
192
0
VERTEX
8
OBJECT__243
10
-1.500000
20
115.782997
30
-320.548004
70
192
0
VERTEX
8
OBJECT__243
10
0
20
0
30
0
70
128
71
1
72
2
73
3
0
VERTEX
8
OBJECT__243
10
0
20
0
30
0
70
128
71
4
72
5
73
6
0
VERTEX
8
OBJECT__243
10
0
20
0
30
0
70
128
71
3
72
7
73
1
0
VERTEX
8
OBJECT__243
10
0
20
0
30
0
70
128
71
6
72
8
73
4
0
VERTEX
8
OBJECT__243
10
0
20
0
30
0
70
128
71
9
72
10
73
4
0
VERTEX
8
OBJECT__243
10
0
20
0
30
0
70
128
71
1
72
10
73
2
0
VERTEX
8
OBJECT__243
10
0
20
0
30
0
70
128
71
11
72
12
73
1
0
VERTEX
8
OBJECT__243
10
0
20
0
30
0
70
128
71
4
72
12
73
5
0
VERTEX
8
OBJECT__243
10
0
20
0
30
0
70
128
71
10
72
9
73
2
0
VERTEX
8
OBJECT__243
10
0
20
0
30
0
70
128
71
12
72
11
73
5
0
VERTEX
8
OBJECT__243
10
0
20
0
30
0
70
128
71
1
72
7
73
11
0
VERTEX
8
OBJECT__243
10
0
20
0
30
0
70
128
71
4
72
8
73
9
0
SEQEND
8
OBJECT__243
0
POLYLINE
8
OBJECT__244
66
1
70
64
71
4
72
2
62
253
0
VERTEX
8
OBJECT__244
10
-6.500000
20
127.032997
30
-315.398010
70
192
0
VERTEX
8
OBJECT__244
10
-1.500000
20
127.032997
30
-315.398010
70
192
0
VERTEX
8
OBJECT__244
10
-1.500000
20
127.032997
30
-319.697998
70
192
0
VERTEX
8
OBJECT__244
10
-6.500000
20
127.032997
30
-319.697998
70
192
0
VERTEX
8
OBJECT__244
10
0
20
0
30
0
70
128
71
1
72
2
73
3
0
VERTEX
8
OBJECT__244
10
0
20
0
30
0
70
128
71
3
72
4
73
1
0
SEQEND
8
OBJECT__244
0
POLYLINE
8
OBJECT__245
66
1
70
64
71
4
72
2
62
253
0
VERTEX
8
OBJECT__245
10
-6.500000
20
127.032997
30
-319.697998
70
192
0
VERTEX
8
OBJECT__245
10
-1.500000
20
127.032997
30
-319.697998
70
192
0
VERTEX
8
OBJECT__245
10
-1.500000
20
126.032997
30
-320.697998
70
192
0
VERTEX
8
OBJECT__245
10
-6.500000
20
126.032997
30
-320.697998
70
192
0
VERTEX
8
OBJECT__245
10
0
20
0
30
0
70
128
71
1
72
2
73
3
0
VERTEX
8
OBJECT__245
10
0
20
0
30
0
70
128
71
3
72
4
73
1
0
SEQEND
8
OBJECT__245
0
POLYLINE
8
OBJECT__246
66
1
70
64
71
4
72
2
62
253
0
VERTEX
8
OBJECT__246
10
-6.500000
20
122.032997
30
-310.398010
70
192
0
VERTEX
8
OBJECT__246
10
-1.500000
20
122.032997
30
-310.398010
70
192
0
VERTEX
8
OBJECT__246
10
-1.500000
20
127.032997
30
-315.398010
70
192
0
VERTEX
8
OBJECT__246
10
-6.500000
20
127.032997
30
-315.398010
70
192
0
VERTEX
8
OBJECT__246
10
0
20
0
30
0
70
128
71
1
72
2
73
3
0
VERTEX
8
OBJECT__246
10
0
20
0
30
0
70
128
71
3
72
4
73
1
0
SEQEND
8
OBJECT__246
0
POLYLINE
8
OBJECT__247
66
1
70
64
71
4
72
2
62
253
0
VERTEX
8
OBJECT__247
10
-6.500000
20
104.532997
30
-311.398010
70
192
0
VERTEX
8
OBJECT__247
10
-6.500000
20
104.532997
30
-315.697998
70
192
0
VERTEX
8
OBJECT__247
10
-1.500000
20
104.532997
30
-315.697998
70
192
0
VERTEX
8
OBJECT__247
10
-1.500000
20
104.532997
30
-311.398010
70
192
0
VERTEX
8
OBJECT__247
10
0
20
0
30
0
70
128
71
1
72
2
73
3
0
VERTEX
8
OBJECT__247
10
0
20
0
30
0
70
128
71
3
72
4
73
1
0
SEQEND
8
OBJECT__247
0
POLYLINE
8
OBJECT__248
66
1
70
64
71
4
72
2
62
253
0
VERTEX
8
OBJECT__248
10
-1.500000
20
109.532997
30
-320.697998
70
192
0
VERTEX
8
OBJECT__248
10
-1.500000
20
104.532997
30
-315.697998
70
192
0
VERTEX
8
OBJECT__248
10
-6.500000
20
104.532997
30
-315.697998
70
192
0
VERTEX
8
OBJECT__248
10
-6.500000
20
109.532997
30
-320.697998
70
192
0
VERTEX
8
OBJECT__248
10
0
20
0
30
0
70
128
71
1
72
2
73
3
0
VERTEX
8
OBJECT__248
10
0
20
0
30
0
70
128
71
3
72
4
73
1
0
SEQEND
8
OBJECT__248
0
ENDSEC
0
EOF
