999
Converted by 3D Exploration 
999
XDimension Software, LLC
999
http://www.xdsoft.com/explorer/
0
SECTION
2
HEADER
9
$ACADVER
1
AC1008
9
$UCSORG
10
0.0
20
0.0
30
0.0
9
$UCSXDIR
10
1.0
20
0.0
30
0.0
9
$TILEMODE
70
1
9
$UCSYDIR
10
0.0
20
1.0
30
0.0
9
$EXTMIN
10
-41.948002
20
-24.570000
30
-24.570000
9
$EXTMAX
10
116.000000
20
24.570000
30
320.934998
0
ENDSEC
0
SECTION
2
TABLES
0
TABLE
2
LTYPE
70
1
0
LTYPE
2
CONTINUOUS
70
64
3
Solid line
72
65
73
0
40
0.0
0
ENDTAB
0
TABLE
2
LAYER
70
62
0
LAYER
2
OBJECT__0
70
0
62
253
6
CONTINUOUS
0
LAYER
2
OBJECT__1
70
0
62
253
6
CONTINUOUS
0
LAYER
2
OBJECT__3
70
0
62
253
6
CONTINUOUS
0
LAYER
2
OBJECT__4
70
0
62
253
6
CONTINUOUS
0
LAYER
2
OBJECT__5
70
0
62
253
6
CONTINUOUS
0
LAYER
2
OBJECT__7
70
0
62
253
6
CONTINUOUS
0
LAYER
2
OBJECT__8
70
0
62
253
6
CONTINUOUS
0
LAYER
2
OBJECT__9
70
0
62
253
6
CONTINUOUS
0
LAYER
2
OBJECT__10
70
0
62
253
6
CONTINUOUS
0
LAYER
2
OBJECT__12
70
0
62
253
6
CONTINUOUS
0
LAYER
2
OBJECT__13
70
0
62
253
6
CONTINUOUS
0
LAYER
2
OBJECT__14
70
0
62
253
6
CONTINUOUS
0
LAYER
2
OBJECT__15
70
0
62
253
6
CONTINUOUS
0
LAYER
2
OBJECT__16
70
0
62
253
6
CONTINUOUS
0
LAYER
2
OBJECT__17
70
0
62
253
6
CONTINUOUS
0
LAYER
2
OBJECT__18
70
0
62
253
6
CONTINUOUS
0
LAYER
2
OBJECT__19
70
0
62
253
6
CONTINUOUS
0
LAYER
2
OBJECT__20
70
0
62
253
6
CONTINUOUS
0
LAYER
2
OBJECT__21
70
0
62
253
6
CONTINUOUS
0
LAYER
2
OBJECT__22
70
0
62
253
6
CONTINUOUS
0
LAYER
2
OBJECT__23
70
0
62
253
6
CONTINUOUS
0
LAYER
2
OBJECT__24
70
0
62
253
6
CONTINUOUS
0
LAYER
2
OBJECT__25
70
0
62
253
6
CONTINUOUS
0
LAYER
2
OBJECT__26
70
0
62
253
6
CONTINUOUS
0
LAYER
2
OBJECT__27
70
0
62
253
6
CONTINUOUS
0
LAYER
2
OBJECT__28
70
0
62
253
6
CONTINUOUS
0
LAYER
2
OBJECT__29
70
0
62
253
6
CONTINUOUS
0
LAYER
2
OBJECT__30
70
0
62
253
6
CONTINUOUS
0
LAYER
2
OBJECT__31
70
0
62
253
6
CONTINUOUS
0
LAYER
2
OBJECT__32
70
0
62
253
6
CONTINUOUS
0
LAYER
2
OBJECT__33
70
0
62
253
6
CONTINUOUS
0
LAYER
2
OBJECT__34
70
0
62
253
6
CONTINUOUS
0
LAYER
2
OBJECT__35
70
0
62
253
6
CONTINUOUS
0
LAYER
2
OBJECT__36
70
0
62
253
6
CONTINUOUS
0
LAYER
2
OBJECT__37
70
0
62
253
6
CONTINUOUS
0
LAYER
2
OBJECT__38
70
0
62
253
6
CONTINUOUS
0
LAYER
2
OBJECT__39
70
0
62
253
6
CONTINUOUS
0
LAYER
2
OBJECT__40
70
0
62
253
6
CONTINUOUS
0
LAYER
2
OBJECT__41
70
0
62
253
6
CONTINUOUS
0
LAYER
2
OBJECT__42
70
0
62
253
6
CONTINUOUS
0
LAYER
2
OBJECT__43
70
0
62
253
6
CONTINUOUS
0
LAYER
2
OBJECT__45
70
0
62
253
6
CONTINUOUS
0
LAYER
2
OBJECT__46
70
0
62
253
6
CONTINUOUS
0
LAYER
2
OBJECT__47
70
0
62
253
6
CONTINUOUS
0
LAYER
2
OBJECT__48
70
0
62
253
6
CONTINUOUS
0
LAYER
2
OBJECT__49
70
0
62
253
6
CONTINUOUS
0
LAYER
2
OBJECT__50
70
0
62
253
6
CONTINUOUS
0
LAYER
2
OBJECT__51
70
0
62
253
6
CONTINUOUS
0
LAYER
2
OBJECT__52
70
0
62
253
6
CONTINUOUS
0
LAYER
2
OBJECT__53
70
0
62
253
6
CONTINUOUS
0
LAYER
2
OBJECT__54
70
0
62
253
6
CONTINUOUS
0
LAYER
2
OBJECT__55
70
0
62
253
6
CONTINUOUS
0
LAYER
2
OBJECT__56
70
0
62
253
6
CONTINUOUS
0
LAYER
2
OBJECT__57
70
0
62
253
6
CONTINUOUS
0
LAYER
2
OBJECT__59
70
0
62
253
6
CONTINUOUS
0
LAYER
2
OBJECT__60
70
0
62
253
6
CONTINUOUS
0
ENDTAB
0
TABLE
2
STYLE
70
1
0
STYLE
2
STANDARD
70
0
40
0.0
41
1.0
50
0.0
71
0
42
0.2
3
txt
4
1
0
ENDTAB
0
TABLE
2
UCS
70
0
0
ENDTAB
0
ENDSEC
0
SECTION
2
ENTITIES
0
POLYLINE
8
OBJECT__0
66
1
70
64
71
13
72
11
62
253
0
VERTEX
8
OBJECT__0
10
109.425003
20
-8.608000
30
244.550995
70
192
0
VERTEX
8
OBJECT__0
10
100.219002
20
-11.166000
30
239.759003
70
192
0
VERTEX
8
OBJECT__0
10
95.896004
20
-8.608000
30
237.507996
70
192
0
VERTEX
8
OBJECT__0
10
93.123001
20
-4.078000
30
236.063995
70
192
0
VERTEX
8
OBJECT__0
10
112.787003
20
1.386000
30
246.300995
70
192
0
VERTEX
8
OBJECT__0
10
112.197998
20
-4.078000
30
245.994995
70
192
0
VERTEX
8
OBJECT__0
10
94.264999
20
6.533000
30
236.658997
70
192
0
VERTEX
8
OBJECT__0
10
97.919998
20
10.183000
30
238.561996
70
192
0
VERTEX
8
OBJECT__0
10
102.660004
20
11.500000
30
241.029007
70
192
0
VERTEX
8
OBJECT__0
10
107.401001
20
10.183000
30
243.496994
70
192
0
VERTEX
8
OBJECT__0
10
92.533997
20
1.386000
30
235.757996
70
192
0
VERTEX
8
OBJECT__0
10
105.100998
20
-11.166000
30
242.300003
70
192
0
VERTEX
8
OBJECT__0
10
111.055000
20
6.533000
30
245.399994
70
192
0
VERTEX
8
OBJECT__0
10
0
20
0
30
0
70
128
71
1
72
2
73
3
0
VERTEX
8
OBJECT__0
10
0
20
0
30
0
70
128
71
4
72
5
73
6
0
VERTEX
8
OBJECT__0
10
0
20
0
30
0
70
128
71
7
72
8
73
9
0
VERTEX
8
OBJECT__0
10
0
20
0
30
0
70
128
71
10
72
4
73
11
0
VERTEX
8
OBJECT__0
10
0
20
0
30
0
70
128
71
1
72
12
73
2
0
VERTEX
8
OBJECT__0
10
0
20
0
30
0
70
128
71
4
72
13
73
5
0
VERTEX
8
OBJECT__0
10
0
20
0
30
0
70
128
71
11
72
7
73
10
0
VERTEX
8
OBJECT__0
10
0
20
0
30
0
70
128
71
6
72
1
73
4
0
VERTEX
8
OBJECT__0
10
0
20
0
30
0
70
128
71
9
72
10
73
7
0
VERTEX
8
OBJECT__0
10
0
20
0
30
0
70
128
71
10
72
13
73
4
0
VERTEX
8
OBJECT__0
10
0
20
0
30
0
70
128
71
3
72
4
73
1
0
SEQEND
8
OBJECT__0
0
POLYLINE
8
OBJECT__1
66
1
70
64
71
34
72
34
62
253
0
VERTEX
8
OBJECT__1
10
97.483002
20
10.625000
30
238.897995
70
192
0
VERTEX
8
OBJECT__1
10
102.429001
20
12.000000
30
241.473007
70
192
0
VERTEX
8
OBJECT__1
10
102.660004
20
11.500000
30
241.029007
70
192
0
VERTEX
8
OBJECT__1
10
94.264999
20
6.533000
30
236.658997
70
192
0
VERTEX
8
OBJECT__1
10
93.668999
20
6.817000
30
236.912994
70
192
0
VERTEX
8
OBJECT__1
10
95.790001
20
8.935000
30
238.016998
70
192
0
VERTEX
8
OBJECT__1
10
97.919998
20
10.183000
30
238.561996
70
192
0
VERTEX
8
OBJECT__1
10
92.533997
20
1.386000
30
235.757996
70
192
0
VERTEX
8
OBJECT__1
10
92.060997
20
2.035000
30
236.074997
70
192
0
VERTEX
8
OBJECT__1
10
91.862999
20
1.446000
30
235.972000
70
192
0
VERTEX
8
OBJECT__1
10
93.123001
20
-4.078000
30
236.063995
70
192
0
VERTEX
8
OBJECT__1
10
95.896004
20
-8.608000
30
237.507996
70
192
0
VERTEX
8
OBJECT__1
10
95.371002
20
-8.982000
30
237.798996
70
192
0
VERTEX
8
OBJECT__1
10
93.436996
20
-5.824000
30
236.792007
70
192
0
VERTEX
8
OBJECT__1
10
100.219002
20
-11.166000
30
239.759003
70
192
0
VERTEX
8
OBJECT__1
10
98.888000
20
-11.063000
30
239.630005
70
192
0
VERTEX
8
OBJECT__1
10
99.882004
20
-11.651000
30
240.147003
70
192
0
VERTEX
8
OBJECT__1
10
104.976997
20
-11.651000
30
242.798996
70
192
0
VERTEX
8
OBJECT__1
10
109.425003
20
-8.608000
30
244.550995
70
192
0
VERTEX
8
OBJECT__1
10
109.487999
20
-8.982000
30
245.147003
70
192
0
VERTEX
8
OBJECT__1
10
105.971001
20
-11.063000
30
243.315994
70
192
0
VERTEX
8
OBJECT__1
10
105.100998
20
-11.166000
30
242.300003
70
192
0
VERTEX
8
OBJECT__1
10
112.197998
20
-4.078000
30
245.994995
70
192
0
VERTEX
8
OBJECT__1
10
111.420998
20
-5.824000
30
246.154007
70
192
0
VERTEX
8
OBJECT__1
10
112.382004
20
-4.255000
30
246.654007
70
192
0
VERTEX
8
OBJECT__1
10
112.996002
20
1.446000
30
246.973999
70
192
0
VERTEX
8
OBJECT__1
10
111.055000
20
6.533000
30
245.399994
70
192
0
VERTEX
8
OBJECT__1
10
111.189003
20
6.817000
30
246.033005
70
192
0
VERTEX
8
OBJECT__1
10
112.797997
20
2.035000
30
246.869995
70
192
0
VERTEX
8
OBJECT__1
10
112.787003
20
1.386000
30
246.300995
70
192
0
VERTEX
8
OBJECT__1
10
107.401001
20
10.183000
30
243.496994
70
192
0
VERTEX
8
OBJECT__1
10
109.069000
20
8.935000
30
244.929001
70
192
0
VERTEX
8
OBJECT__1
10
107.375999
20
10.625000
30
244.048004
70
192
0
VERTEX
8
OBJECT__1
10
92.476997
20
-4.255000
30
236.292007
70
192
0
VERTEX
8
OBJECT__1
10
0
20
0
30
0
70
128
71
1
72
2
73
3
0
VERTEX
8
OBJECT__1
10
0
20
0
30
0
70
128
71
4
72
5
73
6
0
VERTEX
8
OBJECT__1
10
0
20
0
30
0
70
128
71
6
72
7
73
4
0
VERTEX
8
OBJECT__1
10
0
20
0
30
0
70
128
71
4
72
8
73
9
0
VERTEX
8
OBJECT__1
10
0
20
0
30
0
70
128
71
8
72
10
73
9
0
VERTEX
8
OBJECT__1
10
0
20
0
30
0
70
128
71
10
72
8
73
11
0
VERTEX
8
OBJECT__1
10
0
20
0
30
0
70
128
71
12
72
13
73
14
0
VERTEX
8
OBJECT__1
10
0
20
0
30
0
70
128
71
14
72
11
73
12
0
VERTEX
8
OBJECT__1
10
0
20
0
30
0
70
128
71
12
72
15
73
16
0
VERTEX
8
OBJECT__1
10
0
20
0
30
0
70
128
71
15
72
17
73
16
0
VERTEX
8
OBJECT__1
10
0
20
0
30
0
70
128
71
18
72
17
73
15
0
VERTEX
8
OBJECT__1
10
0
20
0
30
0
70
128
71
19
72
20
73
21
0
VERTEX
8
OBJECT__1
10
0
20
0
30
0
70
128
71
21
72
22
73
19
0
VERTEX
8
OBJECT__1
10
0
20
0
30
0
70
128
71
19
72
23
73
24
0
VERTEX
8
OBJECT__1
10
0
20
0
30
0
70
128
71
23
72
25
73
24
0
VERTEX
8
OBJECT__1
10
0
20
0
30
0
70
128
71
26
72
25
73
23
0
VERTEX
8
OBJECT__1
10
0
20
0
30
0
70
128
71
27
72
28
73
29
0
VERTEX
8
OBJECT__1
10
0
20
0
30
0
70
128
71
29
72
30
73
27
0
VERTEX
8
OBJECT__1
10
0
20
0
30
0
70
128
71
27
72
31
73
32
0
VERTEX
8
OBJECT__1
10
0
20
0
30
0
70
128
71
31
72
33
73
32
0
VERTEX
8
OBJECT__1
10
0
20
0
30
0
70
128
71
2
72
33
73
31
0
VERTEX
8
OBJECT__1
10
0
20
0
30
0
70
128
71
31
72
3
73
2
0
VERTEX
8
OBJECT__1
10
0
20
0
30
0
70
128
71
32
72
28
73
27
0
VERTEX
8
OBJECT__1
10
0
20
0
30
0
70
128
71
29
72
26
73
30
0
VERTEX
8
OBJECT__1
10
0
20
0
30
0
70
128
71
23
72
30
73
26
0
VERTEX
8
OBJECT__1
10
0
20
0
30
0
70
128
71
24
72
20
73
19
0
VERTEX
8
OBJECT__1
10
0
20
0
30
0
70
128
71
21
72
18
73
22
0
VERTEX
8
OBJECT__1
10
0
20
0
30
0
70
128
71
15
72
22
73
18
0
VERTEX
8
OBJECT__1
10
0
20
0
30
0
70
128
71
16
72
13
73
12
0
VERTEX
8
OBJECT__1
10
0
20
0
30
0
70
128
71
14
72
34
73
11
0
VERTEX
8
OBJECT__1
10
0
20
0
30
0
70
128
71
11
72
34
73
10
0
VERTEX
8
OBJECT__1
10
0
20
0
30
0
70
128
71
9
72
5
73
4
0
VERTEX
8
OBJECT__1
10
0
20
0
30
0
70
128
71
6
72
1
73
7
0
VERTEX
8
OBJECT__1
10
0
20
0
30
0
70
128
71
3
72
7
73
1
0
SEQEND
8
OBJECT__1
0
POLYLINE
8
OBJECT__3
66
1
70
64
71
30
72
30
62
253
0
VERTEX
8
OBJECT__3
10
93.655998
20
12.000000
30
258.325989
70
192
0
VERTEX
8
OBJECT__3
10
102.429001
20
12.000000
30
241.473007
70
192
0
VERTEX
8
OBJECT__3
10
97.483002
20
10.625000
30
238.897995
70
192
0
VERTEX
8
OBJECT__3
10
86.814003
20
9.193000
30
254.764999
70
192
0
VERTEX
8
OBJECT__3
10
83.174004
20
2.084000
30
252.869003
70
192
0
VERTEX
8
OBJECT__3
10
93.668999
20
6.817000
30
236.912994
70
192
0
VERTEX
8
OBJECT__3
10
95.790001
20
8.935000
30
238.016998
70
192
0
VERTEX
8
OBJECT__3
10
91.862999
20
1.446000
30
235.972000
70
192
0
VERTEX
8
OBJECT__3
10
92.476997
20
-4.255000
30
236.292007
70
192
0
VERTEX
8
OBJECT__3
10
84.438004
20
-6.000000
30
253.528000
70
192
0
VERTEX
8
OBJECT__3
10
92.060997
20
2.035000
30
236.074997
70
192
0
VERTEX
8
OBJECT__3
10
90.015999
20
-11.276000
30
256.431000
70
192
0
VERTEX
8
OBJECT__3
10
95.371002
20
-8.982000
30
237.798996
70
192
0
VERTEX
8
OBJECT__3
10
93.436996
20
-5.824000
30
236.792007
70
192
0
VERTEX
8
OBJECT__3
10
99.882004
20
-11.651000
30
240.147003
70
192
0
VERTEX
8
OBJECT__3
10
104.976997
20
-11.651000
30
242.798996
70
192
0
VERTEX
8
OBJECT__3
10
97.296997
20
-11.276000
30
260.221008
70
192
0
VERTEX
8
OBJECT__3
10
98.888000
20
-11.063000
30
239.630005
70
192
0
VERTEX
8
OBJECT__3
10
105.971001
20
-11.063000
30
243.315994
70
192
0
VERTEX
8
OBJECT__3
10
109.487999
20
-8.982000
30
245.147003
70
192
0
VERTEX
8
OBJECT__3
10
102.874001
20
-6.000000
30
263.125000
70
192
0
VERTEX
8
OBJECT__3
10
104.139000
20
2.084000
30
263.782990
70
192
0
VERTEX
8
OBJECT__3
10
112.382004
20
-4.255000
30
246.654007
70
192
0
VERTEX
8
OBJECT__3
10
112.996002
20
1.446000
30
246.973999
70
192
0
VERTEX
8
OBJECT__3
10
111.420998
20
-5.824000
30
246.154007
70
192
0
VERTEX
8
OBJECT__3
10
112.797997
20
2.035000
30
246.869995
70
192
0
VERTEX
8
OBJECT__3
10
111.189003
20
6.817000
30
246.033005
70
192
0
VERTEX
8
OBJECT__3
10
100.498001
20
9.193000
30
261.888000
70
192
0
VERTEX
8
OBJECT__3
10
107.375999
20
10.625000
30
244.048004
70
192
0
VERTEX
8
OBJECT__3
10
109.069000
20
8.935000
30
244.929001
70
192
0
VERTEX
8
OBJECT__3
10
0
20
0
30
0
70
128
71
1
72
2
73
3
0
VERTEX
8
OBJECT__3
10
0
20
0
30
0
70
128
71
3
72
4
73
1
0
VERTEX
8
OBJECT__3
10
0
20
0
30
0
70
128
71
5
72
4
73
6
0
VERTEX
8
OBJECT__3
10
0
20
0
30
0
70
128
71
4
72
7
73
6
0
VERTEX
8
OBJECT__3
10
0
20
0
30
0
70
128
71
5
72
8
73
9
0
VERTEX
8
OBJECT__3
10
0
20
0
30
0
70
128
71
9
72
10
73
5
0
VERTEX
8
OBJECT__3
10
0
20
0
30
0
70
128
71
5
72
11
73
8
0
VERTEX
8
OBJECT__3
10
0
20
0
30
0
70
128
71
12
72
10
73
13
0
VERTEX
8
OBJECT__3
10
0
20
0
30
0
70
128
71
10
72
14
73
13
0
VERTEX
8
OBJECT__3
10
0
20
0
30
0
70
128
71
12
72
15
73
16
0
VERTEX
8
OBJECT__3
10
0
20
0
30
0
70
128
71
16
72
17
73
12
0
VERTEX
8
OBJECT__3
10
0
20
0
30
0
70
128
71
12
72
18
73
15
0
VERTEX
8
OBJECT__3
10
0
20
0
30
0
70
128
71
17
72
19
73
20
0
VERTEX
8
OBJECT__3
10
0
20
0
30
0
70
128
71
20
72
21
73
17
0
VERTEX
8
OBJECT__3
10
0
20
0
30
0
70
128
71
22
72
21
73
23
0
VERTEX
8
OBJECT__3
10
0
20
0
30
0
70
128
71
23
72
24
73
22
0
VERTEX
8
OBJECT__3
10
0
20
0
30
0
70
128
71
21
72
25
73
23
0
VERTEX
8
OBJECT__3
10
0
20
0
30
0
70
128
71
22
72
26
73
27
0
VERTEX
8
OBJECT__3
10
0
20
0
30
0
70
128
71
27
72
28
73
22
0
VERTEX
8
OBJECT__3
10
0
20
0
30
0
70
128
71
1
72
28
73
29
0
VERTEX
8
OBJECT__3
10
0
20
0
30
0
70
128
71
28
72
30
73
29
0
VERTEX
8
OBJECT__3
10
0
20
0
30
0
70
128
71
29
72
2
73
1
0
VERTEX
8
OBJECT__3
10
0
20
0
30
0
70
128
71
27
72
30
73
28
0
VERTEX
8
OBJECT__3
10
0
20
0
30
0
70
128
71
24
72
26
73
22
0
VERTEX
8
OBJECT__3
10
0
20
0
30
0
70
128
71
20
72
25
73
21
0
VERTEX
8
OBJECT__3
10
0
20
0
30
0
70
128
71
16
72
19
73
17
0
VERTEX
8
OBJECT__3
10
0
20
0
30
0
70
128
71
13
72
18
73
12
0
VERTEX
8
OBJECT__3
10
0
20
0
30
0
70
128
71
9
72
14
73
10
0
VERTEX
8
OBJECT__3
10
0
20
0
30
0
70
128
71
6
72
11
73
5
0
VERTEX
8
OBJECT__3
10
0
20
0
30
0
70
128
71
3
72
7
73
4
0
SEQEND
8
OBJECT__3
0
POLYLINE
8
OBJECT__4
66
1
70
64
71
19
72
19
62
253
0
VERTEX
8
OBJECT__4
10
-27.530001
20
0.000000
30
226.322998
70
192
0
VERTEX
8
OBJECT__4
10
-13.625000
20
-1.459000
30
185.574005
70
192
0
VERTEX
8
OBJECT__4
10
-13.625000
20
-1.954000
30
190.037994
70
192
0
VERTEX
8
OBJECT__4
10
-13.625000
20
0.000000
30
183.529007
70
192
0
VERTEX
8
OBJECT__4
10
-25.711000
20
-1.730000
30
226.914001
70
192
0
VERTEX
8
OBJECT__4
10
-26.215000
20
-1.902000
30
226.750000
70
192
0
VERTEX
8
OBJECT__4
10
-24.089001
20
-1.176000
30
227.440994
70
192
0
VERTEX
8
OBJECT__4
10
-13.625000
20
-1.272000
30
194.996002
70
192
0
VERTEX
8
OBJECT__4
10
-13.625000
20
0.021000
30
196.201996
70
192
0
VERTEX
8
OBJECT__4
10
-23.725000
20
0.000000
30
227.559006
70
192
0
VERTEX
8
OBJECT__4
10
-13.625000
20
-1.996000
30
190.414993
70
192
0
VERTEX
8
OBJECT__4
10
-25.711000
20
1.730000
30
226.914001
70
192
0
VERTEX
8
OBJECT__4
10
-24.089001
20
1.176000
30
227.440994
70
192
0
VERTEX
8
OBJECT__4
10
-13.625000
20
0.255000
30
196.421005
70
192
0
VERTEX
8
OBJECT__4
10
-13.625000
20
1.621000
30
193.791000
70
192
0
VERTEX
8
OBJECT__4
10
-26.215000
20
1.902000
30
226.750000
70
192
0
VERTEX
8
OBJECT__4
10
-13.625000
20
1.883000
30
189.944000
70
192
0
VERTEX
8
OBJECT__4
10
-13.625000
20
1.963000
30
188.766998
70
192
0
VERTEX
8
OBJECT__4
10
-13.625000
20
1.065000
30
184.522995
70
192
0
VERTEX
8
OBJECT__4
10
0
20
0
30
0
70
128
71
1
72
2
73
3
0
VERTEX
8
OBJECT__4
10
0
20
0
30
0
70
128
71
1
72
4
73
2
0
VERTEX
8
OBJECT__4
10
0
20
0
30
0
70
128
71
3
72
5
73
6
0
VERTEX
8
OBJECT__4
10
0
20
0
30
0
70
128
71
7
72
8
73
9
0
VERTEX
8
OBJECT__4
10
0
20
0
30
0
70
128
71
9
72
10
73
7
0
VERTEX
8
OBJECT__4
10
0
20
0
30
0
70
128
71
5
72
3
73
11
0
VERTEX
8
OBJECT__4
10
0
20
0
30
0
70
128
71
11
72
8
73
5
0
VERTEX
8
OBJECT__4
10
0
20
0
30
0
70
128
71
12
72
13
73
14
0
VERTEX
8
OBJECT__4
10
0
20
0
30
0
70
128
71
14
72
15
73
12
0
VERTEX
8
OBJECT__4
10
0
20
0
30
0
70
128
71
10
72
9
73
14
0
VERTEX
8
OBJECT__4
10
0
20
0
30
0
70
128
71
14
72
13
73
10
0
VERTEX
8
OBJECT__4
10
0
20
0
30
0
70
128
71
16
72
12
73
17
0
VERTEX
8
OBJECT__4
10
0
20
0
30
0
70
128
71
1
72
16
73
18
0
VERTEX
8
OBJECT__4
10
0
20
0
30
0
70
128
71
18
72
4
73
1
0
VERTEX
8
OBJECT__4
10
0
20
0
30
0
70
128
71
18
72
19
73
4
0
VERTEX
8
OBJECT__4
10
0
20
0
30
0
70
128
71
17
72
18
73
16
0
VERTEX
8
OBJECT__4
10
0
20
0
30
0
70
128
71
15
72
17
73
12
0
VERTEX
8
OBJECT__4
10
0
20
0
30
0
70
128
71
7
72
5
73
8
0
VERTEX
8
OBJECT__4
10
0
20
0
30
0
70
128
71
3
72
6
73
1
0
SEQEND
8
OBJECT__4
0
POLYLINE
8
OBJECT__5
66
1
70
64
71
21
72
26
62
253
0
VERTEX
8
OBJECT__5
10
-28.481001
20
-1.902000
30
228.395996
70
192
0
VERTEX
8
OBJECT__5
10
-28.481001
20
0.000000
30
227.014008
70
192
0
VERTEX
8
OBJECT__5
10
-27.893000
20
0.000000
30
226.822998
70
192
0
VERTEX
8
OBJECT__5
10
-26.215000
20
-1.902000
30
226.750000
70
192
0
VERTEX
8
OBJECT__5
10
-27.080999
20
-1.902000
30
227.940994
70
192
0
VERTEX
8
OBJECT__5
10
-25.766001
20
-1.176000
30
229.750000
70
192
0
VERTEX
8
OBJECT__5
10
-28.481001
20
-1.730000
30
228.925995
70
192
0
VERTEX
8
OBJECT__5
10
-28.481001
20
-1.176000
30
230.632004
70
192
0
VERTEX
8
OBJECT__5
10
-25.711000
20
-1.730000
30
226.914001
70
192
0
VERTEX
8
OBJECT__5
10
-25.766001
20
1.176000
30
229.750000
70
192
0
VERTEX
8
OBJECT__5
10
-28.481001
20
0.000000
30
231.014008
70
192
0
VERTEX
8
OBJECT__5
10
-28.481001
20
1.176000
30
230.632004
70
192
0
VERTEX
8
OBJECT__5
10
-23.725000
20
0.000000
30
227.559006
70
192
0
VERTEX
8
OBJECT__5
10
-24.089001
20
-1.176000
30
227.440994
70
192
0
VERTEX
8
OBJECT__5
10
-28.481001
20
1.730000
30
228.925995
70
192
0
VERTEX
8
OBJECT__5
10
-27.080999
20
1.902000
30
227.940994
70
192
0
VERTEX
8
OBJECT__5
10
-28.481001
20
1.902000
30
228.395996
70
192
0
VERTEX
8
OBJECT__5
10
-25.711000
20
1.730000
30
226.914001
70
192
0
VERTEX
8
OBJECT__5
10
-24.089001
20
1.176000
30
227.440994
70
192
0
VERTEX
8
OBJECT__5
10
-26.215000
20
1.902000
30
226.750000
70
192
0
VERTEX
8
OBJECT__5
10
-27.530001
20
0.000000
30
226.322998
70
192
0
VERTEX
8
OBJECT__5
10
0
20
0
30
0
70
128
71
1
72
2
73
3
0
VERTEX
8
OBJECT__5
10
0
20
0
30
0
70
128
71
4
72
5
73
3
0
VERTEX
8
OBJECT__5
10
0
20
0
30
0
70
128
71
5
72
6
73
7
0
VERTEX
8
OBJECT__5
10
0
20
0
30
0
70
128
71
6
72
8
73
7
0
VERTEX
8
OBJECT__5
10
0
20
0
30
0
70
128
71
9
72
6
73
5
0
VERTEX
8
OBJECT__5
10
0
20
0
30
0
70
128
71
5
72
4
73
9
0
VERTEX
8
OBJECT__5
10
0
20
0
30
0
70
128
71
6
72
10
73
11
0
VERTEX
8
OBJECT__5
10
0
20
0
30
0
70
128
71
10
72
12
73
11
0
VERTEX
8
OBJECT__5
10
0
20
0
30
0
70
128
71
10
72
6
73
13
0
VERTEX
8
OBJECT__5
10
0
20
0
30
0
70
128
71
6
72
14
73
13
0
VERTEX
8
OBJECT__5
10
0
20
0
30
0
70
128
71
15
72
10
73
16
0
VERTEX
8
OBJECT__5
10
0
20
0
30
0
70
128
71
16
72
17
73
15
0
VERTEX
8
OBJECT__5
10
0
20
0
30
0
70
128
71
16
72
10
73
18
0
VERTEX
8
OBJECT__5
10
0
20
0
30
0
70
128
71
10
72
19
73
18
0
VERTEX
8
OBJECT__5
10
0
20
0
30
0
70
128
71
17
72
16
73
3
0
VERTEX
8
OBJECT__5
10
0
20
0
30
0
70
128
71
20
72
21
73
3
0
VERTEX
8
OBJECT__5
10
0
20
0
30
0
70
128
71
3
72
16
73
20
0
VERTEX
8
OBJECT__5
10
0
20
0
30
0
70
128
71
3
72
2
73
17
0
VERTEX
8
OBJECT__5
10
0
20
0
30
0
70
128
71
18
72
20
73
16
0
VERTEX
8
OBJECT__5
10
0
20
0
30
0
70
128
71
15
72
12
73
10
0
VERTEX
8
OBJECT__5
10
0
20
0
30
0
70
128
71
13
72
19
73
10
0
VERTEX
8
OBJECT__5
10
0
20
0
30
0
70
128
71
11
72
8
73
6
0
VERTEX
8
OBJECT__5
10
0
20
0
30
0
70
128
71
9
72
14
73
6
0
VERTEX
8
OBJECT__5
10
0
20
0
30
0
70
128
71
7
72
1
73
5
0
VERTEX
8
OBJECT__5
10
0
20
0
30
0
70
128
71
3
72
21
73
4
0
VERTEX
8
OBJECT__5
10
0
20
0
30
0
70
128
71
3
72
5
73
1
0
SEQEND
8
OBJECT__5
0
POLYLINE
8
OBJECT__7
66
1
70
64
71
12
72
12
62
253
0
VERTEX
8
OBJECT__7
10
-41.948002
20
0.000000
30
227.014008
70
192
0
VERTEX
8
OBJECT__7
10
-41.948002
20
2.000000
30
229.014008
70
192
0
VERTEX
8
OBJECT__7
10
-28.481001
20
1.902000
30
228.395996
70
192
0
VERTEX
8
OBJECT__7
10
-28.481001
20
1.730000
30
228.925995
70
192
0
VERTEX
8
OBJECT__7
10
-41.948002
20
0.000000
30
231.014008
70
192
0
VERTEX
8
OBJECT__7
10
-28.481001
20
1.176000
30
230.632004
70
192
0
VERTEX
8
OBJECT__7
10
-28.481001
20
0.000000
30
231.014008
70
192
0
VERTEX
8
OBJECT__7
10
-41.948002
20
-2.000000
30
229.014008
70
192
0
VERTEX
8
OBJECT__7
10
-28.481001
20
-1.730000
30
228.925995
70
192
0
VERTEX
8
OBJECT__7
10
-28.481001
20
-1.176000
30
230.632004
70
192
0
VERTEX
8
OBJECT__7
10
-28.481001
20
0.000000
30
227.014008
70
192
0
VERTEX
8
OBJECT__7
10
-28.481001
20
-1.902000
30
228.395996
70
192
0
VERTEX
8
OBJECT__7
10
0
20
0
30
0
70
128
71
1
72
2
73
3
0
VERTEX
8
OBJECT__7
10
0
20
0
30
0
70
128
71
2
72
4
73
3
0
VERTEX
8
OBJECT__7
10
0
20
0
30
0
70
128
71
2
72
5
73
6
0
VERTEX
8
OBJECT__7
10
0
20
0
30
0
70
128
71
5
72
7
73
6
0
VERTEX
8
OBJECT__7
10
0
20
0
30
0
70
128
71
8
72
9
73
10
0
VERTEX
8
OBJECT__7
10
0
20
0
30
0
70
128
71
10
72
5
73
8
0
VERTEX
8
OBJECT__7
10
0
20
0
30
0
70
128
71
1
72
11
73
12
0
VERTEX
8
OBJECT__7
10
0
20
0
30
0
70
128
71
12
72
8
73
1
0
VERTEX
8
OBJECT__7
10
0
20
0
30
0
70
128
71
12
72
9
73
8
0
VERTEX
8
OBJECT__7
10
0
20
0
30
0
70
128
71
10
72
7
73
5
0
VERTEX
8
OBJECT__7
10
0
20
0
30
0
70
128
71
6
72
4
73
2
0
VERTEX
8
OBJECT__7
10
0
20
0
30
0
70
128
71
3
72
11
73
1
0
SEQEND
8
OBJECT__7
0
POLYLINE
8
OBJECT__8
66
1
70
64
71
4
72
2
62
253
0
VERTEX
8
OBJECT__8
10
-41.948002
20
2.000000
30
229.014008
70
192
0
VERTEX
8
OBJECT__8
10
-41.948002
20
0.000000
30
227.014008
70
192
0
VERTEX
8
OBJECT__8
10
-41.948002
20
-2.000000
30
229.014008
70
192
0
VERTEX
8
OBJECT__8
10
-41.948002
20
0.000000
30
231.014008
70
192
0
VERTEX
8
OBJECT__8
10
0
20
0
30
0
70
128
71
1
72
2
73
3
0
VERTEX
8
OBJECT__8
10
0
20
0
30
0
70
128
71
3
72
4
73
1
0
SEQEND
8
OBJECT__8
0
POLYLINE
8
OBJECT__9
66
1
70
64
71
12
72
10
62
253
0
VERTEX
8
OBJECT__9
10
17.320999
20
10.000000
30
289.500000
70
192
0
VERTEX
8
OBJECT__9
10
10.000000
20
-17.320999
30
289.500000
70
192
0
VERTEX
8
OBJECT__9
10
17.320999
20
-10.000000
30
289.500000
70
192
0
VERTEX
8
OBJECT__9
10
0.000000
20
20.000000
30
289.500000
70
192
0
VERTEX
8
OBJECT__9
10
-17.320999
20
10.000000
30
289.500000
70
192
0
VERTEX
8
OBJECT__9
10
-20.000000
20
0.000000
30
289.500000
70
192
0
VERTEX
8
OBJECT__9
10
0.000000
20
-20.000000
30
289.500000
70
192
0
VERTEX
8
OBJECT__9
10
-10.000000
20
17.320999
30
289.500000
70
192
0
VERTEX
8
OBJECT__9
10
-10.000000
20
-17.320999
30
289.500000
70
192
0
VERTEX
8
OBJECT__9
10
-17.320999
20
-10.000000
30
289.500000
70
192
0
VERTEX
8
OBJECT__9
10
10.000000
20
17.320999
30
289.500000
70
192
0
VERTEX
8
OBJECT__9
10
20.000000
20
0.000000
30
289.500000
70
192
0
VERTEX
8
OBJECT__9
10
0
20
0
30
0
70
128
71
1
72
2
73
3
0
VERTEX
8
OBJECT__9
10
0
20
0
30
0
70
128
71
4
72
5
73
6
0
VERTEX
8
OBJECT__9
10
0
20
0
30
0
70
128
71
1
72
7
73
2
0
VERTEX
8
OBJECT__9
10
0
20
0
30
0
70
128
71
4
72
8
73
5
0
VERTEX
8
OBJECT__9
10
0
20
0
30
0
70
128
71
1
72
9
73
7
0
VERTEX
8
OBJECT__9
10
0
20
0
30
0
70
128
71
10
72
11
73
4
0
VERTEX
8
OBJECT__9
10
0
20
0
30
0
70
128
71
1
72
10
73
9
0
VERTEX
8
OBJECT__9
10
0
20
0
30
0
70
128
71
10
72
1
73
11
0
VERTEX
8
OBJECT__9
10
0
20
0
30
0
70
128
71
6
72
10
73
4
0
VERTEX
8
OBJECT__9
10
0
20
0
30
0
70
128
71
3
72
12
73
1
0
SEQEND
8
OBJECT__9
0
POLYLINE
8
OBJECT__10
66
1
70
64
71
56
72
58
62
253
0
VERTEX
8
OBJECT__10
10
-10.000000
20
-17.320999
30
289.500000
70
192
0
VERTEX
8
OBJECT__10
10
-10.000000
20
-17.320999
30
185.000000
70
192
0
VERTEX
8
OBJECT__10
10
0.000000
20
-20.000000
30
185.000000
70
192
0
VERTEX
8
OBJECT__10
10
-17.320999
20
-10.000000
30
289.500000
70
192
0
VERTEX
8
OBJECT__10
10
-17.320999
20
-10.000000
30
185.000000
70
192
0
VERTEX
8
OBJECT__10
10
-20.000000
20
0.000000
30
289.500000
70
192
0
VERTEX
8
OBJECT__10
10
-20.000000
20
0.000000
30
185.000000
70
192
0
VERTEX
8
OBJECT__10
10
-17.320999
20
10.000000
30
185.000000
70
192
0
VERTEX
8
OBJECT__10
10
-10.000000
20
17.320999
30
185.000000
70
192
0
VERTEX
8
OBJECT__10
10
-17.320999
20
10.000000
30
289.500000
70
192
0
VERTEX
8
OBJECT__10
10
0.000000
20
20.000000
30
185.000000
70
192
0
VERTEX
8
OBJECT__10
10
-10.000000
20
17.320999
30
289.500000
70
192
0
VERTEX
8
OBJECT__10
10
10.000000
20
17.320999
30
289.500000
70
192
0
VERTEX
8
OBJECT__10
10
10.000000
20
17.320999
30
185.000000
70
192
0
VERTEX
8
OBJECT__10
10
0.000000
20
-20.000000
30
289.500000
70
192
0
VERTEX
8
OBJECT__10
10
10.000000
20
-17.320999
30
185.000000
70
192
0
VERTEX
8
OBJECT__10
10
20.000000
20
0.000000
30
185.000000
70
192
0
VERTEX
8
OBJECT__10
10
19.318001
20
4.961000
30
240.061005
70
192
0
VERTEX
8
OBJECT__10
10
19.968000
20
1.138000
30
240.061005
70
192
0
VERTEX
8
OBJECT__10
10
17.320999
20
10.000000
30
185.000000
70
192
0
VERTEX
8
OBJECT__10
10
19.224001
20
5.517000
30
240.061005
70
192
0
VERTEX
8
OBJECT__10
10
18.374001
20
7.899000
30
240.061005
70
192
0
VERTEX
8
OBJECT__10
10
19.179001
20
5.672000
30
240.067993
70
192
0
VERTEX
8
OBJECT__10
10
18.172001
20
8.352000
30
240.059006
70
192
0
VERTEX
8
OBJECT__10
10
17.240999
20
9.954000
30
240.149002
70
192
0
VERTEX
8
OBJECT__10
10
17.457001
20
9.582000
30
240.128006
70
192
0
VERTEX
8
OBJECT__10
10
17.320999
20
-10.000000
30
185.000000
70
192
0
VERTEX
8
OBJECT__10
10
18.615999
20
-7.309000
30
240.059998
70
192
0
VERTEX
8
OBJECT__10
10
17.452999
20
-9.589000
30
240.100998
70
192
0
VERTEX
8
OBJECT__10
10
19.266001
20
-4.941000
30
240.059998
70
192
0
VERTEX
8
OBJECT__10
10
19.908001
20
0.005000
30
240.061005
70
192
0
VERTEX
8
OBJECT__10
10
19.740000
20
-3.212000
30
240.061005
70
192
0
VERTEX
8
OBJECT__10
10
10.000000
20
-17.320999
30
289.500000
70
192
0
VERTEX
8
OBJECT__10
10
10.929000
20
-16.750000
30
269.561005
70
192
0
VERTEX
8
OBJECT__10
10
14.814000
20
-13.437000
30
269.561005
70
192
0
VERTEX
8
OBJECT__10
10
17.320999
20
-10.000000
30
289.500000
70
192
0
VERTEX
8
OBJECT__10
10
10.935000
20
-16.746000
30
242.095001
70
192
0
VERTEX
8
OBJECT__10
10
14.623000
20
-13.644000
30
240.714996
70
192
0
VERTEX
8
OBJECT__10
10
14.584000
20
-13.679000
30
240.729004
70
192
0
VERTEX
8
OBJECT__10
10
11.880000
20
-16.089001
30
241.710999
70
192
0
VERTEX
8
OBJECT__10
10
16.841000
20
-10.788000
30
240.121994
70
192
0
VERTEX
8
OBJECT__10
10
17.259001
20
-9.969000
30
240.108002
70
192
0
VERTEX
8
OBJECT__10
10
20.000000
20
0.000000
30
289.500000
70
192
0
VERTEX
8
OBJECT__10
10
18.658001
20
-7.202000
30
269.561005
70
192
0
VERTEX
8
OBJECT__10
10
17.040001
20
-9.827000
30
269.561005
70
192
0
VERTEX
8
OBJECT__10
10
20.000000
20
0.000000
30
269.561005
70
192
0
VERTEX
8
OBJECT__10
10
18.658001
20
7.202000
30
269.561005
70
192
0
VERTEX
8
OBJECT__10
10
17.320999
20
10.000000
30
289.500000
70
192
0
VERTEX
8
OBJECT__10
10
16.247999
20
11.662000
30
240.244995
70
192
0
VERTEX
8
OBJECT__10
10
13.908000
20
14.372000
30
240.966995
70
192
0
VERTEX
8
OBJECT__10
10
14.545000
20
13.635000
30
240.770004
70
192
0
VERTEX
8
OBJECT__10
10
10.935000
20
16.746000
30
242.098007
70
192
0
VERTEX
8
OBJECT__10
10
10.929000
20
16.750000
30
269.561005
70
192
0
VERTEX
8
OBJECT__10
10
14.814000
20
13.437000
30
269.561005
70
192
0
VERTEX
8
OBJECT__10
10
17.040001
20
9.827000
30
269.561005
70
192
0
VERTEX
8
OBJECT__10
10
0.000000
20
20.000000
30
289.500000
70
192
0
VERTEX
8
OBJECT__10
10
0
20
0
30
0
70
128
71
1
72
2
73
3
0
VERTEX
8
OBJECT__10
10
0
20
0
30
0
70
128
71
4
72
5
73
2
0
VERTEX
8
OBJECT__10
10
0
20
0
30
0
70
128
71
6
72
7
73
5
0
VERTEX
8
OBJECT__10
10
0
20
0
30
0
70
128
71
8
72
7
73
6
0
VERTEX
8
OBJECT__10
10
0
20
0
30
0
70
128
71
9
72
8
73
10
0
VERTEX
8
OBJECT__10
10
0
20
0
30
0
70
128
71
11
72
9
73
12
0
VERTEX
8
OBJECT__10
10
0
20
0
30
0
70
128
71
13
72
14
73
11
0
VERTEX
8
OBJECT__10
10
0
20
0
30
0
70
128
71
15
72
3
73
16
0
VERTEX
8
OBJECT__10
10
0
20
0
30
0
70
128
71
17
72
18
73
19
0
VERTEX
8
OBJECT__10
10
0
20
0
30
0
70
128
71
20
72
21
73
18
0
VERTEX
8
OBJECT__10
10
0
20
0
30
0
70
128
71
18
72
17
73
20
0
VERTEX
8
OBJECT__10
10
0
20
0
30
0
70
128
71
20
72
22
73
23
0
VERTEX
8
OBJECT__10
10
0
20
0
30
0
70
128
71
20
72
24
73
22
0
VERTEX
8
OBJECT__10
10
0
20
0
30
0
70
128
71
23
72
21
73
20
0
VERTEX
8
OBJECT__10
10
0
20
0
30
0
70
128
71
20
72
25
73
26
0
VERTEX
8
OBJECT__10
10
0
20
0
30
0
70
128
71
26
72
24
73
20
0
VERTEX
8
OBJECT__10
10
0
20
0
30
0
70
128
71
27
72
28
73
29
0
VERTEX
8
OBJECT__10
10
0
20
0
30
0
70
128
71
27
72
17
73
30
0
VERTEX
8
OBJECT__10
10
0
20
0
30
0
70
128
71
17
72
31
73
32
0
VERTEX
8
OBJECT__10
10
0
20
0
30
0
70
128
71
32
72
30
73
17
0
VERTEX
8
OBJECT__10
10
0
20
0
30
0
70
128
71
30
72
28
73
27
0
VERTEX
8
OBJECT__10
10
0
20
0
30
0
70
128
71
33
72
34
73
35
0
VERTEX
8
OBJECT__10
10
0
20
0
30
0
70
128
71
35
72
36
73
33
0
VERTEX
8
OBJECT__10
10
0
20
0
30
0
70
128
71
33
72
16
73
37
0
VERTEX
8
OBJECT__10
10
0
20
0
30
0
70
128
71
16
72
38
73
39
0
VERTEX
8
OBJECT__10
10
0
20
0
30
0
70
128
71
39
72
40
73
16
0
VERTEX
8
OBJECT__10
10
0
20
0
30
0
70
128
71
16
72
41
73
38
0
VERTEX
8
OBJECT__10
10
0
20
0
30
0
70
128
71
27
72
42
73
41
0
VERTEX
8
OBJECT__10
10
0
20
0
30
0
70
128
71
41
72
16
73
27
0
VERTEX
8
OBJECT__10
10
0
20
0
30
0
70
128
71
40
72
37
73
16
0
VERTEX
8
OBJECT__10
10
0
20
0
30
0
70
128
71
37
72
34
73
33
0
VERTEX
8
OBJECT__10
10
0
20
0
30
0
70
128
71
43
72
36
73
44
0
VERTEX
8
OBJECT__10
10
0
20
0
30
0
70
128
71
36
72
45
73
44
0
VERTEX
8
OBJECT__10
10
0
20
0
30
0
70
128
71
43
72
46
73
47
0
VERTEX
8
OBJECT__10
10
0
20
0
30
0
70
128
71
47
72
48
73
43
0
VERTEX
8
OBJECT__10
10
0
20
0
30
0
70
128
71
20
72
14
73
49
0
VERTEX
8
OBJECT__10
10
0
20
0
30
0
70
128
71
14
72
50
73
51
0
VERTEX
8
OBJECT__10
10
0
20
0
30
0
70
128
71
14
72
52
73
50
0
VERTEX
8
OBJECT__10
10
0
20
0
30
0
70
128
71
51
72
49
73
14
0
VERTEX
8
OBJECT__10
10
0
20
0
30
0
70
128
71
13
72
53
73
52
0
VERTEX
8
OBJECT__10
10
0
20
0
30
0
70
128
71
52
72
14
73
13
0
VERTEX
8
OBJECT__10
10
0
20
0
30
0
70
128
71
13
72
48
73
54
0
VERTEX
8
OBJECT__10
10
0
20
0
30
0
70
128
71
48
72
55
73
54
0
VERTEX
8
OBJECT__10
10
0
20
0
30
0
70
128
71
54
72
53
73
13
0
VERTEX
8
OBJECT__10
10
0
20
0
30
0
70
128
71
49
72
25
73
20
0
VERTEX
8
OBJECT__10
10
0
20
0
30
0
70
128
71
47
72
55
73
48
0
VERTEX
8
OBJECT__10
10
0
20
0
30
0
70
128
71
44
72
46
73
43
0
VERTEX
8
OBJECT__10
10
0
20
0
30
0
70
128
71
35
72
45
73
36
0
VERTEX
8
OBJECT__10
10
0
20
0
30
0
70
128
71
29
72
42
73
27
0
VERTEX
8
OBJECT__10
10
0
20
0
30
0
70
128
71
19
72
31
73
17
0
VERTEX
8
OBJECT__10
10
0
20
0
30
0
70
128
71
16
72
33
73
15
0
VERTEX
8
OBJECT__10
10
0
20
0
30
0
70
128
71
11
72
56
73
13
0
VERTEX
8
OBJECT__10
10
0
20
0
30
0
70
128
71
12
72
56
73
11
0
VERTEX
8
OBJECT__10
10
0
20
0
30
0
70
128
71
10
72
12
73
9
0
VERTEX
8
OBJECT__10
10
0
20
0
30
0
70
128
71
6
72
10
73
8
0
VERTEX
8
OBJECT__10
10
0
20
0
30
0
70
128
71
5
72
4
73
6
0
VERTEX
8
OBJECT__10
10
0
20
0
30
0
70
128
71
2
72
1
73
4
0
VERTEX
8
OBJECT__10
10
0
20
0
30
0
70
128
71
3
72
15
73
1
0
SEQEND
8
OBJECT__10
0
POLYLINE
8
OBJECT__12
66
1
70
64
71
24
72
24
62
253
0
VERTEX
8
OBJECT__12
10
-10.000000
20
-17.320999
30
185.000000
70
192
0
VERTEX
8
OBJECT__12
10
-10.000000
20
-17.320999
30
5.000000
70
192
0
VERTEX
8
OBJECT__12
10
0.000000
20
-20.000000
30
5.000000
70
192
0
VERTEX
8
OBJECT__12
10
-17.320999
20
-10.000000
30
185.000000
70
192
0
VERTEX
8
OBJECT__12
10
-17.320999
20
-10.000000
30
5.000000
70
192
0
VERTEX
8
OBJECT__12
10
-20.000000
20
0.000000
30
185.000000
70
192
0
VERTEX
8
OBJECT__12
10
-20.000000
20
0.000000
30
5.000000
70
192
0
VERTEX
8
OBJECT__12
10
-17.320999
20
10.000000
30
5.000000
70
192
0
VERTEX
8
OBJECT__12
10
-10.000000
20
17.320999
30
5.000000
70
192
0
VERTEX
8
OBJECT__12
10
-17.320999
20
10.000000
30
185.000000
70
192
0
VERTEX
8
OBJECT__12
10
0.000000
20
20.000000
30
5.000000
70
192
0
VERTEX
8
OBJECT__12
10
-10.000000
20
17.320999
30
185.000000
70
192
0
VERTEX
8
OBJECT__12
10
10.000000
20
17.320999
30
5.000000
70
192
0
VERTEX
8
OBJECT__12
10
0.000000
20
20.000000
30
185.000000
70
192
0
VERTEX
8
OBJECT__12
10
17.320999
20
10.000000
30
185.000000
70
192
0
VERTEX
8
OBJECT__12
10
17.320999
20
10.000000
30
5.000000
70
192
0
VERTEX
8
OBJECT__12
10
20.000000
20
0.000000
30
185.000000
70
192
0
VERTEX
8
OBJECT__12
10
20.000000
20
0.000000
30
5.000000
70
192
0
VERTEX
8
OBJECT__12
10
17.320999
20
-10.000000
30
185.000000
70
192
0
VERTEX
8
OBJECT__12
10
17.320999
20
-10.000000
30
5.000000
70
192
0
VERTEX
8
OBJECT__12
10
10.000000
20
-17.320999
30
185.000000
70
192
0
VERTEX
8
OBJECT__12
10
10.000000
20
-17.320999
30
5.000000
70
192
0
VERTEX
8
OBJECT__12
10
0.000000
20
-20.000000
30
185.000000
70
192
0
VERTEX
8
OBJECT__12
10
10.000000
20
17.320999
30
185.000000
70
192
0
VERTEX
8
OBJECT__12
10
0
20
0
30
0
70
128
71
1
72
2
73
3
0
VERTEX
8
OBJECT__12
10
0
20
0
30
0
70
128
71
4
72
5
73
2
0
VERTEX
8
OBJECT__12
10
0
20
0
30
0
70
128
71
6
72
7
73
5
0
VERTEX
8
OBJECT__12
10
0
20
0
30
0
70
128
71
8
72
7
73
6
0
VERTEX
8
OBJECT__12
10
0
20
0
30
0
70
128
71
9
72
8
73
10
0
VERTEX
8
OBJECT__12
10
0
20
0
30
0
70
128
71
11
72
9
73
12
0
VERTEX
8
OBJECT__12
10
0
20
0
30
0
70
128
71
13
72
11
73
14
0
VERTEX
8
OBJECT__12
10
0
20
0
30
0
70
128
71
15
72
16
73
13
0
VERTEX
8
OBJECT__12
10
0
20
0
30
0
70
128
71
17
72
18
73
16
0
VERTEX
8
OBJECT__12
10
0
20
0
30
0
70
128
71
19
72
20
73
18
0
VERTEX
8
OBJECT__12
10
0
20
0
30
0
70
128
71
21
72
22
73
20
0
VERTEX
8
OBJECT__12
10
0
20
0
30
0
70
128
71
23
72
3
73
22
0
VERTEX
8
OBJECT__12
10
0
20
0
30
0
70
128
71
22
72
21
73
23
0
VERTEX
8
OBJECT__12
10
0
20
0
30
0
70
128
71
20
72
19
73
21
0
VERTEX
8
OBJECT__12
10
0
20
0
30
0
70
128
71
18
72
17
73
19
0
VERTEX
8
OBJECT__12
10
0
20
0
30
0
70
128
71
16
72
15
73
17
0
VERTEX
8
OBJECT__12
10
0
20
0
30
0
70
128
71
13
72
24
73
15
0
VERTEX
8
OBJECT__12
10
0
20
0
30
0
70
128
71
14
72
24
73
13
0
VERTEX
8
OBJECT__12
10
0
20
0
30
0
70
128
71
12
72
14
73
11
0
VERTEX
8
OBJECT__12
10
0
20
0
30
0
70
128
71
10
72
12
73
9
0
VERTEX
8
OBJECT__12
10
0
20
0
30
0
70
128
71
6
72
10
73
8
0
VERTEX
8
OBJECT__12
10
0
20
0
30
0
70
128
71
5
72
4
73
6
0
VERTEX
8
OBJECT__12
10
0
20
0
30
0
70
128
71
2
72
1
73
4
0
VERTEX
8
OBJECT__12
10
0
20
0
30
0
70
128
71
3
72
23
73
1
0
SEQEND
8
OBJECT__12
0
POLYLINE
8
OBJECT__13
66
1
70
64
71
27
72
30
62
253
0
VERTEX
8
OBJECT__13
10
19.068001
20
-7.360000
30
268.500000
70
192
0
VERTEX
8
OBJECT__13
10
15.139000
20
-13.732000
30
268.500000
70
192
0
VERTEX
8
OBJECT__13
10
16.841000
20
-13.366000
30
268.061005
70
192
0
VERTEX
8
OBJECT__13
10
15.530000
20
-14.053000
30
268.283997
70
192
0
VERTEX
8
OBJECT__13
10
20.058001
20
-7.742000
30
268.061005
70
192
0
VERTEX
8
OBJECT__13
10
21.500000
20
0.000000
30
268.061005
70
192
0
VERTEX
8
OBJECT__13
10
20.438999
20
0.000000
30
268.500000
70
192
0
VERTEX
8
OBJECT__13
10
20.058001
20
7.742000
30
268.061005
70
192
0
VERTEX
8
OBJECT__13
10
19.068001
20
7.360000
30
268.500000
70
192
0
VERTEX
8
OBJECT__13
10
16.841000
20
13.366000
30
268.061005
70
192
0
VERTEX
8
OBJECT__13
10
15.139000
20
13.732000
30
268.500000
70
192
0
VERTEX
8
OBJECT__13
10
15.489000
20
14.041000
30
268.217987
70
192
0
VERTEX
8
OBJECT__13
10
15.070000
20
14.250000
30
268.266998
70
192
0
VERTEX
8
OBJECT__13
10
14.814000
20
13.437000
30
269.561005
70
192
0
VERTEX
8
OBJECT__13
10
14.043000
20
14.870000
30
268.588013
70
192
0
VERTEX
8
OBJECT__13
10
13.891000
20
14.962000
30
268.635986
70
192
0
VERTEX
8
OBJECT__13
10
17.040001
20
9.827000
30
269.561005
70
192
0
VERTEX
8
OBJECT__13
10
18.658001
20
7.202000
30
269.561005
70
192
0
VERTEX
8
OBJECT__13
10
20.000000
20
0.000000
30
269.561005
70
192
0
VERTEX
8
OBJECT__13
10
18.658001
20
-7.202000
30
269.561005
70
192
0
VERTEX
8
OBJECT__13
10
17.040001
20
-9.827000
30
269.561005
70
192
0
VERTEX
8
OBJECT__13
10
14.814000
20
-13.437000
30
269.561005
70
192
0
VERTEX
8
OBJECT__13
10
13.885000
20
-14.916000
30
268.563995
70
192
0
VERTEX
8
OBJECT__13
10
14.086000
20
-14.811000
30
268.529999
70
192
0
VERTEX
8
OBJECT__13
10
13.855000
20
-14.935000
30
268.574005
70
192
0
VERTEX
8
OBJECT__13
10
10.929000
20
-16.750000
30
269.561005
70
192
0
VERTEX
8
OBJECT__13
10
10.929000
20
16.750000
30
269.561005
70
192
0
VERTEX
8
OBJECT__13
10
0
20
0
30
0
70
128
71
1
72
2
73
3
0
VERTEX
8
OBJECT__13
10
0
20
0
30
0
70
128
71
2
72
4
73
3
0
VERTEX
8
OBJECT__13
10
0
20
0
30
0
70
128
71
5
72
6
73
7
0
VERTEX
8
OBJECT__13
10
0
20
0
30
0
70
128
71
6
72
8
73
9
0
VERTEX
8
OBJECT__13
10
0
20
0
30
0
70
128
71
9
72
8
73
10
0
VERTEX
8
OBJECT__13
10
0
20
0
30
0
70
128
71
10
72
11
73
9
0
VERTEX
8
OBJECT__13
10
0
20
0
30
0
70
128
71
11
72
12
73
13
0
VERTEX
8
OBJECT__13
10
0
20
0
30
0
70
128
71
14
72
11
73
15
0
VERTEX
8
OBJECT__13
10
0
20
0
30
0
70
128
71
15
72
16
73
14
0
VERTEX
8
OBJECT__13
10
0
20
0
30
0
70
128
71
11
72
14
73
17
0
VERTEX
8
OBJECT__13
10
0
20
0
30
0
70
128
71
17
72
9
73
11
0
VERTEX
8
OBJECT__13
10
0
20
0
30
0
70
128
71
9
72
18
73
19
0
VERTEX
8
OBJECT__13
10
0
20
0
30
0
70
128
71
7
72
19
73
20
0
VERTEX
8
OBJECT__13
10
0
20
0
30
0
70
128
71
2
72
1
73
21
0
VERTEX
8
OBJECT__13
10
0
20
0
30
0
70
128
71
1
72
20
73
21
0
VERTEX
8
OBJECT__13
10
0
20
0
30
0
70
128
71
22
72
23
73
24
0
VERTEX
8
OBJECT__13
10
0
20
0
30
0
70
128
71
22
72
25
73
23
0
VERTEX
8
OBJECT__13
10
0
20
0
30
0
70
128
71
22
72
26
73
25
0
VERTEX
8
OBJECT__13
10
0
20
0
30
0
70
128
71
24
72
2
73
22
0
VERTEX
8
OBJECT__13
10
0
20
0
30
0
70
128
71
21
72
22
73
2
0
VERTEX
8
OBJECT__13
10
0
20
0
30
0
70
128
71
20
72
1
73
7
0
VERTEX
8
OBJECT__13
10
0
20
0
30
0
70
128
71
19
72
7
73
9
0
VERTEX
8
OBJECT__13
10
0
20
0
30
0
70
128
71
17
72
18
73
9
0
VERTEX
8
OBJECT__13
10
0
20
0
30
0
70
128
71
16
72
27
73
14
0
VERTEX
8
OBJECT__13
10
0
20
0
30
0
70
128
71
13
72
15
73
11
0
VERTEX
8
OBJECT__13
10
0
20
0
30
0
70
128
71
10
72
12
73
11
0
VERTEX
8
OBJECT__13
10
0
20
0
30
0
70
128
71
9
72
7
73
6
0
VERTEX
8
OBJECT__13
10
0
20
0
30
0
70
128
71
7
72
1
73
5
0
VERTEX
8
OBJECT__13
10
0
20
0
30
0
70
128
71
3
72
5
73
1
0
VERTEX
8
OBJECT__13
10
0
20
0
30
0
70
128
71
4
72
2
73
24
0
SEQEND
8
OBJECT__13
0
POLYLINE
8
OBJECT__14
66
1
70
64
71
13
72
12
62
253
0
VERTEX
8
OBJECT__14
10
13.842000
20
-15.115000
30
268.346008
70
192
0
VERTEX
8
OBJECT__14
10
16.969000
20
-13.880000
30
267.841003
70
192
0
VERTEX
8
OBJECT__14
10
15.530000
20
-14.053000
30
268.283997
70
192
0
VERTEX
8
OBJECT__14
10
14.086000
20
-14.811000
30
268.529999
70
192
0
VERTEX
8
OBJECT__14
10
16.841000
20
-13.366000
30
268.061005
70
192
0
VERTEX
8
OBJECT__14
10
13.885000
20
-14.916000
30
268.563995
70
192
0
VERTEX
8
OBJECT__14
10
16.165001
20
-14.353000
30
267.433014
70
192
0
VERTEX
8
OBJECT__14
10
16.598000
20
-14.204000
30
267.326996
70
192
0
VERTEX
8
OBJECT__14
10
14.154000
20
-15.043000
30
267.924988
70
192
0
VERTEX
8
OBJECT__14
10
13.800000
20
-15.231000
30
268.105011
70
192
0
VERTEX
8
OBJECT__14
10
10.929000
20
-16.750000
30
269.561005
70
192
0
VERTEX
8
OBJECT__14
10
17.021999
20
-14.093000
30
267.311005
70
192
0
VERTEX
8
OBJECT__14
10
13.855000
20
-14.935000
30
268.574005
70
192
0
VERTEX
8
OBJECT__14
10
0
20
0
30
0
70
128
71
1
72
2
73
3
0
VERTEX
8
OBJECT__14
10
0
20
0
30
0
70
128
71
3
72
4
73
1
0
VERTEX
8
OBJECT__14
10
0
20
0
30
0
70
128
71
2
72
5
73
3
0
VERTEX
8
OBJECT__14
10
0
20
0
30
0
70
128
71
4
72
6
73
1
0
VERTEX
8
OBJECT__14
10
0
20
0
30
0
70
128
71
2
72
7
73
8
0
VERTEX
8
OBJECT__14
10
0
20
0
30
0
70
128
71
1
72
9
73
7
0
VERTEX
8
OBJECT__14
10
0
20
0
30
0
70
128
71
1
72
10
73
9
0
VERTEX
8
OBJECT__14
10
0
20
0
30
0
70
128
71
7
72
2
73
1
0
VERTEX
8
OBJECT__14
10
0
20
0
30
0
70
128
71
11
72
10
73
1
0
VERTEX
8
OBJECT__14
10
0
20
0
30
0
70
128
71
8
72
12
73
2
0
VERTEX
8
OBJECT__14
10
0
20
0
30
0
70
128
71
11
72
1
73
13
0
VERTEX
8
OBJECT__14
10
0
20
0
30
0
70
128
71
6
72
13
73
1
0
SEQEND
8
OBJECT__14
0
POLYLINE
8
OBJECT__15
66
1
70
64
71
6
72
4
62
253
0
VERTEX
8
OBJECT__15
10
16.969000
20
-13.880000
30
267.841003
70
192
0
VERTEX
8
OBJECT__15
10
17.021999
20
-14.093000
30
267.311005
70
192
0
VERTEX
8
OBJECT__15
10
21.857000
20
-13.500000
30
267.311005
70
192
0
VERTEX
8
OBJECT__15
10
21.857000
20
-12.750000
30
268.061005
70
192
0
VERTEX
8
OBJECT__15
10
16.841000
20
-13.366000
30
268.061005
70
192
0
VERTEX
8
OBJECT__15
10
21.857000
20
-13.280000
30
267.841003
70
192
0
VERTEX
8
OBJECT__15
10
0
20
0
30
0
70
128
71
1
72
2
73
3
0
VERTEX
8
OBJECT__15
10
0
20
0
30
0
70
128
71
4
72
5
73
1
0
VERTEX
8
OBJECT__15
10
0
20
0
30
0
70
128
71
1
72
6
73
4
0
VERTEX
8
OBJECT__15
10
0
20
0
30
0
70
128
71
3
72
6
73
1
0
SEQEND
8
OBJECT__15
0
POLYLINE
8
OBJECT__16
66
1
70
64
71
13
72
12
62
253
0
VERTEX
8
OBJECT__16
10
16.969000
20
13.880000
30
267.841003
70
192
0
VERTEX
8
OBJECT__16
10
15.070000
20
14.250000
30
268.266998
70
192
0
VERTEX
8
OBJECT__16
10
15.489000
20
14.041000
30
268.217987
70
192
0
VERTEX
8
OBJECT__16
10
13.842000
20
15.115000
30
268.346008
70
192
0
VERTEX
8
OBJECT__16
10
14.043000
20
14.870000
30
268.588013
70
192
0
VERTEX
8
OBJECT__16
10
13.891000
20
14.962000
30
268.635986
70
192
0
VERTEX
8
OBJECT__16
10
13.826000
20
15.253000
30
268.143005
70
192
0
VERTEX
8
OBJECT__16
10
11.718000
20
16.261000
30
269.105988
70
192
0
VERTEX
8
OBJECT__16
10
14.809000
20
14.783000
30
267.694000
70
192
0
VERTEX
8
OBJECT__16
10
16.166000
20
14.360000
30
267.459015
70
192
0
VERTEX
8
OBJECT__16
10
17.021999
20
14.093000
30
267.311005
70
192
0
VERTEX
8
OBJECT__16
10
10.929000
20
16.750000
30
269.561005
70
192
0
VERTEX
8
OBJECT__16
10
16.841000
20
13.366000
30
268.061005
70
192
0
VERTEX
8
OBJECT__16
10
0
20
0
30
0
70
128
71
1
72
2
73
3
0
VERTEX
8
OBJECT__16
10
0
20
0
30
0
70
128
71
4
72
5
73
2
0
VERTEX
8
OBJECT__16
10
0
20
0
30
0
70
128
71
4
72
6
73
5
0
VERTEX
8
OBJECT__16
10
0
20
0
30
0
70
128
71
2
72
1
73
4
0
VERTEX
8
OBJECT__16
10
0
20
0
30
0
70
128
71
4
72
7
73
8
0
VERTEX
8
OBJECT__16
10
0
20
0
30
0
70
128
71
4
72
1
73
9
0
VERTEX
8
OBJECT__16
10
0
20
0
30
0
70
128
71
1
72
10
73
9
0
VERTEX
8
OBJECT__16
10
0
20
0
30
0
70
128
71
1
72
11
73
10
0
VERTEX
8
OBJECT__16
10
0
20
0
30
0
70
128
71
9
72
7
73
4
0
VERTEX
8
OBJECT__16
10
0
20
0
30
0
70
128
71
8
72
12
73
4
0
VERTEX
8
OBJECT__16
10
0
20
0
30
0
70
128
71
3
72
13
73
1
0
VERTEX
8
OBJECT__16
10
0
20
0
30
0
70
128
71
6
72
4
73
12
0
SEQEND
8
OBJECT__16
0
POLYLINE
8
OBJECT__17
66
1
70
64
71
6
72
4
62
253
0
VERTEX
8
OBJECT__17
10
21.857000
20
12.750000
30
268.061005
70
192
0
VERTEX
8
OBJECT__17
10
21.857000
20
13.280000
30
267.841003
70
192
0
VERTEX
8
OBJECT__17
10
16.969000
20
13.880000
30
267.841003
70
192
0
VERTEX
8
OBJECT__17
10
21.857000
20
13.500000
30
267.311005
70
192
0
VERTEX
8
OBJECT__17
10
17.021999
20
14.093000
30
267.311005
70
192
0
VERTEX
8
OBJECT__17
10
16.841000
20
13.366000
30
268.061005
70
192
0
VERTEX
8
OBJECT__17
10
0
20
0
30
0
70
128
71
1
72
2
73
3
0
VERTEX
8
OBJECT__17
10
0
20
0
30
0
70
128
71
3
72
2
73
4
0
VERTEX
8
OBJECT__17
10
0
20
0
30
0
70
128
71
4
72
5
73
3
0
VERTEX
8
OBJECT__17
10
0
20
0
30
0
70
128
71
3
72
6
73
1
0
SEQEND
8
OBJECT__17
0
POLYLINE
8
OBJECT__18
66
1
70
64
71
17
72
15
62
253
0
VERTEX
8
OBJECT__18
10
14.809000
20
14.783000
30
267.694000
70
192
0
VERTEX
8
OBJECT__18
10
12.132000
20
16.052000
30
242.865005
70
192
0
VERTEX
8
OBJECT__18
10
11.848000
20
16.216999
30
242.682999
70
192
0
VERTEX
8
OBJECT__18
10
13.414000
20
15.440000
30
243.707001
70
192
0
VERTEX
8
OBJECT__18
10
12.758000
20
15.690000
30
243.266006
70
192
0
VERTEX
8
OBJECT__18
10
16.166000
20
14.360000
30
267.459015
70
192
0
VERTEX
8
OBJECT__18
10
16.177000
20
14.385000
30
245.565994
70
192
0
VERTEX
8
OBJECT__18
10
16.044001
20
14.436000
30
245.475998
70
192
0
VERTEX
8
OBJECT__18
10
10.935000
20
16.746000
30
242.098007
70
192
0
VERTEX
8
OBJECT__18
10
11.718000
20
16.261000
30
269.105988
70
192
0
VERTEX
8
OBJECT__18
10
13.826000
20
15.253000
30
268.143005
70
192
0
VERTEX
8
OBJECT__18
10
10.929000
20
16.750000
30
269.561005
70
192
0
VERTEX
8
OBJECT__18
10
17.021999
20
14.093000
30
267.311005
70
192
0
VERTEX
8
OBJECT__18
10
20.025999
20
13.584000
30
247.725006
70
192
0
VERTEX
8
OBJECT__18
10
16.777000
20
14.156000
30
245.970001
70
192
0
VERTEX
8
OBJECT__18
10
21.857000
20
13.500000
30
267.311005
70
192
0
VERTEX
8
OBJECT__18
10
21.857000
20
13.500000
30
248.389008
70
192
0
VERTEX
8
OBJECT__18
10
0
20
0
30
0
70
128
71
1
72
2
73
3
0
VERTEX
8
OBJECT__18
10
0
20
0
30
0
70
128
71
1
72
4
73
5
0
VERTEX
8
OBJECT__18
10
0
20
0
30
0
70
128
71
1
72
6
73
7
0
VERTEX
8
OBJECT__18
10
0
20
0
30
0
70
128
71
7
72
8
73
1
0
VERTEX
8
OBJECT__18
10
0
20
0
30
0
70
128
71
8
72
4
73
1
0
VERTEX
8
OBJECT__18
10
0
20
0
30
0
70
128
71
5
72
2
73
1
0
VERTEX
8
OBJECT__18
10
0
20
0
30
0
70
128
71
9
72
10
73
11
0
VERTEX
8
OBJECT__18
10
0
20
0
30
0
70
128
71
9
72
12
73
10
0
VERTEX
8
OBJECT__18
10
0
20
0
30
0
70
128
71
11
72
1
73
9
0
VERTEX
8
OBJECT__18
10
0
20
0
30
0
70
128
71
13
72
14
73
15
0
VERTEX
8
OBJECT__18
10
0
20
0
30
0
70
128
71
13
72
16
73
17
0
VERTEX
8
OBJECT__18
10
0
20
0
30
0
70
128
71
17
72
14
73
13
0
VERTEX
8
OBJECT__18
10
0
20
0
30
0
70
128
71
7
72
6
73
13
0
VERTEX
8
OBJECT__18
10
0
20
0
30
0
70
128
71
15
72
7
73
13
0
VERTEX
8
OBJECT__18
10
0
20
0
30
0
70
128
71
3
72
9
73
1
0
SEQEND
8
OBJECT__18
0
POLYLINE
8
OBJECT__19
66
1
70
64
71
6
72
4
62
253
0
VERTEX
8
OBJECT__19
10
108.000000
20
12.750000
30
268.061005
70
192
0
VERTEX
8
OBJECT__19
10
108.000000
20
13.280000
30
267.841003
70
192
0
VERTEX
8
OBJECT__19
10
21.857000
20
13.280000
30
267.841003
70
192
0
VERTEX
8
OBJECT__19
10
108.000000
20
13.500000
30
267.311005
70
192
0
VERTEX
8
OBJECT__19
10
21.857000
20
13.500000
30
267.311005
70
192
0
VERTEX
8
OBJECT__19
10
21.857000
20
12.750000
30
268.061005
70
192
0
VERTEX
8
OBJECT__19
10
0
20
0
30
0
70
128
71
1
72
2
73
3
0
VERTEX
8
OBJECT__19
10
0
20
0
30
0
70
128
71
4
72
5
73
3
0
VERTEX
8
OBJECT__19
10
0
20
0
30
0
70
128
71
3
72
2
73
4
0
VERTEX
8
OBJECT__19
10
0
20
0
30
0
70
128
71
3
72
6
73
1
0
SEQEND
8
OBJECT__19
0
POLYLINE
8
OBJECT__20
66
1
70
64
71
26
72
27
62
253
0
VERTEX
8
OBJECT__20
10
21.968000
20
13.264000
30
247.988007
70
192
0
VERTEX
8
OBJECT__20
10
16.139000
20
14.277000
30
245.240997
70
192
0
VERTEX
8
OBJECT__20
10
16.777000
20
14.156000
30
245.970001
70
192
0
VERTEX
8
OBJECT__20
10
16.177000
20
14.385000
30
245.565994
70
192
0
VERTEX
8
OBJECT__20
10
16.044001
20
14.436000
30
245.475998
70
192
0
VERTEX
8
OBJECT__20
10
21.926001
20
13.453000
30
248.139008
70
192
0
VERTEX
8
OBJECT__20
10
20.025999
20
13.584000
30
247.725006
70
192
0
VERTEX
8
OBJECT__20
10
21.857000
20
13.500000
30
248.389008
70
192
0
VERTEX
8
OBJECT__20
10
13.456000
20
15.334000
30
243.576004
70
192
0
VERTEX
8
OBJECT__20
10
13.414000
20
15.440000
30
243.707001
70
192
0
VERTEX
8
OBJECT__20
10
18.893000
20
13.304000
30
246.468994
70
192
0
VERTEX
8
OBJECT__20
10
17.549000
20
13.751000
30
245.727005
70
192
0
VERTEX
8
OBJECT__20
10
21.478001
20
12.950000
30
247.455002
70
192
0
VERTEX
8
OBJECT__20
10
22.054001
20
12.871000
30
247.675003
70
192
0
VERTEX
8
OBJECT__20
10
14.719000
20
14.691000
30
244.164993
70
192
0
VERTEX
8
OBJECT__20
10
13.850000
20
15.150000
30
243.677002
70
192
0
VERTEX
8
OBJECT__20
10
15.422000
20
14.457000
30
244.552994
70
192
0
VERTEX
8
OBJECT__20
10
16.254000
20
14.181000
30
245.011993
70
192
0
VERTEX
8
OBJECT__20
10
13.517000
20
15.326000
30
243.490005
70
192
0
VERTEX
8
OBJECT__20
10
12.194000
20
16.025999
30
242.746002
70
192
0
VERTEX
8
OBJECT__20
10
11.432000
20
16.429001
30
242.317993
70
192
0
VERTEX
8
OBJECT__20
10
11.848000
20
16.216999
30
242.682999
70
192
0
VERTEX
8
OBJECT__20
10
12.160000
20
16.004000
30
242.779007
70
192
0
VERTEX
8
OBJECT__20
10
12.132000
20
16.052000
30
242.865005
70
192
0
VERTEX
8
OBJECT__20
10
12.758000
20
15.690000
30
243.266006
70
192
0
VERTEX
8
OBJECT__20
10
10.935000
20
16.746000
30
242.098007
70
192
0
VERTEX
8
OBJECT__20
10
0
20
0
30
0
70
128
71
1
72
2
73
3
0
VERTEX
8
OBJECT__20
10
0
20
0
30
0
70
128
71
2
72
4
73
3
0
VERTEX
8
OBJECT__20
10
0
20
0
30
0
70
128
71
2
72
5
73
4
0
VERTEX
8
OBJECT__20
10
0
20
0
30
0
70
128
71
6
72
3
73
7
0
VERTEX
8
OBJECT__20
10
0
20
0
30
0
70
128
71
7
72
8
73
6
0
VERTEX
8
OBJECT__20
10
0
20
0
30
0
70
128
71
2
72
9
73
10
0
VERTEX
8
OBJECT__20
10
0
20
0
30
0
70
128
71
1
72
11
73
12
0
VERTEX
8
OBJECT__20
10
0
20
0
30
0
70
128
71
1
72
13
73
11
0
VERTEX
8
OBJECT__20
10
0
20
0
30
0
70
128
71
1
72
14
73
13
0
VERTEX
8
OBJECT__20
10
0
20
0
30
0
70
128
71
12
72
2
73
1
0
VERTEX
8
OBJECT__20
10
0
20
0
30
0
70
128
71
2
72
15
73
16
0
VERTEX
8
OBJECT__20
10
0
20
0
30
0
70
128
71
2
72
17
73
15
0
VERTEX
8
OBJECT__20
10
0
20
0
30
0
70
128
71
16
72
9
73
2
0
VERTEX
8
OBJECT__20
10
0
20
0
30
0
70
128
71
2
72
18
73
17
0
VERTEX
8
OBJECT__20
10
0
20
0
30
0
70
128
71
9
72
19
73
20
0
VERTEX
8
OBJECT__20
10
0
20
0
30
0
70
128
71
20
72
21
73
22
0
VERTEX
8
OBJECT__20
10
0
20
0
30
0
70
128
71
22
72
23
73
20
0
VERTEX
8
OBJECT__20
10
0
20
0
30
0
70
128
71
23
72
24
73
25
0
VERTEX
8
OBJECT__20
10
0
20
0
30
0
70
128
71
25
72
9
73
23
0
VERTEX
8
OBJECT__20
10
0
20
0
30
0
70
128
71
25
72
10
73
9
0
VERTEX
8
OBJECT__20
10
0
20
0
30
0
70
128
71
24
72
23
73
22
0
VERTEX
8
OBJECT__20
10
0
20
0
30
0
70
128
71
21
72
26
73
22
0
VERTEX
8
OBJECT__20
10
0
20
0
30
0
70
128
71
20
72
23
73
9
0
VERTEX
8
OBJECT__20
10
0
20
0
30
0
70
128
71
16
72
19
73
9
0
VERTEX
8
OBJECT__20
10
0
20
0
30
0
70
128
71
12
72
18
73
2
0
VERTEX
8
OBJECT__20
10
0
20
0
30
0
70
128
71
10
72
5
73
2
0
VERTEX
8
OBJECT__20
10
0
20
0
30
0
70
128
71
3
72
6
73
1
0
SEQEND
8
OBJECT__20
0
POLYLINE
8
OBJECT__21
66
1
70
64
71
10
72
8
62
253
0
VERTEX
8
OBJECT__21
10
23.337000
20
12.814000
30
247.932007
70
192
0
VERTEX
8
OBJECT__21
10
22.054001
20
12.871000
30
247.675003
70
192
0
VERTEX
8
OBJECT__21
10
21.968000
20
13.264000
30
247.988007
70
192
0
VERTEX
8
OBJECT__21
10
23.382999
20
13.500000
30
248.703003
70
192
0
VERTEX
8
OBJECT__21
10
23.485001
20
12.807000
30
247.962006
70
192
0
VERTEX
8
OBJECT__21
10
21.926001
20
13.453000
30
248.139008
70
192
0
VERTEX
8
OBJECT__21
10
24.936001
20
13.280000
30
248.279999
70
192
0
VERTEX
8
OBJECT__21
10
24.936001
20
13.500000
30
248.811005
70
192
0
VERTEX
8
OBJECT__21
10
24.936001
20
12.750000
30
248.061005
70
192
0
VERTEX
8
OBJECT__21
10
21.857000
20
13.500000
30
248.389008
70
192
0
VERTEX
8
OBJECT__21
10
0
20
0
30
0
70
128
71
1
72
2
73
3
0
VERTEX
8
OBJECT__21
10
0
20
0
30
0
70
128
71
3
72
4
73
1
0
VERTEX
8
OBJECT__21
10
0
20
0
30
0
70
128
71
4
72
5
73
1
0
VERTEX
8
OBJECT__21
10
0
20
0
30
0
70
128
71
3
72
6
73
4
0
VERTEX
8
OBJECT__21
10
0
20
0
30
0
70
128
71
5
72
4
73
7
0
VERTEX
8
OBJECT__21
10
0
20
0
30
0
70
128
71
4
72
8
73
7
0
VERTEX
8
OBJECT__21
10
0
20
0
30
0
70
128
71
7
72
9
73
5
0
VERTEX
8
OBJECT__21
10
0
20
0
30
0
70
128
71
6
72
10
73
4
0
SEQEND
8
OBJECT__21
0
POLYLINE
8
OBJECT__22
66
1
70
64
71
6
72
4
62
253
0
VERTEX
8
OBJECT__22
10
108.000000
20
13.500000
30
267.311005
70
192
0
VERTEX
8
OBJECT__22
10
108.000000
20
13.500000
30
248.811005
70
192
0
VERTEX
8
OBJECT__22
10
24.936001
20
13.500000
30
248.811005
70
192
0
VERTEX
8
OBJECT__22
10
21.857000
20
13.500000
30
267.311005
70
192
0
VERTEX
8
OBJECT__22
10
23.382999
20
13.500000
30
248.703003
70
192
0
VERTEX
8
OBJECT__22
10
21.857000
20
13.500000
30
248.389008
70
192
0
VERTEX
8
OBJECT__22
10
0
20
0
30
0
70
128
71
1
72
2
73
3
0
VERTEX
8
OBJECT__22
10
0
20
0
30
0
70
128
71
3
72
4
73
1
0
VERTEX
8
OBJECT__22
10
0
20
0
30
0
70
128
71
3
72
5
73
4
0
VERTEX
8
OBJECT__22
10
0
20
0
30
0
70
128
71
5
72
6
73
4
0
SEQEND
8
OBJECT__22
0
POLYLINE
8
OBJECT__23
66
1
70
64
71
13
72
13
62
253
0
VERTEX
8
OBJECT__23
10
116.000000
20
5.500000
30
267.311005
70
192
0
VERTEX
8
OBJECT__23
10
114.928001
20
9.500000
30
267.311005
70
192
0
VERTEX
8
OBJECT__23
10
114.737999
20
9.390000
30
267.841003
70
192
0
VERTEX
8
OBJECT__23
10
113.463997
20
10.964000
30
267.311005
70
192
0
VERTEX
8
OBJECT__23
10
111.889999
20
12.238000
30
267.841003
70
192
0
VERTEX
8
OBJECT__23
10
108.000000
20
13.500000
30
267.311005
70
192
0
VERTEX
8
OBJECT__23
10
108.000000
20
13.280000
30
267.841003
70
192
0
VERTEX
8
OBJECT__23
10
115.779999
20
5.500000
30
267.841003
70
192
0
VERTEX
8
OBJECT__23
10
114.278999
20
9.125000
30
268.061005
70
192
0
VERTEX
8
OBJECT__23
10
111.625000
20
11.779000
30
268.061005
70
192
0
VERTEX
8
OBJECT__23
10
108.000000
20
12.750000
30
268.061005
70
192
0
VERTEX
8
OBJECT__23
10
115.250000
20
5.500000
30
268.061005
70
192
0
VERTEX
8
OBJECT__23
10
112.000000
20
12.428000
30
267.311005
70
192
0
VERTEX
8
OBJECT__23
10
0
20
0
30
0
70
128
71
1
72
2
73
3
0
VERTEX
8
OBJECT__23
10
0
20
0
30
0
70
128
71
3
72
2
73
4
0
VERTEX
8
OBJECT__23
10
0
20
0
30
0
70
128
71
4
72
5
73
3
0
VERTEX
8
OBJECT__23
10
0
20
0
30
0
70
128
71
6
72
7
73
5
0
VERTEX
8
OBJECT__23
10
0
20
0
30
0
70
128
71
8
72
3
73
9
0
VERTEX
8
OBJECT__23
10
0
20
0
30
0
70
128
71
3
72
5
73
10
0
VERTEX
8
OBJECT__23
10
0
20
0
30
0
70
128
71
7
72
11
73
10
0
VERTEX
8
OBJECT__23
10
0
20
0
30
0
70
128
71
10
72
5
73
7
0
VERTEX
8
OBJECT__23
10
0
20
0
30
0
70
128
71
10
72
9
73
3
0
VERTEX
8
OBJECT__23
10
0
20
0
30
0
70
128
71
9
72
12
73
8
0
VERTEX
8
OBJECT__23
10
0
20
0
30
0
70
128
71
5
72
13
73
6
0
VERTEX
8
OBJECT__23
10
0
20
0
30
0
70
128
71
4
72
13
73
5
0
VERTEX
8
OBJECT__23
10
0
20
0
30
0
70
128
71
3
72
8
73
1
0
SEQEND
8
OBJECT__23
0
POLYLINE
8
OBJECT__24
66
1
70
64
71
15
72
13
62
253
0
VERTEX
8
OBJECT__24
10
115.250000
20
-5.500000
30
268.061005
70
192
0
VERTEX
8
OBJECT__24
10
108.000000
20
-12.750000
30
268.061005
70
192
0
VERTEX
8
OBJECT__24
10
111.625000
20
-11.779000
30
268.061005
70
192
0
VERTEX
8
OBJECT__24
10
21.500000
20
0.000000
30
268.061005
70
192
0
VERTEX
8
OBJECT__24
10
20.058001
20
-7.742000
30
268.061005
70
192
0
VERTEX
8
OBJECT__24
10
115.250000
20
5.500000
30
268.061005
70
192
0
VERTEX
8
OBJECT__24
10
108.000000
20
12.750000
30
268.061005
70
192
0
VERTEX
8
OBJECT__24
10
114.278999
20
9.125000
30
268.061005
70
192
0
VERTEX
8
OBJECT__24
10
16.841000
20
-13.366000
30
268.061005
70
192
0
VERTEX
8
OBJECT__24
10
21.857000
20
-12.750000
30
268.061005
70
192
0
VERTEX
8
OBJECT__24
10
114.278999
20
-9.125000
30
268.061005
70
192
0
VERTEX
8
OBJECT__24
10
111.625000
20
11.779000
30
268.061005
70
192
0
VERTEX
8
OBJECT__24
10
20.058001
20
7.742000
30
268.061005
70
192
0
VERTEX
8
OBJECT__24
10
21.857000
20
12.750000
30
268.061005
70
192
0
VERTEX
8
OBJECT__24
10
16.841000
20
13.366000
30
268.061005
70
192
0
VERTEX
8
OBJECT__24
10
0
20
0
30
0
70
128
71
1
72
2
73
3
0
VERTEX
8
OBJECT__24
10
0
20
0
30
0
70
128
71
4
72
5
73
2
0
VERTEX
8
OBJECT__24
10
0
20
0
30
0
70
128
71
2
72
1
73
4
0
VERTEX
8
OBJECT__24
10
0
20
0
30
0
70
128
71
4
72
6
73
7
0
VERTEX
8
OBJECT__24
10
0
20
0
30
0
70
128
71
7
72
6
73
8
0
VERTEX
8
OBJECT__24
10
0
20
0
30
0
70
128
71
5
72
9
73
10
0
VERTEX
8
OBJECT__24
10
0
20
0
30
0
70
128
71
3
72
11
73
1
0
VERTEX
8
OBJECT__24
10
0
20
0
30
0
70
128
71
8
72
12
73
7
0
VERTEX
8
OBJECT__24
10
0
20
0
30
0
70
128
71
13
72
7
73
14
0
VERTEX
8
OBJECT__24
10
0
20
0
30
0
70
128
71
1
72
6
73
4
0
VERTEX
8
OBJECT__24
10
0
20
0
30
0
70
128
71
14
72
15
73
13
0
VERTEX
8
OBJECT__24
10
0
20
0
30
0
70
128
71
7
72
13
73
4
0
VERTEX
8
OBJECT__24
10
0
20
0
30
0
70
128
71
10
72
2
73
5
0
SEQEND
8
OBJECT__24
0
POLYLINE
8
OBJECT__25
66
1
70
64
71
5
72
3
62
253
0
VERTEX
8
OBJECT__25
10
108.000000
20
-12.750000
30
268.061005
70
192
0
VERTEX
8
OBJECT__25
10
21.857000
20
-12.750000
30
268.061005
70
192
0
VERTEX
8
OBJECT__25
10
21.857000
20
-13.280000
30
267.841003
70
192
0
VERTEX
8
OBJECT__25
10
108.000000
20
-13.500000
30
267.311005
70
192
0
VERTEX
8
OBJECT__25
10
21.857000
20
-13.500000
30
267.311005
70
192
0
VERTEX
8
OBJECT__25
10
0
20
0
30
0
70
128
71
1
72
2
73
3
0
VERTEX
8
OBJECT__25
10
0
20
0
30
0
70
128
71
3
72
4
73
1
0
VERTEX
8
OBJECT__25
10
0
20
0
30
0
70
128
71
3
72
5
73
4
0
SEQEND
8
OBJECT__25
0
POLYLINE
8
OBJECT__26
66
1
70
64
71
17
72
15
62
253
0
VERTEX
8
OBJECT__26
10
17.021999
20
-14.093000
30
267.311005
70
192
0
VERTEX
8
OBJECT__26
10
18.738001
20
-13.745000
30
247.106003
70
192
0
VERTEX
8
OBJECT__26
10
21.857000
20
-13.500000
30
248.389008
70
192
0
VERTEX
8
OBJECT__26
10
21.857000
20
-13.500000
30
267.311005
70
192
0
VERTEX
8
OBJECT__26
10
16.598000
20
-14.204000
30
267.326996
70
192
0
VERTEX
8
OBJECT__26
10
16.180000
20
-14.416000
30
245.524002
70
192
0
VERTEX
8
OBJECT__26
10
10.935000
20
-16.746000
30
242.095001
70
192
0
VERTEX
8
OBJECT__26
10
14.154000
20
-15.043000
30
267.924988
70
192
0
VERTEX
8
OBJECT__26
10
13.800000
20
-15.231000
30
268.105011
70
192
0
VERTEX
8
OBJECT__26
10
16.056999
20
-14.449000
30
245.447998
70
192
0
VERTEX
8
OBJECT__26
10
14.870000
20
-14.760000
30
244.714005
70
192
0
VERTEX
8
OBJECT__26
10
12.141000
20
-16.073999
30
242.862000
70
192
0
VERTEX
8
OBJECT__26
10
13.416000
20
-15.460000
30
243.727005
70
192
0
VERTEX
8
OBJECT__26
10
11.253000
20
-16.547001
30
242.285004
70
192
0
VERTEX
8
OBJECT__26
10
11.564000
20
-16.351999
30
242.470001
70
192
0
VERTEX
8
OBJECT__26
10
16.165001
20
-14.353000
30
267.433014
70
192
0
VERTEX
8
OBJECT__26
10
10.929000
20
-16.750000
30
269.561005
70
192
0
VERTEX
8
OBJECT__26
10
0
20
0
30
0
70
128
71
1
72
2
73
3
0
VERTEX
8
OBJECT__26
10
0
20
0
30
0
70
128
71
3
72
4
73
1
0
VERTEX
8
OBJECT__26
10
0
20
0
30
0
70
128
71
5
72
6
73
2
0
VERTEX
8
OBJECT__26
10
0
20
0
30
0
70
128
71
1
72
5
73
2
0
VERTEX
8
OBJECT__26
10
0
20
0
30
0
70
128
71
7
72
8
73
9
0
VERTEX
8
OBJECT__26
10
0
20
0
30
0
70
128
71
8
72
10
73
6
0
VERTEX
8
OBJECT__26
10
0
20
0
30
0
70
128
71
8
72
11
73
10
0
VERTEX
8
OBJECT__26
10
0
20
0
30
0
70
128
71
8
72
12
73
13
0
VERTEX
8
OBJECT__26
10
0
20
0
30
0
70
128
71
8
72
14
73
15
0
VERTEX
8
OBJECT__26
10
0
20
0
30
0
70
128
71
8
72
7
73
14
0
VERTEX
8
OBJECT__26
10
0
20
0
30
0
70
128
71
15
72
12
73
8
0
VERTEX
8
OBJECT__26
10
0
20
0
30
0
70
128
71
13
72
11
73
8
0
VERTEX
8
OBJECT__26
10
0
20
0
30
0
70
128
71
6
72
16
73
8
0
VERTEX
8
OBJECT__26
10
0
20
0
30
0
70
128
71
9
72
17
73
7
0
VERTEX
8
OBJECT__26
10
0
20
0
30
0
70
128
71
5
72
16
73
6
0
SEQEND
8
OBJECT__26
0
POLYLINE
8
OBJECT__27
66
1
70
64
71
9
72
7
62
253
0
VERTEX
8
OBJECT__27
10
108.000000
20
-13.500000
30
267.311005
70
192
0
VERTEX
8
OBJECT__27
10
112.000000
20
-12.428000
30
267.311005
70
192
0
VERTEX
8
OBJECT__27
10
111.625000
20
-11.779000
30
268.061005
70
192
0
VERTEX
8
OBJECT__27
10
113.463997
20
-10.964000
30
267.311005
70
192
0
VERTEX
8
OBJECT__27
10
114.278999
20
-9.125000
30
268.061005
70
192
0
VERTEX
8
OBJECT__27
10
116.000000
20
-5.500000
30
267.311005
70
192
0
VERTEX
8
OBJECT__27
10
115.250000
20
-5.500000
30
268.061005
70
192
0
VERTEX
8
OBJECT__27
10
114.928001
20
-9.500000
30
267.311005
70
192
0
VERTEX
8
OBJECT__27
10
108.000000
20
-12.750000
30
268.061005
70
192
0
VERTEX
8
OBJECT__27
10
0
20
0
30
0
70
128
71
1
72
2
73
3
0
VERTEX
8
OBJECT__27
10
0
20
0
30
0
70
128
71
3
72
2
73
4
0
VERTEX
8
OBJECT__27
10
0
20
0
30
0
70
128
71
4
72
5
73
3
0
VERTEX
8
OBJECT__27
10
0
20
0
30
0
70
128
71
6
72
7
73
5
0
VERTEX
8
OBJECT__27
10
0
20
0
30
0
70
128
71
5
72
8
73
6
0
VERTEX
8
OBJECT__27
10
0
20
0
30
0
70
128
71
4
72
8
73
5
0
VERTEX
8
OBJECT__27
10
0
20
0
30
0
70
128
71
3
72
9
73
1
0
SEQEND
8
OBJECT__27
0
POLYLINE
8
OBJECT__28
66
1
70
64
71
5
72
3
62
253
0
VERTEX
8
OBJECT__28
10
116.000000
20
-5.500000
30
267.311005
70
192
0
VERTEX
8
OBJECT__28
10
116.000000
20
5.500000
30
267.311005
70
192
0
VERTEX
8
OBJECT__28
10
115.779999
20
5.500000
30
267.841003
70
192
0
VERTEX
8
OBJECT__28
10
115.250000
20
-5.500000
30
268.061005
70
192
0
VERTEX
8
OBJECT__28
10
115.250000
20
5.500000
30
268.061005
70
192
0
VERTEX
8
OBJECT__28
10
0
20
0
30
0
70
128
71
1
72
2
73
3
0
VERTEX
8
OBJECT__28
10
0
20
0
30
0
70
128
71
3
72
4
73
1
0
VERTEX
8
OBJECT__28
10
0
20
0
30
0
70
128
71
3
72
5
73
4
0
SEQEND
8
OBJECT__28
0
POLYLINE
8
OBJECT__29
66
1
70
64
71
10
72
8
62
253
0
VERTEX
8
OBJECT__29
10
113.463997
20
-10.964000
30
267.311005
70
192
0
VERTEX
8
OBJECT__29
10
113.463997
20
-10.964000
30
248.811005
70
192
0
VERTEX
8
OBJECT__29
10
114.928001
20
-9.500000
30
248.811005
70
192
0
VERTEX
8
OBJECT__29
10
116.000000
20
-5.500000
30
248.811005
70
192
0
VERTEX
8
OBJECT__29
10
116.000000
20
-5.500000
30
267.311005
70
192
0
VERTEX
8
OBJECT__29
10
114.928001
20
-9.500000
30
267.311005
70
192
0
VERTEX
8
OBJECT__29
10
108.000000
20
-13.500000
30
248.811005
70
192
0
VERTEX
8
OBJECT__29
10
112.000000
20
-12.428000
30
248.811005
70
192
0
VERTEX
8
OBJECT__29
10
112.000000
20
-12.428000
30
267.311005
70
192
0
VERTEX
8
OBJECT__29
10
108.000000
20
-13.500000
30
267.311005
70
192
0
VERTEX
8
OBJECT__29
10
0
20
0
30
0
70
128
71
1
72
2
73
3
0
VERTEX
8
OBJECT__29
10
0
20
0
30
0
70
128
71
4
72
5
73
6
0
VERTEX
8
OBJECT__29
10
0
20
0
30
0
70
128
71
6
72
3
73
4
0
VERTEX
8
OBJECT__29
10
0
20
0
30
0
70
128
71
7
72
8
73
9
0
VERTEX
8
OBJECT__29
10
0
20
0
30
0
70
128
71
1
72
9
73
8
0
VERTEX
8
OBJECT__29
10
0
20
0
30
0
70
128
71
8
72
2
73
1
0
VERTEX
8
OBJECT__29
10
0
20
0
30
0
70
128
71
9
72
10
73
7
0
VERTEX
8
OBJECT__29
10
0
20
0
30
0
70
128
71
3
72
6
73
1
0
SEQEND
8
OBJECT__29
0
POLYLINE
8
OBJECT__30
66
1
70
64
71
4
72
2
62
253
0
VERTEX
8
OBJECT__30
10
116.000000
20
-5.500000
30
267.311005
70
192
0
VERTEX
8
OBJECT__30
10
116.000000
20
-5.500000
30
248.811005
70
192
0
VERTEX
8
OBJECT__30
10
116.000000
20
5.500000
30
248.811005
70
192
0
VERTEX
8
OBJECT__30
10
116.000000
20
5.500000
30
267.311005
70
192
0
VERTEX
8
OBJECT__30
10
0
20
0
30
0
70
128
71
1
72
2
73
3
0
VERTEX
8
OBJECT__30
10
0
20
0
30
0
70
128
71
3
72
4
73
1
0
SEQEND
8
OBJECT__30
0
POLYLINE
8
OBJECT__31
66
1
70
64
71
10
72
8
62
253
0
VERTEX
8
OBJECT__31
10
113.463997
20
10.964000
30
267.311005
70
192
0
VERTEX
8
OBJECT__31
10
114.928001
20
9.500000
30
267.311005
70
192
0
VERTEX
8
OBJECT__31
10
114.928001
20
9.500000
30
248.811005
70
192
0
VERTEX
8
OBJECT__31
10
116.000000
20
5.500000
30
248.811005
70
192
0
VERTEX
8
OBJECT__31
10
116.000000
20
5.500000
30
267.311005
70
192
0
VERTEX
8
OBJECT__31
10
108.000000
20
13.500000
30
267.311005
70
192
0
VERTEX
8
OBJECT__31
10
112.000000
20
12.428000
30
267.311005
70
192
0
VERTEX
8
OBJECT__31
10
112.000000
20
12.428000
30
248.811005
70
192
0
VERTEX
8
OBJECT__31
10
113.463997
20
10.964000
30
248.811005
70
192
0
VERTEX
8
OBJECT__31
10
108.000000
20
13.500000
30
248.811005
70
192
0
VERTEX
8
OBJECT__31
10
0
20
0
30
0
70
128
71
1
72
2
73
3
0
VERTEX
8
OBJECT__31
10
0
20
0
30
0
70
128
71
4
72
3
73
2
0
VERTEX
8
OBJECT__31
10
0
20
0
30
0
70
128
71
2
72
5
73
4
0
VERTEX
8
OBJECT__31
10
0
20
0
30
0
70
128
71
6
72
7
73
8
0
VERTEX
8
OBJECT__31
10
0
20
0
30
0
70
128
71
9
72
8
73
7
0
VERTEX
8
OBJECT__31
10
0
20
0
30
0
70
128
71
7
72
1
73
9
0
VERTEX
8
OBJECT__31
10
0
20
0
30
0
70
128
71
8
72
10
73
6
0
VERTEX
8
OBJECT__31
10
0
20
0
30
0
70
128
71
3
72
9
73
1
0
SEQEND
8
OBJECT__31
0
POLYLINE
8
OBJECT__32
66
1
70
64
71
6
72
4
62
253
0
VERTEX
8
OBJECT__32
10
24.936001
20
13.500000
30
248.811005
70
192
0
VERTEX
8
OBJECT__32
10
108.000000
20
13.500000
30
248.811005
70
192
0
VERTEX
8
OBJECT__32
10
108.000000
20
13.125000
30
248.436005
70
192
0
VERTEX
8
OBJECT__32
10
24.936001
20
12.750000
30
248.061005
70
192
0
VERTEX
8
OBJECT__32
10
24.936001
20
13.280000
30
248.279999
70
192
0
VERTEX
8
OBJECT__32
10
108.000000
20
12.750000
30
248.061005
70
192
0
VERTEX
8
OBJECT__32
10
0
20
0
30
0
70
128
71
1
72
2
73
3
0
VERTEX
8
OBJECT__32
10
0
20
0
30
0
70
128
71
4
72
5
73
3
0
VERTEX
8
OBJECT__32
10
0
20
0
30
0
70
128
71
3
72
6
73
4
0
VERTEX
8
OBJECT__32
10
0
20
0
30
0
70
128
71
3
72
5
73
1
0
SEQEND
8
OBJECT__32
0
POLYLINE
8
OBJECT__33
66
1
70
64
71
10
72
8
62
253
0
VERTEX
8
OBJECT__33
10
108.000000
20
13.125000
30
248.436005
70
192
0
VERTEX
8
OBJECT__33
10
112.000000
20
12.428000
30
248.811005
70
192
0
VERTEX
8
OBJECT__33
10
111.625000
20
11.779000
30
248.061005
70
192
0
VERTEX
8
OBJECT__33
10
108.000000
20
12.750000
30
248.061005
70
192
0
VERTEX
8
OBJECT__33
10
114.278999
20
9.125000
30
248.061005
70
192
0
VERTEX
8
OBJECT__33
10
113.463997
20
10.964000
30
248.811005
70
192
0
VERTEX
8
OBJECT__33
10
114.928001
20
9.500000
30
248.811005
70
192
0
VERTEX
8
OBJECT__33
10
116.000000
20
5.500000
30
248.811005
70
192
0
VERTEX
8
OBJECT__33
10
115.250000
20
5.500000
30
248.061005
70
192
0
VERTEX
8
OBJECT__33
10
108.000000
20
13.500000
30
248.811005
70
192
0
VERTEX
8
OBJECT__33
10
0
20
0
30
0
70
128
71
1
72
2
73
3
0
VERTEX
8
OBJECT__33
10
0
20
0
30
0
70
128
71
3
72
4
73
1
0
VERTEX
8
OBJECT__33
10
0
20
0
30
0
70
128
71
5
72
3
73
6
0
VERTEX
8
OBJECT__33
10
0
20
0
30
0
70
128
71
3
72
2
73
6
0
VERTEX
8
OBJECT__33
10
0
20
0
30
0
70
128
71
7
72
8
73
9
0
VERTEX
8
OBJECT__33
10
0
20
0
30
0
70
128
71
9
72
5
73
7
0
VERTEX
8
OBJECT__33
10
0
20
0
30
0
70
128
71
6
72
7
73
5
0
VERTEX
8
OBJECT__33
10
0
20
0
30
0
70
128
71
1
72
10
73
2
0
SEQEND
8
OBJECT__33
0
POLYLINE
8
OBJECT__34
66
1
70
64
71
4
72
2
62
253
0
VERTEX
8
OBJECT__34
10
116.000000
20
5.500000
30
248.811005
70
192
0
VERTEX
8
OBJECT__34
10
116.000000
20
-5.500000
30
248.811005
70
192
0
VERTEX
8
OBJECT__34
10
115.250000
20
-5.500000
30
248.061005
70
192
0
VERTEX
8
OBJECT__34
10
115.250000
20
5.500000
30
248.061005
70
192
0
VERTEX
8
OBJECT__34
10
0
20
0
30
0
70
128
71
1
72
2
73
3
0
VERTEX
8
OBJECT__34
10
0
20
0
30
0
70
128
71
3
72
4
73
1
0
SEQEND
8
OBJECT__34
0
POLYLINE
8
OBJECT__35
66
1
70
64
71
76
72
91
62
253
0
VERTEX
8
OBJECT__35
10
24.305000
20
-6.236000
30
247.514008
70
192
0
VERTEX
8
OBJECT__35
10
21.642000
20
-5.552000
30
245.718002
70
192
0
VERTEX
8
OBJECT__35
10
22.343000
20
0.000000
30
245.718002
70
192
0
VERTEX
8
OBJECT__35
10
21.993999
20
-12.081000
30
247.514008
70
192
0
VERTEX
8
OBJECT__35
10
19.584000
20
-10.757000
30
245.716995
70
192
0
VERTEX
8
OBJECT__35
10
19.903000
20
-5.106000
30
242.968994
70
192
0
VERTEX
8
OBJECT__35
10
20.547001
20
0.000000
30
242.968994
70
192
0
VERTEX
8
OBJECT__35
10
18.009001
20
-9.892000
30
242.968002
70
192
0
VERTEX
8
OBJECT__35
10
19.584000
20
10.757000
30
245.716995
70
192
0
VERTEX
8
OBJECT__35
10
21.642000
20
5.552000
30
245.718002
70
192
0
VERTEX
8
OBJECT__35
10
19.903000
20
5.106000
30
242.968994
70
192
0
VERTEX
8
OBJECT__35
10
24.305000
20
6.236000
30
247.514008
70
192
0
VERTEX
8
OBJECT__35
10
25.093000
20
0.000000
30
247.514008
70
192
0
VERTEX
8
OBJECT__35
10
14.953000
20
14.026000
30
243.391998
70
192
0
VERTEX
8
OBJECT__35
10
18.009001
20
9.892000
30
242.968002
70
192
0
VERTEX
8
OBJECT__35
10
16.247999
20
11.662000
30
240.244995
70
192
0
VERTEX
8
OBJECT__35
10
17.240999
20
9.954000
30
240.149002
70
192
0
VERTEX
8
OBJECT__35
10
17.457001
20
9.582000
30
240.128006
70
192
0
VERTEX
8
OBJECT__35
10
14.545000
20
13.635000
30
240.770004
70
192
0
VERTEX
8
OBJECT__35
10
13.517000
20
15.326000
30
243.490005
70
192
0
VERTEX
8
OBJECT__35
10
13.850000
20
15.150000
30
243.677002
70
192
0
VERTEX
8
OBJECT__35
10
13.908000
20
14.372000
30
240.966995
70
192
0
VERTEX
8
OBJECT__35
10
11.432000
20
16.429001
30
242.317993
70
192
0
VERTEX
8
OBJECT__35
10
12.194000
20
16.025999
30
242.746002
70
192
0
VERTEX
8
OBJECT__35
10
10.935000
20
16.746000
30
242.098007
70
192
0
VERTEX
8
OBJECT__35
10
14.719000
20
14.691000
30
244.164993
70
192
0
VERTEX
8
OBJECT__35
10
16.254000
20
14.181000
30
245.011993
70
192
0
VERTEX
8
OBJECT__35
10
17.549000
20
13.751000
30
245.727005
70
192
0
VERTEX
8
OBJECT__35
10
15.422000
20
14.457000
30
244.552994
70
192
0
VERTEX
8
OBJECT__35
10
18.893000
20
13.304000
30
246.468994
70
192
0
VERTEX
8
OBJECT__35
10
21.478001
20
12.950000
30
247.455002
70
192
0
VERTEX
8
OBJECT__35
10
21.993999
20
12.081000
30
247.514008
70
192
0
VERTEX
8
OBJECT__35
10
22.054001
20
12.871000
30
247.675003
70
192
0
VERTEX
8
OBJECT__35
10
23.485001
20
12.807000
30
247.962006
70
192
0
VERTEX
8
OBJECT__35
10
24.936001
20
12.750000
30
248.061005
70
192
0
VERTEX
8
OBJECT__35
10
25.552999
20
11.445000
30
248.061005
70
192
0
VERTEX
8
OBJECT__35
10
23.337000
20
12.814000
30
247.932007
70
192
0
VERTEX
8
OBJECT__35
10
27.222000
20
6.556000
30
248.061005
70
192
0
VERTEX
8
OBJECT__35
10
27.936001
20
1.895000
30
248.061005
70
192
0
VERTEX
8
OBJECT__35
10
27.087999
20
6.947000
30
248.061005
70
192
0
VERTEX
8
OBJECT__35
10
27.806000
20
-3.301000
30
248.061005
70
192
0
VERTEX
8
OBJECT__35
10
27.889000
20
0.003000
30
248.061005
70
192
0
VERTEX
8
OBJECT__35
10
23.485001
20
-12.807000
30
247.962006
70
192
0
VERTEX
8
OBJECT__35
10
23.337000
20
-12.814000
30
247.932007
70
192
0
VERTEX
8
OBJECT__35
10
26.870001
20
-7.870000
30
248.061005
70
192
0
VERTEX
8
OBJECT__35
10
24.934999
20
-12.750000
30
248.061005
70
192
0
VERTEX
8
OBJECT__35
10
27.059000
20
-6.945000
30
248.061005
70
192
0
VERTEX
8
OBJECT__35
10
22.054001
20
-12.871000
30
247.675003
70
192
0
VERTEX
8
OBJECT__35
10
21.493999
20
-12.919000
30
247.496002
70
192
0
VERTEX
8
OBJECT__35
10
20.705000
20
-12.988000
30
247.244003
70
192
0
VERTEX
8
OBJECT__35
10
16.245001
20
-14.175000
30
245.037994
70
192
0
VERTEX
8
OBJECT__35
10
15.438000
20
-14.513000
30
244.572998
70
192
0
VERTEX
8
OBJECT__35
10
17.344999
20
-13.714000
30
245.671005
70
192
0
VERTEX
8
OBJECT__35
10
17.577000
20
-13.664000
30
245.779999
70
192
0
VERTEX
8
OBJECT__35
10
12.187000
20
-16.004000
30
242.742996
70
192
0
VERTEX
8
OBJECT__35
10
10.935000
20
-16.746000
30
242.095001
70
192
0
VERTEX
8
OBJECT__35
10
11.880000
20
-16.089001
30
241.710999
70
192
0
VERTEX
8
OBJECT__35
10
14.584000
20
-13.679000
30
240.729004
70
192
0
VERTEX
8
OBJECT__35
10
12.924000
20
-15.567000
30
243.125000
70
192
0
VERTEX
8
OBJECT__35
10
14.953000
20
-14.026000
30
243.391998
70
192
0
VERTEX
8
OBJECT__35
10
13.826000
20
-15.188000
30
243.645004
70
192
0
VERTEX
8
OBJECT__35
10
13.519000
20
-15.317000
30
243.468002
70
192
0
VERTEX
8
OBJECT__35
10
14.623000
20
-13.644000
30
240.714996
70
192
0
VERTEX
8
OBJECT__35
10
16.841000
20
-10.788000
30
240.121994
70
192
0
VERTEX
8
OBJECT__35
10
17.259001
20
-9.969000
30
240.108002
70
192
0
VERTEX
8
OBJECT__35
10
17.452999
20
-9.589000
30
240.100998
70
192
0
VERTEX
8
OBJECT__35
10
18.615999
20
-7.309000
30
240.059998
70
192
0
VERTEX
8
OBJECT__35
10
19.740000
20
-3.212000
30
240.061005
70
192
0
VERTEX
8
OBJECT__35
10
19.266001
20
-4.941000
30
240.059998
70
192
0
VERTEX
8
OBJECT__35
10
19.968000
20
1.138000
30
240.061005
70
192
0
VERTEX
8
OBJECT__35
10
19.908001
20
0.005000
30
240.061005
70
192
0
VERTEX
8
OBJECT__35
10
18.374001
20
7.899000
30
240.061005
70
192
0
VERTEX
8
OBJECT__35
10
18.172001
20
8.352000
30
240.059006
70
192
0
VERTEX
8
OBJECT__35
10
19.179001
20
5.672000
30
240.067993
70
192
0
VERTEX
8
OBJECT__35
10
19.318001
20
4.961000
30
240.061005
70
192
0
VERTEX
8
OBJECT__35
10
19.224001
20
5.517000
30
240.061005
70
192
0
VERTEX
8
OBJECT__35
10
0
20
0
30
0
70
128
71
1
72
2
73
3
0
VERTEX
8
OBJECT__35
10
0
20
0
30
0
70
128
71
1
72
4
73
5
0
VERTEX
8
OBJECT__35
10
0
20
0
30
0
70
128
71
2
72
6
73
7
0
VERTEX
8
OBJECT__35
10
0
20
0
30
0
70
128
71
5
72
8
73
6
0
VERTEX
8
OBJECT__35
10
0
20
0
30
0
70
128
71
9
72
10
73
11
0
VERTEX
8
OBJECT__35
10
0
20
0
30
0
70
128
71
10
72
3
73
7
0
VERTEX
8
OBJECT__35
10
0
20
0
30
0
70
128
71
12
72
10
73
9
0
VERTEX
8
OBJECT__35
10
0
20
0
30
0
70
128
71
12
72
13
73
3
0
VERTEX
8
OBJECT__35
10
0
20
0
30
0
70
128
71
14
72
15
73
16
0
VERTEX
8
OBJECT__35
10
0
20
0
30
0
70
128
71
15
72
17
73
16
0
VERTEX
8
OBJECT__35
10
0
20
0
30
0
70
128
71
15
72
18
73
17
0
VERTEX
8
OBJECT__35
10
0
20
0
30
0
70
128
71
19
72
20
73
21
0
VERTEX
8
OBJECT__35
10
0
20
0
30
0
70
128
71
20
72
19
73
22
0
VERTEX
8
OBJECT__35
10
0
20
0
30
0
70
128
71
22
72
23
73
24
0
VERTEX
8
OBJECT__35
10
0
20
0
30
0
70
128
71
22
72
24
73
20
0
VERTEX
8
OBJECT__35
10
0
20
0
30
0
70
128
71
22
72
25
73
23
0
VERTEX
8
OBJECT__35
10
0
20
0
30
0
70
128
71
14
72
21
73
26
0
VERTEX
8
OBJECT__35
10
0
20
0
30
0
70
128
71
15
72
27
73
28
0
VERTEX
8
OBJECT__35
10
0
20
0
30
0
70
128
71
15
72
14
73
29
0
VERTEX
8
OBJECT__35
10
0
20
0
30
0
70
128
71
29
72
27
73
15
0
VERTEX
8
OBJECT__35
10
0
20
0
30
0
70
128
71
9
72
30
73
31
0
VERTEX
8
OBJECT__35
10
0
20
0
30
0
70
128
71
9
72
28
73
30
0
VERTEX
8
OBJECT__35
10
0
20
0
30
0
70
128
71
32
72
31
73
33
0
VERTEX
8
OBJECT__35
10
0
20
0
30
0
70
128
71
34
72
35
73
36
0
VERTEX
8
OBJECT__35
10
0
20
0
30
0
70
128
71
36
72
12
73
34
0
VERTEX
8
OBJECT__35
10
0
20
0
30
0
70
128
71
12
72
32
73
37
0
VERTEX
8
OBJECT__35
10
0
20
0
30
0
70
128
71
37
72
34
73
12
0
VERTEX
8
OBJECT__35
10
0
20
0
30
0
70
128
71
12
72
38
73
39
0
VERTEX
8
OBJECT__35
10
0
20
0
30
0
70
128
71
39
72
13
73
12
0
VERTEX
8
OBJECT__35
10
0
20
0
30
0
70
128
71
12
72
40
73
38
0
VERTEX
8
OBJECT__35
10
0
20
0
30
0
70
128
71
1
72
13
73
41
0
VERTEX
8
OBJECT__35
10
0
20
0
30
0
70
128
71
13
72
42
73
41
0
VERTEX
8
OBJECT__35
10
0
20
0
30
0
70
128
71
1
72
43
73
44
0
VERTEX
8
OBJECT__35
10
0
20
0
30
0
70
128
71
1
72
45
73
46
0
VERTEX
8
OBJECT__35
10
0
20
0
30
0
70
128
71
1
72
47
73
45
0
VERTEX
8
OBJECT__35
10
0
20
0
30
0
70
128
71
46
72
43
73
1
0
VERTEX
8
OBJECT__35
10
0
20
0
30
0
70
128
71
4
72
44
73
48
0
VERTEX
8
OBJECT__35
10
0
20
0
30
0
70
128
71
5
72
4
73
49
0
VERTEX
8
OBJECT__35
10
0
20
0
30
0
70
128
71
49
72
50
73
5
0
VERTEX
8
OBJECT__35
10
0
20
0
30
0
70
128
71
8
72
51
73
52
0
VERTEX
8
OBJECT__35
10
0
20
0
30
0
70
128
71
8
72
53
73
51
0
VERTEX
8
OBJECT__35
10
0
20
0
30
0
70
128
71
8
72
5
73
54
0
VERTEX
8
OBJECT__35
10
0
20
0
30
0
70
128
71
54
72
53
73
8
0
VERTEX
8
OBJECT__35
10
0
20
0
30
0
70
128
71
55
72
56
73
57
0
VERTEX
8
OBJECT__35
10
0
20
0
30
0
70
128
71
58
72
59
73
55
0
VERTEX
8
OBJECT__35
10
0
20
0
30
0
70
128
71
58
72
60
73
61
0
VERTEX
8
OBJECT__35
10
0
20
0
30
0
70
128
71
61
72
62
73
58
0
VERTEX
8
OBJECT__35
10
0
20
0
30
0
70
128
71
62
72
59
73
58
0
VERTEX
8
OBJECT__35
10
0
20
0
30
0
70
128
71
60
72
63
73
64
0
VERTEX
8
OBJECT__35
10
0
20
0
30
0
70
128
71
64
72
8
73
60
0
VERTEX
8
OBJECT__35
10
0
20
0
30
0
70
128
71
60
72
58
73
63
0
VERTEX
8
OBJECT__35
10
0
20
0
30
0
70
128
71
64
72
65
73
8
0
VERTEX
8
OBJECT__35
10
0
20
0
30
0
70
128
71
8
72
66
73
67
0
VERTEX
8
OBJECT__35
10
0
20
0
30
0
70
128
71
67
72
6
73
8
0
VERTEX
8
OBJECT__35
10
0
20
0
30
0
70
128
71
7
72
6
73
68
0
VERTEX
8
OBJECT__35
10
0
20
0
30
0
70
128
71
6
72
69
73
68
0
VERTEX
8
OBJECT__35
10
0
20
0
30
0
70
128
71
11
72
7
73
70
0
VERTEX
8
OBJECT__35
10
0
20
0
30
0
70
128
71
7
72
71
73
70
0
VERTEX
8
OBJECT__35
10
0
20
0
30
0
70
128
71
15
72
72
73
73
0
VERTEX
8
OBJECT__35
10
0
20
0
30
0
70
128
71
11
72
74
73
72
0
VERTEX
8
OBJECT__35
10
0
20
0
30
0
70
128
71
72
72
15
73
11
0
VERTEX
8
OBJECT__35
10
0
20
0
30
0
70
128
71
11
72
75
73
76
0
VERTEX
8
OBJECT__35
10
0
20
0
30
0
70
128
71
76
72
74
73
11
0
VERTEX
8
OBJECT__35
10
0
20
0
30
0
70
128
71
73
72
18
73
15
0
VERTEX
8
OBJECT__35
10
0
20
0
30
0
70
128
71
70
72
75
73
11
0
VERTEX
8
OBJECT__35
10
0
20
0
30
0
70
128
71
68
72
71
73
7
0
VERTEX
8
OBJECT__35
10
0
20
0
30
0
70
128
71
67
72
69
73
6
0
VERTEX
8
OBJECT__35
10
0
20
0
30
0
70
128
71
65
72
66
73
8
0
VERTEX
8
OBJECT__35
10
0
20
0
30
0
70
128
71
57
72
58
73
55
0
VERTEX
8
OBJECT__35
10
0
20
0
30
0
70
128
71
61
72
60
73
52
0
VERTEX
8
OBJECT__35
10
0
20
0
30
0
70
128
71
52
72
60
73
8
0
VERTEX
8
OBJECT__35
10
0
20
0
30
0
70
128
71
50
72
54
73
5
0
VERTEX
8
OBJECT__35
10
0
20
0
30
0
70
128
71
48
72
49
73
4
0
VERTEX
8
OBJECT__35
10
0
20
0
30
0
70
128
71
44
72
4
73
1
0
VERTEX
8
OBJECT__35
10
0
20
0
30
0
70
128
71
41
72
47
73
1
0
VERTEX
8
OBJECT__35
10
0
20
0
30
0
70
128
71
39
72
42
73
13
0
VERTEX
8
OBJECT__35
10
0
20
0
30
0
70
128
71
36
72
40
73
12
0
VERTEX
8
OBJECT__35
10
0
20
0
30
0
70
128
71
33
72
37
73
32
0
VERTEX
8
OBJECT__35
10
0
20
0
30
0
70
128
71
31
72
32
73
9
0
VERTEX
8
OBJECT__35
10
0
20
0
30
0
70
128
71
28
72
9
73
15
0
VERTEX
8
OBJECT__35
10
0
20
0
30
0
70
128
71
26
72
29
73
14
0
VERTEX
8
OBJECT__35
10
0
20
0
30
0
70
128
71
21
72
14
73
19
0
VERTEX
8
OBJECT__35
10
0
20
0
30
0
70
128
71
16
72
19
73
14
0
VERTEX
8
OBJECT__35
10
0
20
0
30
0
70
128
71
3
72
10
73
12
0
VERTEX
8
OBJECT__35
10
0
20
0
30
0
70
128
71
9
72
32
73
12
0
VERTEX
8
OBJECT__35
10
0
20
0
30
0
70
128
71
7
72
11
73
10
0
VERTEX
8
OBJECT__35
10
0
20
0
30
0
70
128
71
11
72
15
73
9
0
VERTEX
8
OBJECT__35
10
0
20
0
30
0
70
128
71
6
72
2
73
5
0
VERTEX
8
OBJECT__35
10
0
20
0
30
0
70
128
71
7
72
3
73
2
0
VERTEX
8
OBJECT__35
10
0
20
0
30
0
70
128
71
5
72
2
73
1
0
VERTEX
8
OBJECT__35
10
0
20
0
30
0
70
128
71
3
72
13
73
1
0
SEQEND
8
OBJECT__35
0
POLYLINE
8
OBJECT__36
66
1
70
64
71
26
72
27
62
253
0
VERTEX
8
OBJECT__36
10
13.456000
20
-15.334000
30
243.576004
70
192
0
VERTEX
8
OBJECT__36
10
16.139000
20
-14.277000
30
245.240005
70
192
0
VERTEX
8
OBJECT__36
10
14.870000
20
-14.760000
30
244.714005
70
192
0
VERTEX
8
OBJECT__36
10
16.056999
20
-14.449000
30
245.447998
70
192
0
VERTEX
8
OBJECT__36
10
21.968000
20
-13.264000
30
247.988007
70
192
0
VERTEX
8
OBJECT__36
10
21.926001
20
-13.453000
30
248.139008
70
192
0
VERTEX
8
OBJECT__36
10
18.738001
20
-13.745000
30
247.106003
70
192
0
VERTEX
8
OBJECT__36
10
16.180000
20
-14.416000
30
245.524002
70
192
0
VERTEX
8
OBJECT__36
10
13.416000
20
-15.460000
30
243.727005
70
192
0
VERTEX
8
OBJECT__36
10
12.141000
20
-16.073999
30
242.862000
70
192
0
VERTEX
8
OBJECT__36
10
12.160000
20
-16.004000
30
242.779007
70
192
0
VERTEX
8
OBJECT__36
10
11.564000
20
-16.351999
30
242.470001
70
192
0
VERTEX
8
OBJECT__36
10
12.187000
20
-16.004000
30
242.742996
70
192
0
VERTEX
8
OBJECT__36
10
11.253000
20
-16.547001
30
242.285004
70
192
0
VERTEX
8
OBJECT__36
10
12.924000
20
-15.567000
30
243.125000
70
192
0
VERTEX
8
OBJECT__36
10
13.826000
20
-15.188000
30
243.645004
70
192
0
VERTEX
8
OBJECT__36
10
15.438000
20
-14.513000
30
244.572998
70
192
0
VERTEX
8
OBJECT__36
10
13.519000
20
-15.317000
30
243.468002
70
192
0
VERTEX
8
OBJECT__36
10
17.577000
20
-13.664000
30
245.779999
70
192
0
VERTEX
8
OBJECT__36
10
20.705000
20
-12.988000
30
247.244003
70
192
0
VERTEX
8
OBJECT__36
10
16.245001
20
-14.175000
30
245.037994
70
192
0
VERTEX
8
OBJECT__36
10
17.344999
20
-13.714000
30
245.671005
70
192
0
VERTEX
8
OBJECT__36
10
21.493999
20
-12.919000
30
247.496002
70
192
0
VERTEX
8
OBJECT__36
10
22.054001
20
-12.871000
30
247.675003
70
192
0
VERTEX
8
OBJECT__36
10
10.935000
20
-16.746000
30
242.095001
70
192
0
VERTEX
8
OBJECT__36
10
21.857000
20
-13.500000
30
248.389008
70
192
0
VERTEX
8
OBJECT__36
10
0
20
0
30
0
70
128
71
1
72
2
73
3
0
VERTEX
8
OBJECT__36
10
0
20
0
30
0
70
128
71
2
72
4
73
3
0
VERTEX
8
OBJECT__36
10
0
20
0
30
0
70
128
71
5
72
6
73
7
0
VERTEX
8
OBJECT__36
10
0
20
0
30
0
70
128
71
7
72
2
73
5
0
VERTEX
8
OBJECT__36
10
0
20
0
30
0
70
128
71
7
72
8
73
2
0
VERTEX
8
OBJECT__36
10
0
20
0
30
0
70
128
71
8
72
4
73
2
0
VERTEX
8
OBJECT__36
10
0
20
0
30
0
70
128
71
9
72
10
73
11
0
VERTEX
8
OBJECT__36
10
0
20
0
30
0
70
128
71
11
72
10
73
12
0
VERTEX
8
OBJECT__36
10
0
20
0
30
0
70
128
71
13
72
11
73
14
0
VERTEX
8
OBJECT__36
10
0
20
0
30
0
70
128
71
11
72
13
73
15
0
VERTEX
8
OBJECT__36
10
0
20
0
30
0
70
128
71
15
72
1
73
11
0
VERTEX
8
OBJECT__36
10
0
20
0
30
0
70
128
71
1
72
16
73
17
0
VERTEX
8
OBJECT__36
10
0
20
0
30
0
70
128
71
17
72
2
73
1
0
VERTEX
8
OBJECT__36
10
0
20
0
30
0
70
128
71
1
72
18
73
16
0
VERTEX
8
OBJECT__36
10
0
20
0
30
0
70
128
71
5
72
2
73
19
0
VERTEX
8
OBJECT__36
10
0
20
0
30
0
70
128
71
19
72
20
73
5
0
VERTEX
8
OBJECT__36
10
0
20
0
30
0
70
128
71
2
72
21
73
22
0
VERTEX
8
OBJECT__36
10
0
20
0
30
0
70
128
71
22
72
19
73
2
0
VERTEX
8
OBJECT__36
10
0
20
0
30
0
70
128
71
20
72
23
73
5
0
VERTEX
8
OBJECT__36
10
0
20
0
30
0
70
128
71
23
72
24
73
5
0
VERTEX
8
OBJECT__36
10
0
20
0
30
0
70
128
71
17
72
21
73
2
0
VERTEX
8
OBJECT__36
10
0
20
0
30
0
70
128
71
15
72
18
73
1
0
VERTEX
8
OBJECT__36
10
0
20
0
30
0
70
128
71
14
72
25
73
13
0
VERTEX
8
OBJECT__36
10
0
20
0
30
0
70
128
71
12
72
14
73
11
0
VERTEX
8
OBJECT__36
10
0
20
0
30
0
70
128
71
11
72
1
73
9
0
VERTEX
8
OBJECT__36
10
0
20
0
30
0
70
128
71
6
72
26
73
7
0
VERTEX
8
OBJECT__36
10
0
20
0
30
0
70
128
71
3
72
9
73
1
0
SEQEND
8
OBJECT__36
0
POLYLINE
8
OBJECT__37
66
1
70
64
71
30
72
30
62
253
0
VERTEX
8
OBJECT__37
10
109.487000
20
-7.970000
30
248.061005
70
192
0
VERTEX
8
OBJECT__37
10
112.653000
20
-1.842000
30
248.061005
70
192
0
VERTEX
8
OBJECT__37
10
115.250000
20
-5.500000
30
248.061005
70
192
0
VERTEX
8
OBJECT__37
10
108.000000
20
-12.750000
30
248.061005
70
192
0
VERTEX
8
OBJECT__37
10
24.934999
20
-12.750000
30
248.061005
70
192
0
VERTEX
8
OBJECT__37
10
95.549004
20
-11.861000
30
248.061005
70
192
0
VERTEX
8
OBJECT__37
10
108.000000
20
12.750000
30
248.061005
70
192
0
VERTEX
8
OBJECT__37
10
105.080002
20
10.999000
30
248.061005
70
192
0
VERTEX
8
OBJECT__37
10
97.598999
20
12.187000
30
248.061005
70
192
0
VERTEX
8
OBJECT__37
10
110.719002
20
6.481000
30
248.061005
70
192
0
VERTEX
8
OBJECT__37
10
112.809998
20
0.000000
30
248.061005
70
192
0
VERTEX
8
OBJECT__37
10
114.278999
20
-9.125000
30
248.061005
70
192
0
VERTEX
8
OBJECT__37
10
111.625000
20
-11.779000
30
248.061005
70
192
0
VERTEX
8
OBJECT__37
10
88.997002
20
-8.446000
30
248.061005
70
192
0
VERTEX
8
OBJECT__37
10
86.046997
20
4.249000
30
248.061005
70
192
0
VERTEX
8
OBJECT__37
10
27.222000
20
6.556000
30
248.061005
70
192
0
VERTEX
8
OBJECT__37
10
27.087999
20
6.947000
30
248.061005
70
192
0
VERTEX
8
OBJECT__37
10
85.473999
20
-2.473000
30
248.061005
70
192
0
VERTEX
8
OBJECT__37
10
27.889000
20
0.003000
30
248.061005
70
192
0
VERTEX
8
OBJECT__37
10
27.936001
20
1.895000
30
248.061005
70
192
0
VERTEX
8
OBJECT__37
10
24.936001
20
12.750000
30
248.061005
70
192
0
VERTEX
8
OBJECT__37
10
111.625000
20
11.779000
30
248.061005
70
192
0
VERTEX
8
OBJECT__37
10
114.278999
20
9.125000
30
248.061005
70
192
0
VERTEX
8
OBJECT__37
10
115.250000
20
5.500000
30
248.061005
70
192
0
VERTEX
8
OBJECT__37
10
103.146004
20
-11.685000
30
248.061005
70
192
0
VERTEX
8
OBJECT__37
10
25.552999
20
11.445000
30
248.061005
70
192
0
VERTEX
8
OBJECT__37
10
27.806000
20
-3.301000
30
248.061005
70
192
0
VERTEX
8
OBJECT__37
10
26.870001
20
-7.870000
30
248.061005
70
192
0
VERTEX
8
OBJECT__37
10
27.059000
20
-6.945000
30
248.061005
70
192
0
VERTEX
8
OBJECT__37
10
90.542000
20
9.684000
30
248.061005
70
192
0
VERTEX
8
OBJECT__37
10
0
20
0
30
0
70
128
71
1
72
2
73
3
0
VERTEX
8
OBJECT__37
10
0
20
0
30
0
70
128
71
4
72
5
73
6
0
VERTEX
8
OBJECT__37
10
0
20
0
30
0
70
128
71
7
72
8
73
9
0
VERTEX
8
OBJECT__37
10
0
20
0
30
0
70
128
71
10
72
8
73
7
0
VERTEX
8
OBJECT__37
10
0
20
0
30
0
70
128
71
3
72
2
73
11
0
VERTEX
8
OBJECT__37
10
0
20
0
30
0
70
128
71
3
72
12
73
1
0
VERTEX
8
OBJECT__37
10
0
20
0
30
0
70
128
71
1
72
13
73
4
0
VERTEX
8
OBJECT__37
10
0
20
0
30
0
70
128
71
5
72
14
73
6
0
VERTEX
8
OBJECT__37
10
0
20
0
30
0
70
128
71
15
72
16
73
17
0
VERTEX
8
OBJECT__37
10
0
20
0
30
0
70
128
71
18
72
19
73
20
0
VERTEX
8
OBJECT__37
10
0
20
0
30
0
70
128
71
9
72
21
73
7
0
VERTEX
8
OBJECT__37
10
0
20
0
30
0
70
128
71
7
72
22
73
10
0
VERTEX
8
OBJECT__37
10
0
20
0
30
0
70
128
71
10
72
23
73
24
0
VERTEX
8
OBJECT__37
10
0
20
0
30
0
70
128
71
12
72
13
73
1
0
VERTEX
8
OBJECT__37
10
0
20
0
30
0
70
128
71
6
72
25
73
4
0
VERTEX
8
OBJECT__37
10
0
20
0
30
0
70
128
71
17
72
26
73
15
0
VERTEX
8
OBJECT__37
10
0
20
0
30
0
70
128
71
18
72
27
73
19
0
VERTEX
8
OBJECT__37
10
0
20
0
30
0
70
128
71
18
72
28
73
29
0
VERTEX
8
OBJECT__37
10
0
20
0
30
0
70
128
71
22
72
23
73
10
0
VERTEX
8
OBJECT__37
10
0
20
0
30
0
70
128
71
11
72
24
73
3
0
VERTEX
8
OBJECT__37
10
0
20
0
30
0
70
128
71
5
72
18
73
14
0
VERTEX
8
OBJECT__37
10
0
20
0
30
0
70
128
71
15
72
20
73
16
0
VERTEX
8
OBJECT__37
10
0
20
0
30
0
70
128
71
29
72
27
73
18
0
VERTEX
8
OBJECT__37
10
0
20
0
30
0
70
128
71
9
72
30
73
21
0
VERTEX
8
OBJECT__37
10
0
20
0
30
0
70
128
71
4
72
25
73
1
0
VERTEX
8
OBJECT__37
10
0
20
0
30
0
70
128
71
20
72
15
73
18
0
VERTEX
8
OBJECT__37
10
0
20
0
30
0
70
128
71
24
72
11
73
10
0
VERTEX
8
OBJECT__37
10
0
20
0
30
0
70
128
71
30
72
15
73
21
0
VERTEX
8
OBJECT__37
10
0
20
0
30
0
70
128
71
26
72
21
73
15
0
VERTEX
8
OBJECT__37
10
0
20
0
30
0
70
128
71
18
72
5
73
28
0
SEQEND
8
OBJECT__37
0
POLYLINE
8
OBJECT__38
66
1
70
64
71
6
72
4
62
253
0
VERTEX
8
OBJECT__38
10
108.000000
20
-13.500000
30
267.311005
70
192
0
VERTEX
8
OBJECT__38
10
21.857000
20
-13.500000
30
267.311005
70
192
0
VERTEX
8
OBJECT__38
10
24.934000
20
-13.500000
30
248.811005
70
192
0
VERTEX
8
OBJECT__38
10
23.382000
20
-13.500000
30
248.703003
70
192
0
VERTEX
8
OBJECT__38
10
21.857000
20
-13.500000
30
248.389008
70
192
0
VERTEX
8
OBJECT__38
10
108.000000
20
-13.500000
30
248.811005
70
192
0
VERTEX
8
OBJECT__38
10
0
20
0
30
0
70
128
71
1
72
2
73
3
0
VERTEX
8
OBJECT__38
10
0
20
0
30
0
70
128
71
2
72
4
73
3
0
VERTEX
8
OBJECT__38
10
0
20
0
30
0
70
128
71
2
72
5
73
4
0
VERTEX
8
OBJECT__38
10
0
20
0
30
0
70
128
71
3
72
6
73
1
0
SEQEND
8
OBJECT__38
0
POLYLINE
8
OBJECT__39
66
1
70
64
71
10
72
8
62
253
0
VERTEX
8
OBJECT__39
10
114.928001
20
-9.500000
30
248.811005
70
192
0
VERTEX
8
OBJECT__39
10
114.278999
20
-9.125000
30
248.061005
70
192
0
VERTEX
8
OBJECT__39
10
115.250000
20
-5.500000
30
248.061005
70
192
0
VERTEX
8
OBJECT__39
10
111.625000
20
-11.779000
30
248.061005
70
192
0
VERTEX
8
OBJECT__39
10
113.463997
20
-10.964000
30
248.811005
70
192
0
VERTEX
8
OBJECT__39
10
112.000000
20
-12.428000
30
248.811005
70
192
0
VERTEX
8
OBJECT__39
10
108.000000
20
-13.125000
30
248.436005
70
192
0
VERTEX
8
OBJECT__39
10
108.000000
20
-12.750000
30
248.061005
70
192
0
VERTEX
8
OBJECT__39
10
108.000000
20
-13.500000
30
248.811005
70
192
0
VERTEX
8
OBJECT__39
10
116.000000
20
-5.500000
30
248.811005
70
192
0
VERTEX
8
OBJECT__39
10
0
20
0
30
0
70
128
71
1
72
2
73
3
0
VERTEX
8
OBJECT__39
10
0
20
0
30
0
70
128
71
4
72
2
73
5
0
VERTEX
8
OBJECT__39
10
0
20
0
30
0
70
128
71
2
72
1
73
5
0
VERTEX
8
OBJECT__39
10
0
20
0
30
0
70
128
71
6
72
7
73
8
0
VERTEX
8
OBJECT__39
10
0
20
0
30
0
70
128
71
6
72
9
73
7
0
VERTEX
8
OBJECT__39
10
0
20
0
30
0
70
128
71
8
72
4
73
6
0
VERTEX
8
OBJECT__39
10
0
20
0
30
0
70
128
71
5
72
6
73
4
0
VERTEX
8
OBJECT__39
10
0
20
0
30
0
70
128
71
3
72
10
73
1
0
SEQEND
8
OBJECT__39
0
POLYLINE
8
OBJECT__40
66
1
70
64
71
7
72
5
62
253
0
VERTEX
8
OBJECT__40
10
108.000000
20
-13.500000
30
248.811005
70
192
0
VERTEX
8
OBJECT__40
10
24.934000
20
-13.500000
30
248.811005
70
192
0
VERTEX
8
OBJECT__40
10
24.934000
20
-13.437000
30
248.513000
70
192
0
VERTEX
8
OBJECT__40
10
108.000000
20
-13.125000
30
248.436005
70
192
0
VERTEX
8
OBJECT__40
10
24.934999
20
-13.221000
30
248.371002
70
192
0
VERTEX
8
OBJECT__40
10
24.934999
20
-12.750000
30
248.061005
70
192
0
VERTEX
8
OBJECT__40
10
108.000000
20
-12.750000
30
248.061005
70
192
0
VERTEX
8
OBJECT__40
10
0
20
0
30
0
70
128
71
1
72
2
73
3
0
VERTEX
8
OBJECT__40
10
0
20
0
30
0
70
128
71
3
72
4
73
1
0
VERTEX
8
OBJECT__40
10
0
20
0
30
0
70
128
71
4
72
5
73
6
0
VERTEX
8
OBJECT__40
10
0
20
0
30
0
70
128
71
6
72
7
73
4
0
VERTEX
8
OBJECT__40
10
0
20
0
30
0
70
128
71
3
72
5
73
4
0
SEQEND
8
OBJECT__40
0
POLYLINE
8
OBJECT__41
66
1
70
64
71
11
72
9
62
253
0
VERTEX
8
OBJECT__41
10
23.485001
20
-12.807000
30
247.962006
70
192
0
VERTEX
8
OBJECT__41
10
24.934999
20
-12.750000
30
248.061005
70
192
0
VERTEX
8
OBJECT__41
10
24.934999
20
-13.221000
30
248.371002
70
192
0
VERTEX
8
OBJECT__41
10
23.382000
20
-13.500000
30
248.703003
70
192
0
VERTEX
8
OBJECT__41
10
24.934000
20
-13.437000
30
248.513000
70
192
0
VERTEX
8
OBJECT__41
10
23.337000
20
-12.814000
30
247.932007
70
192
0
VERTEX
8
OBJECT__41
10
21.968000
20
-13.264000
30
247.988007
70
192
0
VERTEX
8
OBJECT__41
10
21.926001
20
-13.453000
30
248.139008
70
192
0
VERTEX
8
OBJECT__41
10
22.054001
20
-12.871000
30
247.675003
70
192
0
VERTEX
8
OBJECT__41
10
21.857000
20
-13.500000
30
248.389008
70
192
0
VERTEX
8
OBJECT__41
10
24.934000
20
-13.500000
30
248.811005
70
192
0
VERTEX
8
OBJECT__41
10
0
20
0
30
0
70
128
71
1
72
2
73
3
0
VERTEX
8
OBJECT__41
10
0
20
0
30
0
70
128
71
3
72
4
73
1
0
VERTEX
8
OBJECT__41
10
0
20
0
30
0
70
128
71
3
72
5
73
4
0
VERTEX
8
OBJECT__41
10
0
20
0
30
0
70
128
71
6
72
4
73
7
0
VERTEX
8
OBJECT__41
10
0
20
0
30
0
70
128
71
4
72
8
73
7
0
VERTEX
8
OBJECT__41
10
0
20
0
30
0
70
128
71
7
72
9
73
6
0
VERTEX
8
OBJECT__41
10
0
20
0
30
0
70
128
71
4
72
10
73
8
0
VERTEX
8
OBJECT__41
10
0
20
0
30
0
70
128
71
6
72
1
73
4
0
VERTEX
8
OBJECT__41
10
0
20
0
30
0
70
128
71
5
72
11
73
4
0
SEQEND
8
OBJECT__41
0
POLYLINE
8
OBJECT__42
66
1
70
64
71
7
72
5
62
253
0
VERTEX
8
OBJECT__42
10
10.245000
20
-17.320999
30
290.625000
70
192
0
VERTEX
8
OBJECT__42
10
17.562000
20
10.000000
30
290.424988
70
192
0
VERTEX
8
OBJECT__42
10
20.240999
20
0.000000
30
290.351990
70
192
0
VERTEX
8
OBJECT__42
10
10.245000
20
17.320999
30
290.625000
70
192
0
VERTEX
8
OBJECT__42
10
2.533000
20
19.868999
30
290.835999
70
192
0
VERTEX
8
OBJECT__42
10
17.562000
20
-10.000000
30
290.424988
70
192
0
VERTEX
8
OBJECT__42
10
2.533000
20
-19.868999
30
290.835999
70
192
0
VERTEX
8
OBJECT__42
10
0
20
0
30
0
70
128
71
1
72
2
73
3
0
VERTEX
8
OBJECT__42
10
0
20
0
30
0
70
128
71
1
72
4
73
2
0
VERTEX
8
OBJECT__42
10
0
20
0
30
0
70
128
71
1
72
5
73
4
0
VERTEX
8
OBJECT__42
10
0
20
0
30
0
70
128
71
3
72
6
73
1
0
VERTEX
8
OBJECT__42
10
0
20
0
30
0
70
128
71
1
72
7
73
5
0
SEQEND
8
OBJECT__42
0
POLYLINE
8
OBJECT__43
66
1
70
64
71
16
72
14
62
253
0
VERTEX
8
OBJECT__43
10
-16.445000
20
-9.758000
30
300.744995
70
192
0
VERTEX
8
OBJECT__43
10
2.533000
20
-19.868999
30
290.835999
70
192
0
VERTEX
8
OBJECT__43
10
-9.342000
20
-16.914000
30
297.036011
70
192
0
VERTEX
8
OBJECT__43
10
0.315000
20
-19.632000
30
291.994995
70
192
0
VERTEX
8
OBJECT__43
10
-9.450000
20
17.010000
30
297.092987
70
192
0
VERTEX
8
OBJECT__43
10
-3.362000
20
19.656000
30
293.914001
70
192
0
VERTEX
8
OBJECT__43
10
-16.754999
20
9.956000
30
300.906006
70
192
0
VERTEX
8
OBJECT__43
10
-11.251000
20
16.228001
30
298.032990
70
192
0
VERTEX
8
OBJECT__43
10
-19.198999
20
0.038000
30
302.182007
70
192
0
VERTEX
8
OBJECT__43
10
-19.399000
20
1.384000
30
302.286987
70
192
0
VERTEX
8
OBJECT__43
10
-18.115999
20
-7.221000
30
301.617004
70
192
0
VERTEX
8
OBJECT__43
10
-6.003000
20
-18.959000
30
295.292999
70
192
0
VERTEX
8
OBJECT__43
10
-16.957001
20
9.726000
30
301.011993
70
192
0
VERTEX
8
OBJECT__43
10
-13.350000
20
-14.459000
30
299.127991
70
192
0
VERTEX
8
OBJECT__43
10
0.286000
20
19.788000
30
292.010010
70
192
0
VERTEX
8
OBJECT__43
10
2.533000
20
19.868999
30
290.835999
70
192
0
VERTEX
8
OBJECT__43
10
0
20
0
30
0
70
128
71
1
72
2
73
3
0
VERTEX
8
OBJECT__43
10
0
20
0
30
0
70
128
71
3
72
2
73
4
0
VERTEX
8
OBJECT__43
10
0
20
0
30
0
70
128
71
2
72
5
73
6
0
VERTEX
8
OBJECT__43
10
0
20
0
30
0
70
128
71
2
72
7
73
8
0
VERTEX
8
OBJECT__43
10
0
20
0
30
0
70
128
71
2
72
9
73
10
0
VERTEX
8
OBJECT__43
10
0
20
0
30
0
70
128
71
2
72
1
73
11
0
VERTEX
8
OBJECT__43
10
0
20
0
30
0
70
128
71
4
72
12
73
3
0
VERTEX
8
OBJECT__43
10
0
20
0
30
0
70
128
71
8
72
5
73
2
0
VERTEX
8
OBJECT__43
10
0
20
0
30
0
70
128
71
10
72
13
73
2
0
VERTEX
8
OBJECT__43
10
0
20
0
30
0
70
128
71
3
72
14
73
1
0
VERTEX
8
OBJECT__43
10
0
20
0
30
0
70
128
71
6
72
15
73
2
0
VERTEX
8
OBJECT__43
10
0
20
0
30
0
70
128
71
11
72
9
73
2
0
VERTEX
8
OBJECT__43
10
0
20
0
30
0
70
128
71
13
72
7
73
2
0
VERTEX
8
OBJECT__43
10
0
20
0
30
0
70
128
71
15
72
16
73
2
0
SEQEND
8
OBJECT__43
0
POLYLINE
8
OBJECT__45
66
1
70
64
71
53
72
53
62
253
0
VERTEX
8
OBJECT__45
10
5.194000
20
-19.566999
30
320.295990
70
192
0
VERTEX
8
OBJECT__45
10
1.056000
20
-20.000000
30
320.388000
70
192
0
VERTEX
8
OBJECT__45
10
0.315000
20
-19.632000
30
291.994995
70
192
0
VERTEX
8
OBJECT__45
10
2.533000
20
-19.868999
30
290.835999
70
192
0
VERTEX
8
OBJECT__45
10
10.245000
20
-17.320999
30
290.625000
70
192
0
VERTEX
8
OBJECT__45
10
7.670000
20
-18.874001
30
320.261993
70
192
0
VERTEX
8
OBJECT__45
10
11.038000
20
-17.283001
30
320.240997
70
192
0
VERTEX
8
OBJECT__45
10
-6.595000
20
-18.478001
30
320.596985
70
192
0
VERTEX
8
OBJECT__45
10
-8.751000
20
-17.037001
30
320.656006
70
192
0
VERTEX
8
OBJECT__45
10
-9.342000
20
-16.914000
30
297.036011
70
192
0
VERTEX
8
OBJECT__45
10
-6.003000
20
-18.959000
30
295.292999
70
192
0
VERTEX
8
OBJECT__45
10
-13.081000
20
-14.142000
30
320.774994
70
192
0
VERTEX
8
OBJECT__45
10
-15.975000
20
-9.810000
30
320.854004
70
192
0
VERTEX
8
OBJECT__45
10
-16.445000
20
-9.758000
30
300.744995
70
192
0
VERTEX
8
OBJECT__45
10
-13.350000
20
-14.459000
30
299.127991
70
192
0
VERTEX
8
OBJECT__45
10
-17.415001
20
-7.654000
30
320.894012
70
192
0
VERTEX
8
OBJECT__45
10
-18.937000
20
0.000000
30
320.934998
70
192
0
VERTEX
8
OBJECT__45
10
-19.198999
20
0.038000
30
302.182007
70
192
0
VERTEX
8
OBJECT__45
10
-18.115999
20
-7.221000
30
301.617004
70
192
0
VERTEX
8
OBJECT__45
10
-17.415001
20
7.654000
30
320.894012
70
192
0
VERTEX
8
OBJECT__45
10
-16.957001
20
9.726000
30
301.011993
70
192
0
VERTEX
8
OBJECT__45
10
-19.399000
20
1.384000
30
302.286987
70
192
0
VERTEX
8
OBJECT__45
10
-15.975000
20
9.810000
30
320.854004
70
192
0
VERTEX
8
OBJECT__45
10
-16.754999
20
9.956000
30
300.906006
70
192
0
VERTEX
8
OBJECT__45
10
-13.081000
20
14.142000
30
320.774994
70
192
0
VERTEX
8
OBJECT__45
10
-11.251000
20
16.228001
30
298.032990
70
192
0
VERTEX
8
OBJECT__45
10
-8.751000
20
17.037001
30
320.656006
70
192
0
VERTEX
8
OBJECT__45
10
-9.450000
20
17.010000
30
297.092987
70
192
0
VERTEX
8
OBJECT__45
10
1.056000
20
20.000000
30
320.388000
70
192
0
VERTEX
8
OBJECT__45
10
-3.362000
20
19.656000
30
293.914001
70
192
0
VERTEX
8
OBJECT__45
10
-6.595000
20
18.478001
30
320.596985
70
192
0
VERTEX
8
OBJECT__45
10
0.286000
20
19.788000
30
292.010010
70
192
0
VERTEX
8
OBJECT__45
10
2.533000
20
19.868999
30
290.835999
70
192
0
VERTEX
8
OBJECT__45
10
5.455000
20
19.510000
30
320.291992
70
192
0
VERTEX
8
OBJECT__45
10
7.928000
20
18.782000
30
320.259003
70
192
0
VERTEX
8
OBJECT__45
10
10.245000
20
17.320999
30
290.625000
70
192
0
VERTEX
8
OBJECT__45
10
17.562000
20
10.000000
30
290.424988
70
192
0
VERTEX
8
OBJECT__45
10
17.677000
20
10.714000
30
310.428986
70
192
0
VERTEX
8
OBJECT__45
10
13.757000
20
15.450000
30
320.242004
70
192
0
VERTEX
8
OBJECT__45
10
16.683001
20
12.485000
30
320.265015
70
192
0
VERTEX
8
OBJECT__45
10
11.668000
20
16.952000
30
320.238007
70
192
0
VERTEX
8
OBJECT__45
10
11.028000
20
17.264999
30
320.242004
70
192
0
VERTEX
8
OBJECT__45
10
17.947001
20
10.714000
30
320.282013
70
192
0
VERTEX
8
OBJECT__45
10
18.110001
20
10.000000
30
310.416992
70
192
0
VERTEX
8
OBJECT__45
10
20.788000
20
0.000000
30
310.343994
70
192
0
VERTEX
8
OBJECT__45
10
20.240999
20
0.000000
30
290.351990
70
192
0
VERTEX
8
OBJECT__45
10
18.110001
20
-10.000000
30
310.416992
70
192
0
VERTEX
8
OBJECT__45
10
13.541000
20
-15.625000
30
320.240997
70
192
0
VERTEX
8
OBJECT__45
10
17.677000
20
-10.714000
30
310.428986
70
192
0
VERTEX
8
OBJECT__45
10
17.947001
20
-10.714000
30
320.282013
70
192
0
VERTEX
8
OBJECT__45
10
16.507999
20
-12.701000
30
320.263000
70
192
0
VERTEX
8
OBJECT__45
10
11.435000
20
-17.096001
30
320.238007
70
192
0
VERTEX
8
OBJECT__45
10
17.562000
20
-10.000000
30
290.424988
70
192
0
VERTEX
8
OBJECT__45
10
0
20
0
30
0
70
128
71
1
72
2
73
3
0
VERTEX
8
OBJECT__45
10
0
20
0
30
0
70
128
71
4
72
5
73
6
0
VERTEX
8
OBJECT__45
10
0
20
0
30
0
70
128
71
5
72
7
73
6
0
VERTEX
8
OBJECT__45
10
0
20
0
30
0
70
128
71
6
72
1
73
4
0
VERTEX
8
OBJECT__45
10
0
20
0
30
0
70
128
71
8
72
9
73
10
0
VERTEX
8
OBJECT__45
10
0
20
0
30
0
70
128
71
11
72
2
73
8
0
VERTEX
8
OBJECT__45
10
0
20
0
30
0
70
128
71
10
72
11
73
8
0
VERTEX
8
OBJECT__45
10
0
20
0
30
0
70
128
71
12
72
13
73
14
0
VERTEX
8
OBJECT__45
10
0
20
0
30
0
70
128
71
15
72
9
73
12
0
VERTEX
8
OBJECT__45
10
0
20
0
30
0
70
128
71
14
72
15
73
12
0
VERTEX
8
OBJECT__45
10
0
20
0
30
0
70
128
71
16
72
17
73
18
0
VERTEX
8
OBJECT__45
10
0
20
0
30
0
70
128
71
19
72
13
73
16
0
VERTEX
8
OBJECT__45
10
0
20
0
30
0
70
128
71
18
72
19
73
16
0
VERTEX
8
OBJECT__45
10
0
20
0
30
0
70
128
71
20
72
21
73
22
0
VERTEX
8
OBJECT__45
10
0
20
0
30
0
70
128
71
22
72
17
73
20
0
VERTEX
8
OBJECT__45
10
0
20
0
30
0
70
128
71
23
72
24
73
21
0
VERTEX
8
OBJECT__45
10
0
20
0
30
0
70
128
71
20
72
23
73
21
0
VERTEX
8
OBJECT__45
10
0
20
0
30
0
70
128
71
25
72
26
73
24
0
VERTEX
8
OBJECT__45
10
0
20
0
30
0
70
128
71
24
72
23
73
25
0
VERTEX
8
OBJECT__45
10
0
20
0
30
0
70
128
71
27
72
28
73
26
0
VERTEX
8
OBJECT__45
10
0
20
0
30
0
70
128
71
29
72
30
73
28
0
VERTEX
8
OBJECT__45
10
0
20
0
30
0
70
128
71
28
72
27
73
31
0
VERTEX
8
OBJECT__45
10
0
20
0
30
0
70
128
71
29
72
32
73
30
0
VERTEX
8
OBJECT__45
10
0
20
0
30
0
70
128
71
33
72
34
73
35
0
VERTEX
8
OBJECT__45
10
0
20
0
30
0
70
128
71
35
72
36
73
33
0
VERTEX
8
OBJECT__45
10
0
20
0
30
0
70
128
71
34
72
33
73
32
0
VERTEX
8
OBJECT__45
10
0
20
0
30
0
70
128
71
32
72
29
73
34
0
VERTEX
8
OBJECT__45
10
0
20
0
30
0
70
128
71
37
72
36
73
38
0
VERTEX
8
OBJECT__45
10
0
20
0
30
0
70
128
71
39
72
40
73
38
0
VERTEX
8
OBJECT__45
10
0
20
0
30
0
70
128
71
38
72
36
73
39
0
VERTEX
8
OBJECT__45
10
0
20
0
30
0
70
128
71
36
72
41
73
39
0
VERTEX
8
OBJECT__45
10
0
20
0
30
0
70
128
71
36
72
42
73
41
0
VERTEX
8
OBJECT__45
10
0
20
0
30
0
70
128
71
40
72
43
73
38
0
VERTEX
8
OBJECT__45
10
0
20
0
30
0
70
128
71
44
72
45
73
46
0
VERTEX
8
OBJECT__45
10
0
20
0
30
0
70
128
71
46
72
45
73
47
0
VERTEX
8
OBJECT__45
10
0
20
0
30
0
70
128
71
48
72
5
73
49
0
VERTEX
8
OBJECT__45
10
0
20
0
30
0
70
128
71
49
72
50
73
51
0
VERTEX
8
OBJECT__45
10
0
20
0
30
0
70
128
71
49
72
51
73
48
0
VERTEX
8
OBJECT__45
10
0
20
0
30
0
70
128
71
48
72
52
73
5
0
VERTEX
8
OBJECT__45
10
0
20
0
30
0
70
128
71
53
72
47
73
49
0
VERTEX
8
OBJECT__45
10
0
20
0
30
0
70
128
71
49
72
5
73
53
0
VERTEX
8
OBJECT__45
10
0
20
0
30
0
70
128
71
52
72
7
73
5
0
VERTEX
8
OBJECT__45
10
0
20
0
30
0
70
128
71
47
72
53
73
46
0
VERTEX
8
OBJECT__45
10
0
20
0
30
0
70
128
71
46
72
37
73
44
0
VERTEX
8
OBJECT__45
10
0
20
0
30
0
70
128
71
38
72
44
73
37
0
VERTEX
8
OBJECT__45
10
0
20
0
30
0
70
128
71
35
72
42
73
36
0
VERTEX
8
OBJECT__45
10
0
20
0
30
0
70
128
71
28
72
31
73
29
0
VERTEX
8
OBJECT__45
10
0
20
0
30
0
70
128
71
25
72
27
73
26
0
VERTEX
8
OBJECT__45
10
0
20
0
30
0
70
128
71
22
72
18
73
17
0
VERTEX
8
OBJECT__45
10
0
20
0
30
0
70
128
71
19
72
14
73
13
0
VERTEX
8
OBJECT__45
10
0
20
0
30
0
70
128
71
15
72
10
73
9
0
VERTEX
8
OBJECT__45
10
0
20
0
30
0
70
128
71
11
72
3
73
2
0
VERTEX
8
OBJECT__45
10
0
20
0
30
0
70
128
71
3
72
4
73
1
0
SEQEND
8
OBJECT__45
0
POLYLINE
8
OBJECT__46
66
1
70
64
71
14
72
12
62
253
0
VERTEX
8
OBJECT__46
10
1.069000
20
0.000000
30
320.888000
70
192
0
VERTEX
8
OBJECT__46
10
-13.081000
20
-14.142000
30
320.774994
70
192
0
VERTEX
8
OBJECT__46
10
-8.751000
20
-17.037001
30
320.656006
70
192
0
VERTEX
8
OBJECT__46
10
-17.415001
20
-7.654000
30
320.894012
70
192
0
VERTEX
8
OBJECT__46
10
-15.975000
20
-9.810000
30
320.854004
70
192
0
VERTEX
8
OBJECT__46
10
-13.081000
20
14.142000
30
320.774994
70
192
0
VERTEX
8
OBJECT__46
10
-15.975000
20
9.810000
30
320.854004
70
192
0
VERTEX
8
OBJECT__46
10
-6.595000
20
18.478001
30
320.596985
70
192
0
VERTEX
8
OBJECT__46
10
-8.751000
20
17.037001
30
320.656006
70
192
0
VERTEX
8
OBJECT__46
10
1.056000
20
20.000000
30
320.388000
70
192
0
VERTEX
8
OBJECT__46
10
-17.415001
20
7.654000
30
320.894012
70
192
0
VERTEX
8
OBJECT__46
10
-18.937000
20
0.000000
30
320.934998
70
192
0
VERTEX
8
OBJECT__46
10
-6.595000
20
-18.478001
30
320.596985
70
192
0
VERTEX
8
OBJECT__46
10
1.056000
20
-20.000000
30
320.388000
70
192
0
VERTEX
8
OBJECT__46
10
0
20
0
30
0
70
128
71
1
72
2
73
3
0
VERTEX
8
OBJECT__46
10
0
20
0
30
0
70
128
71
1
72
4
73
5
0
VERTEX
8
OBJECT__46
10
0
20
0
30
0
70
128
71
1
72
6
73
7
0
VERTEX
8
OBJECT__46
10
0
20
0
30
0
70
128
71
1
72
8
73
9
0
VERTEX
8
OBJECT__46
10
0
20
0
30
0
70
128
71
10
72
8
73
1
0
VERTEX
8
OBJECT__46
10
0
20
0
30
0
70
128
71
9
72
6
73
1
0
VERTEX
8
OBJECT__46
10
0
20
0
30
0
70
128
71
7
72
11
73
1
0
VERTEX
8
OBJECT__46
10
0
20
0
30
0
70
128
71
11
72
12
73
1
0
VERTEX
8
OBJECT__46
10
0
20
0
30
0
70
128
71
12
72
4
73
1
0
VERTEX
8
OBJECT__46
10
0
20
0
30
0
70
128
71
5
72
2
73
1
0
VERTEX
8
OBJECT__46
10
0
20
0
30
0
70
128
71
3
72
13
73
1
0
VERTEX
8
OBJECT__46
10
0
20
0
30
0
70
128
71
13
72
14
73
1
0
SEQEND
8
OBJECT__46
0
POLYLINE
8
OBJECT__47
66
1
70
64
71
8
72
6
62
253
0
VERTEX
8
OBJECT__47
10
17.677000
20
10.714000
30
310.428986
70
192
0
VERTEX
8
OBJECT__47
10
17.947001
20
10.714000
30
320.282013
70
192
0
VERTEX
8
OBJECT__47
10
19.705999
20
8.752000
30
320.282013
70
192
0
VERTEX
8
OBJECT__47
10
20.577000
20
7.990000
30
310.350006
70
192
0
VERTEX
8
OBJECT__47
10
24.430000
20
7.000000
30
310.243988
70
192
0
VERTEX
8
OBJECT__47
10
22.055000
20
7.451000
30
320.243988
70
192
0
VERTEX
8
OBJECT__47
10
20.903000
20
8.089000
30
320.261993
70
192
0
VERTEX
8
OBJECT__47
10
24.702000
20
7.000000
30
320.178986
70
192
0
VERTEX
8
OBJECT__47
10
0
20
0
30
0
70
128
71
1
72
2
73
3
0
VERTEX
8
OBJECT__47
10
0
20
0
30
0
70
128
71
3
72
4
73
1
0
VERTEX
8
OBJECT__47
10
0
20
0
30
0
70
128
71
5
72
4
73
6
0
VERTEX
8
OBJECT__47
10
0
20
0
30
0
70
128
71
4
72
7
73
6
0
VERTEX
8
OBJECT__47
10
0
20
0
30
0
70
128
71
6
72
8
73
5
0
VERTEX
8
OBJECT__47
10
0
20
0
30
0
70
128
71
3
72
7
73
4
0
SEQEND
8
OBJECT__47
0
POLYLINE
8
OBJECT__48
66
1
70
64
71
4
72
2
62
253
0
VERTEX
8
OBJECT__48
10
78.039001
20
7.000000
30
318.718994
70
192
0
VERTEX
8
OBJECT__48
10
77.766998
20
7.000000
30
308.783997
70
192
0
VERTEX
8
OBJECT__48
10
24.430000
20
7.000000
30
310.243988
70
192
0
VERTEX
8
OBJECT__48
10
24.702000
20
7.000000
30
320.178986
70
192
0
VERTEX
8
OBJECT__48
10
0
20
0
30
0
70
128
71
1
72
2
73
3
0
VERTEX
8
OBJECT__48
10
0
20
0
30
0
70
128
71
3
72
4
73
1
0
SEQEND
8
OBJECT__48
0
POLYLINE
8
OBJECT__49
66
1
70
64
71
8
72
6
62
253
0
VERTEX
8
OBJECT__49
10
79.887001
20
6.121000
30
308.726013
70
192
0
VERTEX
8
OBJECT__49
10
77.766998
20
7.000000
30
308.783997
70
192
0
VERTEX
8
OBJECT__49
10
78.039001
20
7.000000
30
318.718994
70
192
0
VERTEX
8
OBJECT__49
10
80.765999
20
4.000000
30
308.701996
70
192
0
VERTEX
8
OBJECT__49
10
80.582001
20
5.591000
30
318.671997
70
192
0
VERTEX
8
OBJECT__49
10
80.964996
20
4.659000
30
318.673004
70
192
0
VERTEX
8
OBJECT__49
10
80.033997
20
5.894000
30
318.682007
70
192
0
VERTEX
8
OBJECT__49
10
81.039001
20
4.000000
30
318.678009
70
192
0
VERTEX
8
OBJECT__49
10
0
20
0
30
0
70
128
71
1
72
2
73
3
0
VERTEX
8
OBJECT__49
10
0
20
0
30
0
70
128
71
4
72
1
73
5
0
VERTEX
8
OBJECT__49
10
0
20
0
30
0
70
128
71
5
72
6
73
4
0
VERTEX
8
OBJECT__49
10
0
20
0
30
0
70
128
71
1
72
7
73
5
0
VERTEX
8
OBJECT__49
10
0
20
0
30
0
70
128
71
6
72
8
73
4
0
VERTEX
8
OBJECT__49
10
0
20
0
30
0
70
128
71
3
72
7
73
1
0
SEQEND
8
OBJECT__49
0
POLYLINE
8
OBJECT__50
66
1
70
64
71
4
72
2
62
253
0
VERTEX
8
OBJECT__50
10
81.039001
20
-4.000000
30
318.678009
70
192
0
VERTEX
8
OBJECT__50
10
80.765999
20
-4.000000
30
308.701996
70
192
0
VERTEX
8
OBJECT__50
10
80.765999
20
4.000000
30
308.701996
70
192
0
VERTEX
8
OBJECT__50
10
81.039001
20
4.000000
30
318.678009
70
192
0
VERTEX
8
OBJECT__50
10
0
20
0
30
0
70
128
71
1
72
2
73
3
0
VERTEX
8
OBJECT__50
10
0
20
0
30
0
70
128
71
3
72
4
73
1
0
SEQEND
8
OBJECT__50
0
POLYLINE
8
OBJECT__51
66
1
70
64
71
35
72
33
62
253
0
VERTEX
8
OBJECT__51
10
19.747000
20
-8.720000
30
320.281006
70
192
0
VERTEX
8
OBJECT__51
10
7.928000
20
18.782000
30
320.259003
70
192
0
VERTEX
8
OBJECT__51
10
5.455000
20
19.510000
30
320.291992
70
192
0
VERTEX
8
OBJECT__51
10
11.028000
20
17.264999
30
320.242004
70
192
0
VERTEX
8
OBJECT__51
10
13.757000
20
15.450000
30
320.242004
70
192
0
VERTEX
8
OBJECT__51
10
11.668000
20
16.952000
30
320.238007
70
192
0
VERTEX
8
OBJECT__51
10
16.683001
20
12.485000
30
320.265015
70
192
0
VERTEX
8
OBJECT__51
10
17.947001
20
10.714000
30
320.282013
70
192
0
VERTEX
8
OBJECT__51
10
19.705999
20
8.752000
30
320.282013
70
192
0
VERTEX
8
OBJECT__51
10
22.055000
20
7.451000
30
320.243988
70
192
0
VERTEX
8
OBJECT__51
10
20.903000
20
8.089000
30
320.261993
70
192
0
VERTEX
8
OBJECT__51
10
22.104000
20
-7.434000
30
320.243011
70
192
0
VERTEX
8
OBJECT__51
10
24.702000
20
-7.000000
30
320.178986
70
192
0
VERTEX
8
OBJECT__51
10
24.702000
20
7.000000
30
320.178986
70
192
0
VERTEX
8
OBJECT__51
10
79.932999
20
-5.995000
30
318.682007
70
192
0
VERTEX
8
OBJECT__51
10
80.033997
20
5.894000
30
318.682007
70
192
0
VERTEX
8
OBJECT__51
10
78.039001
20
7.000000
30
318.718994
70
192
0
VERTEX
8
OBJECT__51
10
81.039001
20
4.000000
30
318.678009
70
192
0
VERTEX
8
OBJECT__51
10
80.964996
20
4.659000
30
318.673004
70
192
0
VERTEX
8
OBJECT__51
10
81.039001
20
-4.000000
30
318.678009
70
192
0
VERTEX
8
OBJECT__51
10
80.582001
20
5.591000
30
318.671997
70
192
0
VERTEX
8
OBJECT__51
10
78.039001
20
-7.000000
30
318.718994
70
192
0
VERTEX
8
OBJECT__51
10
78.696999
20
-6.927000
30
318.701996
70
192
0
VERTEX
8
OBJECT__51
10
79.628998
20
-6.544000
30
318.683014
70
192
0
VERTEX
8
OBJECT__51
10
20.903000
20
-8.089000
30
320.261993
70
192
0
VERTEX
8
OBJECT__51
10
1.056000
20
20.000000
30
320.388000
70
192
0
VERTEX
8
OBJECT__51
10
1.069000
20
0.000000
30
320.888000
70
192
0
VERTEX
8
OBJECT__51
10
11.038000
20
-17.283001
30
320.240997
70
192
0
VERTEX
8
OBJECT__51
10
11.435000
20
-17.096001
30
320.238007
70
192
0
VERTEX
8
OBJECT__51
10
13.541000
20
-15.625000
30
320.240997
70
192
0
VERTEX
8
OBJECT__51
10
16.507999
20
-12.701000
30
320.263000
70
192
0
VERTEX
8
OBJECT__51
10
1.056000
20
-20.000000
30
320.388000
70
192
0
VERTEX
8
OBJECT__51
10
5.194000
20
-19.566999
30
320.295990
70
192
0
VERTEX
8
OBJECT__51
10
7.670000
20
-18.874001
30
320.261993
70
192
0
VERTEX
8
OBJECT__51
10
17.947001
20
-10.714000
30
320.282013
70
192
0
VERTEX
8
OBJECT__51
10
0
20
0
30
0
70
128
71
1
72
2
73
3
0
VERTEX
8
OBJECT__51
10
0
20
0
30
0
70
128
71
1
72
4
73
2
0
VERTEX
8
OBJECT__51
10
0
20
0
30
0
70
128
71
1
72
5
73
6
0
VERTEX
8
OBJECT__51
10
0
20
0
30
0
70
128
71
1
72
7
73
5
0
VERTEX
8
OBJECT__51
10
0
20
0
30
0
70
128
71
1
72
8
73
7
0
VERTEX
8
OBJECT__51
10
0
20
0
30
0
70
128
71
6
72
4
73
1
0
VERTEX
8
OBJECT__51
10
0
20
0
30
0
70
128
71
1
72
9
73
8
0
VERTEX
8
OBJECT__51
10
0
20
0
30
0
70
128
71
1
72
10
73
11
0
VERTEX
8
OBJECT__51
10
0
20
0
30
0
70
128
71
11
72
9
73
1
0
VERTEX
8
OBJECT__51
10
0
20
0
30
0
70
128
71
12
72
13
73
14
0
VERTEX
8
OBJECT__51
10
0
20
0
30
0
70
128
71
15
72
16
73
17
0
VERTEX
8
OBJECT__51
10
0
20
0
30
0
70
128
71
16
72
18
73
19
0
VERTEX
8
OBJECT__51
10
0
20
0
30
0
70
128
71
15
72
20
73
18
0
VERTEX
8
OBJECT__51
10
0
20
0
30
0
70
128
71
18
72
16
73
15
0
VERTEX
8
OBJECT__51
10
0
20
0
30
0
70
128
71
19
72
21
73
16
0
VERTEX
8
OBJECT__51
10
0
20
0
30
0
70
128
71
15
72
22
73
23
0
VERTEX
8
OBJECT__51
10
0
20
0
30
0
70
128
71
14
72
13
73
22
0
VERTEX
8
OBJECT__51
10
0
20
0
30
0
70
128
71
22
72
15
73
14
0
VERTEX
8
OBJECT__51
10
0
20
0
30
0
70
128
71
23
72
24
73
15
0
VERTEX
8
OBJECT__51
10
0
20
0
30
0
70
128
71
17
72
14
73
15
0
VERTEX
8
OBJECT__51
10
0
20
0
30
0
70
128
71
10
72
1
73
25
0
VERTEX
8
OBJECT__51
10
0
20
0
30
0
70
128
71
25
72
12
73
10
0
VERTEX
8
OBJECT__51
10
0
20
0
30
0
70
128
71
14
72
10
73
12
0
VERTEX
8
OBJECT__51
10
0
20
0
30
0
70
128
71
1
72
26
73
27
0
VERTEX
8
OBJECT__51
10
0
20
0
30
0
70
128
71
27
72
28
73
29
0
VERTEX
8
OBJECT__51
10
0
20
0
30
0
70
128
71
29
72
30
73
27
0
VERTEX
8
OBJECT__51
10
0
20
0
30
0
70
128
71
30
72
31
73
27
0
VERTEX
8
OBJECT__51
10
0
20
0
30
0
70
128
71
27
72
32
73
33
0
VERTEX
8
OBJECT__51
10
0
20
0
30
0
70
128
71
33
72
34
73
27
0
VERTEX
8
OBJECT__51
10
0
20
0
30
0
70
128
71
34
72
28
73
27
0
VERTEX
8
OBJECT__51
10
0
20
0
30
0
70
128
71
31
72
35
73
27
0
VERTEX
8
OBJECT__51
10
0
20
0
30
0
70
128
71
27
72
35
73
1
0
VERTEX
8
OBJECT__51
10
0
20
0
30
0
70
128
71
3
72
26
73
1
0
SEQEND
8
OBJECT__51
0
POLYLINE
8
OBJECT__52
66
1
70
64
71
15
72
13
62
253
0
VERTEX
8
OBJECT__52
10
20.788000
20
0.000000
30
310.343994
70
192
0
VERTEX
8
OBJECT__52
10
80.765999
20
-4.000000
30
308.701996
70
192
0
VERTEX
8
OBJECT__52
10
77.766998
20
-7.000000
30
308.783997
70
192
0
VERTEX
8
OBJECT__52
10
24.430000
20
7.000000
30
310.243988
70
192
0
VERTEX
8
OBJECT__52
10
77.766998
20
7.000000
30
308.783997
70
192
0
VERTEX
8
OBJECT__52
10
79.887001
20
-6.121000
30
308.726013
70
192
0
VERTEX
8
OBJECT__52
10
80.765999
20
4.000000
30
308.701996
70
192
0
VERTEX
8
OBJECT__52
10
20.577000
20
7.990000
30
310.350006
70
192
0
VERTEX
8
OBJECT__52
10
18.110001
20
10.000000
30
310.416992
70
192
0
VERTEX
8
OBJECT__52
10
20.577000
20
-7.990000
30
310.350006
70
192
0
VERTEX
8
OBJECT__52
10
17.677000
20
-10.714000
30
310.428986
70
192
0
VERTEX
8
OBJECT__52
10
18.110001
20
-10.000000
30
310.416992
70
192
0
VERTEX
8
OBJECT__52
10
24.430000
20
-7.000000
30
310.243988
70
192
0
VERTEX
8
OBJECT__52
10
17.677000
20
10.714000
30
310.428986
70
192
0
VERTEX
8
OBJECT__52
10
79.887001
20
6.121000
30
308.726013
70
192
0
VERTEX
8
OBJECT__52
10
0
20
0
30
0
70
128
71
1
72
2
73
3
0
VERTEX
8
OBJECT__52
10
0
20
0
30
0
70
128
71
1
72
4
73
5
0
VERTEX
8
OBJECT__52
10
0
20
0
30
0
70
128
71
2
72
6
73
3
0
VERTEX
8
OBJECT__52
10
0
20
0
30
0
70
128
71
5
72
7
73
1
0
VERTEX
8
OBJECT__52
10
0
20
0
30
0
70
128
71
1
72
7
73
2
0
VERTEX
8
OBJECT__52
10
0
20
0
30
0
70
128
71
1
72
8
73
4
0
VERTEX
8
OBJECT__52
10
0
20
0
30
0
70
128
71
8
72
1
73
9
0
VERTEX
8
OBJECT__52
10
0
20
0
30
0
70
128
71
10
72
11
73
12
0
VERTEX
8
OBJECT__52
10
0
20
0
30
0
70
128
71
3
72
13
73
1
0
VERTEX
8
OBJECT__52
10
0
20
0
30
0
70
128
71
9
72
14
73
8
0
VERTEX
8
OBJECT__52
10
0
20
0
30
0
70
128
71
13
72
10
73
1
0
VERTEX
8
OBJECT__52
10
0
20
0
30
0
70
128
71
12
72
1
73
10
0
VERTEX
8
OBJECT__52
10
0
20
0
30
0
70
128
71
5
72
15
73
7
0
SEQEND
8
OBJECT__52
0
POLYLINE
8
OBJECT__53
66
1
70
64
71
4
72
2
62
253
0
VERTEX
8
OBJECT__53
10
78.039001
20
-7.000000
30
318.718994
70
192
0
VERTEX
8
OBJECT__53
10
24.702000
20
-7.000000
30
320.178986
70
192
0
VERTEX
8
OBJECT__53
10
24.430000
20
-7.000000
30
310.243988
70
192
0
VERTEX
8
OBJECT__53
10
77.766998
20
-7.000000
30
308.783997
70
192
0
VERTEX
8
OBJECT__53
10
0
20
0
30
0
70
128
71
1
72
2
73
3
0
VERTEX
8
OBJECT__53
10
0
20
0
30
0
70
128
71
3
72
4
73
1
0
SEQEND
8
OBJECT__53
0
POLYLINE
8
OBJECT__54
66
1
70
64
71
8
72
6
62
253
0
VERTEX
8
OBJECT__54
10
80.765999
20
-4.000000
30
308.701996
70
192
0
VERTEX
8
OBJECT__54
10
81.039001
20
-4.000000
30
318.678009
70
192
0
VERTEX
8
OBJECT__54
10
79.932999
20
-5.995000
30
318.682007
70
192
0
VERTEX
8
OBJECT__54
10
79.887001
20
-6.121000
30
308.726013
70
192
0
VERTEX
8
OBJECT__54
10
79.628998
20
-6.544000
30
318.683014
70
192
0
VERTEX
8
OBJECT__54
10
78.696999
20
-6.927000
30
318.701996
70
192
0
VERTEX
8
OBJECT__54
10
77.766998
20
-7.000000
30
308.783997
70
192
0
VERTEX
8
OBJECT__54
10
78.039001
20
-7.000000
30
318.718994
70
192
0
VERTEX
8
OBJECT__54
10
0
20
0
30
0
70
128
71
1
72
2
73
3
0
VERTEX
8
OBJECT__54
10
0
20
0
30
0
70
128
71
4
72
5
73
6
0
VERTEX
8
OBJECT__54
10
0
20
0
30
0
70
128
71
6
72
7
73
4
0
VERTEX
8
OBJECT__54
10
0
20
0
30
0
70
128
71
4
72
3
73
5
0
VERTEX
8
OBJECT__54
10
0
20
0
30
0
70
128
71
6
72
8
73
7
0
VERTEX
8
OBJECT__54
10
0
20
0
30
0
70
128
71
3
72
4
73
1
0
SEQEND
8
OBJECT__54
0
POLYLINE
8
OBJECT__55
66
1
70
64
71
8
72
6
62
253
0
VERTEX
8
OBJECT__55
10
24.430000
20
-7.000000
30
310.243988
70
192
0
VERTEX
8
OBJECT__55
10
24.702000
20
-7.000000
30
320.178986
70
192
0
VERTEX
8
OBJECT__55
10
22.104000
20
-7.434000
30
320.243011
70
192
0
VERTEX
8
OBJECT__55
10
20.577000
20
-7.990000
30
310.350006
70
192
0
VERTEX
8
OBJECT__55
10
17.677000
20
-10.714000
30
310.428986
70
192
0
VERTEX
8
OBJECT__55
10
19.747000
20
-8.720000
30
320.281006
70
192
0
VERTEX
8
OBJECT__55
10
20.903000
20
-8.089000
30
320.261993
70
192
0
VERTEX
8
OBJECT__55
10
17.947001
20
-10.714000
30
320.282013
70
192
0
VERTEX
8
OBJECT__55
10
0
20
0
30
0
70
128
71
1
72
2
73
3
0
VERTEX
8
OBJECT__55
10
0
20
0
30
0
70
128
71
3
72
4
73
1
0
VERTEX
8
OBJECT__55
10
0
20
0
30
0
70
128
71
5
72
4
73
6
0
VERTEX
8
OBJECT__55
10
0
20
0
30
0
70
128
71
4
72
7
73
6
0
VERTEX
8
OBJECT__55
10
0
20
0
30
0
70
128
71
6
72
8
73
5
0
VERTEX
8
OBJECT__55
10
0
20
0
30
0
70
128
71
3
72
7
73
4
0
SEQEND
8
OBJECT__55
0
POLYLINE
8
OBJECT__56
66
1
70
64
71
13
72
11
62
253
0
VERTEX
8
OBJECT__56
10
8.776000
20
-23.142000
30
5.000000
70
192
0
VERTEX
8
OBJECT__56
10
-21.915001
20
-11.502000
30
5.000000
70
192
0
VERTEX
8
OBJECT__56
10
-14.060000
20
-20.368999
30
5.000000
70
192
0
VERTEX
8
OBJECT__56
10
24.031000
20
5.923000
30
5.000000
70
192
0
VERTEX
8
OBJECT__56
10
8.776000
20
23.142000
30
5.000000
70
192
0
VERTEX
8
OBJECT__56
10
-2.983000
20
24.570000
30
5.000000
70
192
0
VERTEX
8
OBJECT__56
10
-14.060000
20
20.368999
30
5.000000
70
192
0
VERTEX
8
OBJECT__56
10
18.525999
20
-16.412001
30
5.000000
70
192
0
VERTEX
8
OBJECT__56
10
24.031000
20
-5.923000
30
5.000000
70
192
0
VERTEX
8
OBJECT__56
10
-24.750000
20
0.000000
30
5.000000
70
192
0
VERTEX
8
OBJECT__56
10
18.525999
20
16.412001
30
5.000000
70
192
0
VERTEX
8
OBJECT__56
10
-21.915001
20
11.502000
30
5.000000
70
192
0
VERTEX
8
OBJECT__56
10
-2.983000
20
-24.570000
30
5.000000
70
192
0
VERTEX
8
OBJECT__56
10
0
20
0
30
0
70
128
71
1
72
2
73
3
0
VERTEX
8
OBJECT__56
10
0
20
0
30
0
70
128
71
4
72
5
73
6
0
VERTEX
8
OBJECT__56
10
0
20
0
30
0
70
128
71
7
72
8
73
9
0
VERTEX
8
OBJECT__56
10
0
20
0
30
0
70
128
71
1
72
10
73
2
0
VERTEX
8
OBJECT__56
10
0
20
0
30
0
70
128
71
4
72
11
73
5
0
VERTEX
8
OBJECT__56
10
0
20
0
30
0
70
128
71
7
72
1
73
8
0
VERTEX
8
OBJECT__56
10
0
20
0
30
0
70
128
71
1
72
12
73
10
0
VERTEX
8
OBJECT__56
10
0
20
0
30
0
70
128
71
9
72
4
73
7
0
VERTEX
8
OBJECT__56
10
0
20
0
30
0
70
128
71
1
72
7
73
12
0
VERTEX
8
OBJECT__56
10
0
20
0
30
0
70
128
71
3
72
13
73
1
0
VERTEX
8
OBJECT__56
10
0
20
0
30
0
70
128
71
6
72
7
73
4
0
SEQEND
8
OBJECT__56
0
POLYLINE
8
OBJECT__57
66
1
70
64
71
26
72
26
62
253
0
VERTEX
8
OBJECT__57
10
-21.915001
20
11.502000
30
5.000000
70
192
0
VERTEX
8
OBJECT__57
10
-21.915001
20
11.502000
30
0.000000
70
192
0
VERTEX
8
OBJECT__57
10
-24.750000
20
0.000000
30
0.000000
70
192
0
VERTEX
8
OBJECT__57
10
-14.060000
20
20.368999
30
5.000000
70
192
0
VERTEX
8
OBJECT__57
10
-14.060000
20
20.368999
30
0.000000
70
192
0
VERTEX
8
OBJECT__57
10
-2.983000
20
24.570000
30
5.000000
70
192
0
VERTEX
8
OBJECT__57
10
-2.983000
20
24.570000
30
0.000000
70
192
0
VERTEX
8
OBJECT__57
10
8.776000
20
23.142000
30
5.000000
70
192
0
VERTEX
8
OBJECT__57
10
8.776000
20
23.142000
30
0.000000
70
192
0
VERTEX
8
OBJECT__57
10
18.525999
20
16.412001
30
5.000000
70
192
0
VERTEX
8
OBJECT__57
10
18.525999
20
16.412001
30
0.000000
70
192
0
VERTEX
8
OBJECT__57
10
24.031000
20
5.923000
30
5.000000
70
192
0
VERTEX
8
OBJECT__57
10
24.031000
20
5.923000
30
0.000000
70
192
0
VERTEX
8
OBJECT__57
10
24.031000
20
-5.923000
30
5.000000
70
192
0
VERTEX
8
OBJECT__57
10
24.031000
20
-5.923000
30
0.000000
70
192
0
VERTEX
8
OBJECT__57
10
18.525999
20
-16.412001
30
5.000000
70
192
0
VERTEX
8
OBJECT__57
10
18.525999
20
-16.412001
30
0.000000
70
192
0
VERTEX
8
OBJECT__57
10
8.776000
20
-23.142000
30
5.000000
70
192
0
VERTEX
8
OBJECT__57
10
8.776000
20
-23.142000
30
0.000000
70
192
0
VERTEX
8
OBJECT__57
10
-2.983000
20
-24.570000
30
5.000000
70
192
0
VERTEX
8
OBJECT__57
10
-2.983000
20
-24.570000
30
0.000000
70
192
0
VERTEX
8
OBJECT__57
10
-14.060000
20
-20.368999
30
5.000000
70
192
0
VERTEX
8
OBJECT__57
10
-14.060000
20
-20.368999
30
0.000000
70
192
0
VERTEX
8
OBJECT__57
10
-21.915001
20
-11.502000
30
5.000000
70
192
0
VERTEX
8
OBJECT__57
10
-21.915001
20
-11.502000
30
0.000000
70
192
0
VERTEX
8
OBJECT__57
10
-24.750000
20
0.000000
30
5.000000
70
192
0
VERTEX
8
OBJECT__57
10
0
20
0
30
0
70
128
71
1
72
2
73
3
0
VERTEX
8
OBJECT__57
10
0
20
0
30
0
70
128
71
4
72
5
73
2
0
VERTEX
8
OBJECT__57
10
0
20
0
30
0
70
128
71
6
72
7
73
5
0
VERTEX
8
OBJECT__57
10
0
20
0
30
0
70
128
71
8
72
9
73
7
0
VERTEX
8
OBJECT__57
10
0
20
0
30
0
70
128
71
10
72
11
73
9
0
VERTEX
8
OBJECT__57
10
0
20
0
30
0
70
128
71
12
72
13
73
11
0
VERTEX
8
OBJECT__57
10
0
20
0
30
0
70
128
71
14
72
15
73
13
0
VERTEX
8
OBJECT__57
10
0
20
0
30
0
70
128
71
16
72
17
73
15
0
VERTEX
8
OBJECT__57
10
0
20
0
30
0
70
128
71
18
72
19
73
17
0
VERTEX
8
OBJECT__57
10
0
20
0
30
0
70
128
71
20
72
21
73
19
0
VERTEX
8
OBJECT__57
10
0
20
0
30
0
70
128
71
22
72
23
73
21
0
VERTEX
8
OBJECT__57
10
0
20
0
30
0
70
128
71
24
72
25
73
23
0
VERTEX
8
OBJECT__57
10
0
20
0
30
0
70
128
71
26
72
3
73
25
0
VERTEX
8
OBJECT__57
10
0
20
0
30
0
70
128
71
25
72
24
73
26
0
VERTEX
8
OBJECT__57
10
0
20
0
30
0
70
128
71
23
72
22
73
24
0
VERTEX
8
OBJECT__57
10
0
20
0
30
0
70
128
71
21
72
20
73
22
0
VERTEX
8
OBJECT__57
10
0
20
0
30
0
70
128
71
19
72
18
73
20
0
VERTEX
8
OBJECT__57
10
0
20
0
30
0
70
128
71
17
72
16
73
18
0
VERTEX
8
OBJECT__57
10
0
20
0
30
0
70
128
71
15
72
14
73
16
0
VERTEX
8
OBJECT__57
10
0
20
0
30
0
70
128
71
13
72
12
73
14
0
VERTEX
8
OBJECT__57
10
0
20
0
30
0
70
128
71
11
72
10
73
12
0
VERTEX
8
OBJECT__57
10
0
20
0
30
0
70
128
71
9
72
8
73
10
0
VERTEX
8
OBJECT__57
10
0
20
0
30
0
70
128
71
7
72
6
73
8
0
VERTEX
8
OBJECT__57
10
0
20
0
30
0
70
128
71
5
72
4
73
6
0
VERTEX
8
OBJECT__57
10
0
20
0
30
0
70
128
71
2
72
1
73
4
0
VERTEX
8
OBJECT__57
10
0
20
0
30
0
70
128
71
3
72
26
73
1
0
SEQEND
8
OBJECT__57
0
POLYLINE
8
OBJECT__59
66
1
70
64
71
13
72
11
62
253
0
VERTEX
8
OBJECT__59
10
-21.915001
20
-11.502000
30
0.000000
70
192
0
VERTEX
8
OBJECT__59
10
8.776000
20
-23.142000
30
0.000000
70
192
0
VERTEX
8
OBJECT__59
10
-2.983000
20
-24.570000
30
0.000000
70
192
0
VERTEX
8
OBJECT__59
10
24.031000
20
-5.923000
30
0.000000
70
192
0
VERTEX
8
OBJECT__59
10
8.776000
20
23.142000
30
0.000000
70
192
0
VERTEX
8
OBJECT__59
10
18.525999
20
16.412001
30
0.000000
70
192
0
VERTEX
8
OBJECT__59
10
-14.060000
20
20.368999
30
0.000000
70
192
0
VERTEX
8
OBJECT__59
10
-2.983000
20
24.570000
30
0.000000
70
192
0
VERTEX
8
OBJECT__59
10
-14.060000
20
-20.368999
30
0.000000
70
192
0
VERTEX
8
OBJECT__59
10
-24.750000
20
0.000000
30
0.000000
70
192
0
VERTEX
8
OBJECT__59
10
18.525999
20
-16.412001
30
0.000000
70
192
0
VERTEX
8
OBJECT__59
10
-21.915001
20
11.502000
30
0.000000
70
192
0
VERTEX
8
OBJECT__59
10
24.031000
20
5.923000
30
0.000000
70
192
0
VERTEX
8
OBJECT__59
10
0
20
0
30
0
70
128
71
1
72
2
73
3
0
VERTEX
8
OBJECT__59
10
0
20
0
30
0
70
128
71
4
72
5
73
6
0
VERTEX
8
OBJECT__59
10
0
20
0
30
0
70
128
71
4
72
7
73
8
0
VERTEX
8
OBJECT__59
10
0
20
0
30
0
70
128
71
3
72
9
73
1
0
VERTEX
8
OBJECT__59
10
0
20
0
30
0
70
128
71
10
72
4
73
11
0
VERTEX
8
OBJECT__59
10
0
20
0
30
0
70
128
71
8
72
5
73
4
0
VERTEX
8
OBJECT__59
10
0
20
0
30
0
70
128
71
4
72
10
73
12
0
VERTEX
8
OBJECT__59
10
0
20
0
30
0
70
128
71
11
72
2
73
10
0
VERTEX
8
OBJECT__59
10
0
20
0
30
0
70
128
71
12
72
7
73
4
0
VERTEX
8
OBJECT__59
10
0
20
0
30
0
70
128
71
6
72
13
73
4
0
VERTEX
8
OBJECT__59
10
0
20
0
30
0
70
128
71
1
72
10
73
2
0
SEQEND
8
OBJECT__59
0
POLYLINE
8
OBJECT__60
66
1
70
64
71
46
72
75
62
253
0
VERTEX
8
OBJECT__60
10
18.150000
20
0.000000
30
289.500000
70
192
0
VERTEX
8
OBJECT__60
10
16.580999
20
7.382000
30
289.500000
70
192
0
VERTEX
8
OBJECT__60
10
12.564000
20
5.594000
30
295.621002
70
192
0
VERTEX
8
OBJECT__60
10
13.753000
20
0.000000
30
295.621002
70
192
0
VERTEX
8
OBJECT__60
10
12.145000
20
13.488000
30
289.500000
70
192
0
VERTEX
8
OBJECT__60
10
9.202000
20
10.220000
30
295.621002
70
192
0
VERTEX
8
OBJECT__60
10
5.609000
20
17.261999
30
289.500000
70
192
0
VERTEX
8
OBJECT__60
10
4.250000
20
13.080000
30
295.621002
70
192
0
VERTEX
8
OBJECT__60
10
-1.897000
20
18.051001
30
289.500000
70
192
0
VERTEX
8
OBJECT__60
10
-1.438000
20
13.677000
30
295.621002
70
192
0
VERTEX
8
OBJECT__60
10
-9.075000
20
15.719000
30
289.500000
70
192
0
VERTEX
8
OBJECT__60
10
-6.876000
20
11.910000
30
295.621002
70
192
0
VERTEX
8
OBJECT__60
10
-14.684000
20
10.669000
30
289.500000
70
192
0
VERTEX
8
OBJECT__60
10
-11.126000
20
8.084000
30
295.621002
70
192
0
VERTEX
8
OBJECT__60
10
-17.754000
20
3.774000
30
289.500000
70
192
0
VERTEX
8
OBJECT__60
10
-13.452000
20
2.859000
30
295.621002
70
192
0
VERTEX
8
OBJECT__60
10
-17.754000
20
-3.774000
30
289.500000
70
192
0
VERTEX
8
OBJECT__60
10
-13.452000
20
-2.859000
30
295.621002
70
192
0
VERTEX
8
OBJECT__60
10
-14.684000
20
-10.669000
30
289.500000
70
192
0
VERTEX
8
OBJECT__60
10
-11.126000
20
-8.084000
30
295.621002
70
192
0
VERTEX
8
OBJECT__60
10
-9.075000
20
-15.719000
30
289.500000
70
192
0
VERTEX
8
OBJECT__60
10
-6.876000
20
-11.910000
30
295.621002
70
192
0
VERTEX
8
OBJECT__60
10
-1.897000
20
-18.051001
30
289.500000
70
192
0
VERTEX
8
OBJECT__60
10
-1.438000
20
-13.677000
30
295.621002
70
192
0
VERTEX
8
OBJECT__60
10
5.609000
20
-17.261999
30
289.500000
70
192
0
VERTEX
8
OBJECT__60
10
4.250000
20
-13.080000
30
295.621002
70
192
0
VERTEX
8
OBJECT__60
10
12.145000
20
-13.488000
30
289.500000
70
192
0
VERTEX
8
OBJECT__60
10
9.202000
20
-10.220000
30
295.621002
70
192
0
VERTEX
8
OBJECT__60
10
16.580999
20
-7.382000
30
289.500000
70
192
0
VERTEX
8
OBJECT__60
10
12.564000
20
-5.594000
30
295.621002
70
192
0
VERTEX
8
OBJECT__60
10
6.762000
20
3.011000
30
299.679993
70
192
0
VERTEX
8
OBJECT__60
10
7.402000
20
0.000000
30
299.679993
70
192
0
VERTEX
8
OBJECT__60
10
4.953000
20
5.501000
30
299.679993
70
192
0
VERTEX
8
OBJECT__60
10
2.287000
20
7.040000
30
299.679993
70
192
0
VERTEX
8
OBJECT__60
10
-0.774000
20
7.361000
30
299.679993
70
192
0
VERTEX
8
OBJECT__60
10
-3.701000
20
6.410000
30
299.679993
70
192
0
VERTEX
8
OBJECT__60
10
-5.988000
20
4.351000
30
299.679993
70
192
0
VERTEX
8
OBJECT__60
10
-7.240000
20
1.539000
30
299.679993
70
192
0
VERTEX
8
OBJECT__60
10
-7.240000
20
-1.539000
30
299.679993
70
192
0
VERTEX
8
OBJECT__60
10
-5.988000
20
-4.351000
30
299.679993
70
192
0
VERTEX
8
OBJECT__60
10
-3.701000
20
-6.410000
30
299.679993
70
192
0
VERTEX
8
OBJECT__60
10
-0.774000
20
-7.361000
30
299.679993
70
192
0
VERTEX
8
OBJECT__60
10
2.287000
20
-7.040000
30
299.679993
70
192
0
VERTEX
8
OBJECT__60
10
4.953000
20
-5.501000
30
299.679993
70
192
0
VERTEX
8
OBJECT__60
10
6.762000
20
-3.011000
30
299.679993
70
192
0
VERTEX
8
OBJECT__60
10
0.000000
20
0.000000
30
301.100006
70
192
0
VERTEX
8
OBJECT__60
10
0
20
0
30
0
70
128
71
1
72
2
73
3
0
VERTEX
8
OBJECT__60
10
0
20
0
30
0
70
128
71
1
72
3
73
4
0
VERTEX
8
OBJECT__60
10
0
20
0
30
0
70
128
71
2
72
5
73
6
0
VERTEX
8
OBJECT__60
10
0
20
0
30
0
70
128
71
2
72
6
73
3
0
VERTEX
8
OBJECT__60
10
0
20
0
30
0
70
128
71
5
72
7
73
8
0
VERTEX
8
OBJECT__60
10
0
20
0
30
0
70
128
71
5
72
8
73
6
0
VERTEX
8
OBJECT__60
10
0
20
0
30
0
70
128
71
7
72
9
73
10
0
VERTEX
8
OBJECT__60
10
0
20
0
30
0
70
128
71
7
72
10
73
8
0
VERTEX
8
OBJECT__60
10
0
20
0
30
0
70
128
71
9
72
11
73
12
0
VERTEX
8
OBJECT__60
10
0
20
0
30
0
70
128
71
9
72
12
73
10
0
VERTEX
8
OBJECT__60
10
0
20
0
30
0
70
128
71
11
72
13
73
14
0
VERTEX
8
OBJECT__60
10
0
20
0
30
0
70
128
71
11
72
14
73
12
0
VERTEX
8
OBJECT__60
10
0
20
0
30
0
70
128
71
13
72
15
73
16
0
VERTEX
8
OBJECT__60
10
0
20
0
30
0
70
128
71
13
72
16
73
14
0
VERTEX
8
OBJECT__60
10
0
20
0
30
0
70
128
71
15
72
17
73
18
0
VERTEX
8
OBJECT__60
10
0
20
0
30
0
70
128
71
15
72
18
73
16
0
VERTEX
8
OBJECT__60
10
0
20
0
30
0
70
128
71
17
72
19
73
20
0
VERTEX
8
OBJECT__60
10
0
20
0
30
0
70
128
71
17
72
20
73
18
0
VERTEX
8
OBJECT__60
10
0
20
0
30
0
70
128
71
19
72
21
73
22
0
VERTEX
8
OBJECT__60
10
0
20
0
30
0
70
128
71
19
72
22
73
20
0
VERTEX
8
OBJECT__60
10
0
20
0
30
0
70
128
71
21
72
23
73
24
0
VERTEX
8
OBJECT__60
10
0
20
0
30
0
70
128
71
21
72
24
73
22
0
VERTEX
8
OBJECT__60
10
0
20
0
30
0
70
128
71
23
72
25
73
26
0
VERTEX
8
OBJECT__60
10
0
20
0
30
0
70
128
71
23
72
26
73
24
0
VERTEX
8
OBJECT__60
10
0
20
0
30
0
70
128
71
25
72
27
73
28
0
VERTEX
8
OBJECT__60
10
0
20
0
30
0
70
128
71
25
72
28
73
26
0
VERTEX
8
OBJECT__60
10
0
20
0
30
0
70
128
71
27
72
29
73
30
0
VERTEX
8
OBJECT__60
10
0
20
0
30
0
70
128
71
27
72
30
73
28
0
VERTEX
8
OBJECT__60
10
0
20
0
30
0
70
128
71
29
72
1
73
4
0
VERTEX
8
OBJECT__60
10
0
20
0
30
0
70
128
71
29
72
4
73
30
0
VERTEX
8
OBJECT__60
10
0
20
0
30
0
70
128
71
4
72
3
73
31
0
VERTEX
8
OBJECT__60
10
0
20
0
30
0
70
128
71
4
72
31
73
32
0
VERTEX
8
OBJECT__60
10
0
20
0
30
0
70
128
71
3
72
6
73
33
0
VERTEX
8
OBJECT__60
10
0
20
0
30
0
70
128
71
3
72
33
73
31
0
VERTEX
8
OBJECT__60
10
0
20
0
30
0
70
128
71
6
72
8
73
34
0
VERTEX
8
OBJECT__60
10
0
20
0
30
0
70
128
71
6
72
34
73
33
0
VERTEX
8
OBJECT__60
10
0
20
0
30
0
70
128
71
8
72
10
73
35
0
VERTEX
8
OBJECT__60
10
0
20
0
30
0
70
128
71
8
72
35
73
34
0
VERTEX
8
OBJECT__60
10
0
20
0
30
0
70
128
71
10
72
12
73
36
0
VERTEX
8
OBJECT__60
10
0
20
0
30
0
70
128
71
10
72
36
73
35
0
VERTEX
8
OBJECT__60
10
0
20
0
30
0
70
128
71
12
72
14
73
37
0
VERTEX
8
OBJECT__60
10
0
20
0
30
0
70
128
71
12
72
37
73
36
0
VERTEX
8
OBJECT__60
10
0
20
0
30
0
70
128
71
14
72
16
73
38
0
VERTEX
8
OBJECT__60
10
0
20
0
30
0
70
128
71
14
72
38
73
37
0
VERTEX
8
OBJECT__60
10
0
20
0
30
0
70
128
71
16
72
18
73
39
0
VERTEX
8
OBJECT__60
10
0
20
0
30
0
70
128
71
16
72
39
73
38
0
VERTEX
8
OBJECT__60
10
0
20
0
30
0
70
128
71
18
72
20
73
40
0
VERTEX
8
OBJECT__60
10
0
20
0
30
0
70
128
71
18
72
40
73
39
0
VERTEX
8
OBJECT__60
10
0
20
0
30
0
70
128
71
20
72
22
73
41
0
VERTEX
8
OBJECT__60
10
0
20
0
30
0
70
128
71
20
72
41
73
40
0
VERTEX
8
OBJECT__60
10
0
20
0
30
0
70
128
71
22
72
24
73
42
0
VERTEX
8
OBJECT__60
10
0
20
0
30
0
70
128
71
22
72
42
73
41
0
VERTEX
8
OBJECT__60
10
0
20
0
30
0
70
128
71
24
72
26
73
43
0
VERTEX
8
OBJECT__60
10
0
20
0
30
0
70
128
71
24
72
43
73
42
0
VERTEX
8
OBJECT__60
10
0
20
0
30
0
70
128
71
26
72
28
73
44
0
VERTEX
8
OBJECT__60
10
0
20
0
30
0
70
128
71
26
72
44
73
43
0
VERTEX
8
OBJECT__60
10
0
20
0
30
0
70
128
71
28
72
30
73
45
0
VERTEX
8
OBJECT__60
10
0
20
0
30
0
70
128
71
28
72
45
73
44
0
VERTEX
8
OBJECT__60
10
0
20
0
30
0
70
128
71
30
72
4
73
32
0
VERTEX
8
OBJECT__60
10
0
20
0
30
0
70
128
71
30
72
32
73
45
0
VERTEX
8
OBJECT__60
10
0
20
0
30
0
70
128
71
32
72
31
73
46
0
VERTEX
8
OBJECT__60
10
0
20
0
30
0
70
128
71
31
72
33
73
46
0
VERTEX
8
OBJECT__60
10
0
20
0
30
0
70
128
71
33
72
34
73
46
0
VERTEX
8
OBJECT__60
10
0
20
0
30
0
70
128
71
34
72
35
73
46
0
VERTEX
8
OBJECT__60
10
0
20
0
30
0
70
128
71
35
72
36
73
46
0
VERTEX
8
OBJECT__60
10
0
20
0
30
0
70
128
71
36
72
37
73
46
0
VERTEX
8
OBJECT__60
10
0
20
0
30
0
70
128
71
37
72
38
73
46
0
VERTEX
8
OBJECT__60
10
0
20
0
30
0
70
128
71
38
72
39
73
46
0
VERTEX
8
OBJECT__60
10
0
20
0
30
0
70
128
71
39
72
40
73
46
0
VERTEX
8
OBJECT__60
10
0
20
0
30
0
70
128
71
40
72
41
73
46
0
VERTEX
8
OBJECT__60
10
0
20
0
30
0
70
128
71
41
72
42
73
46
0
VERTEX
8
OBJECT__60
10
0
20
0
30
0
70
128
71
42
72
43
73
46
0
VERTEX
8
OBJECT__60
10
0
20
0
30
0
70
128
71
43
72
44
73
46
0
VERTEX
8
OBJECT__60
10
0
20
0
30
0
70
128
71
44
72
45
73
46
0
VERTEX
8
OBJECT__60
10
0
20
0
30
0
70
128
71
45
72
32
73
46
0
SEQEND
8
OBJECT__60
0
ENDSEC
0
EOF
