999
Converted by 3D Exploration 
999
XDimension Software, LLC
999
http://www.xdsoft.com/explorer/
0
SECTION
2
HEADER
9
$ACADVER
1
AC1008
9
$UCSORG
10
0.0
20
0.0
30
0.0
9
$UCSXDIR
10
1.0
20
0.0
30
0.0
9
$TILEMODE
70
1
9
$UCSYDIR
10
0.0
20
1.0
30
0.0
9
$EXTMIN
10
-42.448002
20
-26.000000
30
-26.000000
9
$EXTMAX
10
108.429001
20
26.000000
30
125.500000
0
ENDSEC
0
SECTION
2
TABLES
0
TABLE
2
LTYPE
70
1
0
LTYPE
2
CONTINUOUS
70
64
3
Solid line
72
65
73
0
40
0.0
0
ENDTAB
0
TABLE
2
LAYER
70
66
0
LAYER
2
OBJECT__0
70
0
62
253
6
CONTINUOUS
0
LAYER
2
OBJECT__1
70
0
62
253
6
CONTINUOUS
0
LAYER
2
OBJECT__3
70
0
62
253
6
CONTINUOUS
0
LAYER
2
OBJECT__4
70
0
62
253
6
CONTINUOUS
0
LAYER
2
OBJECT__5
70
0
62
253
6
CONTINUOUS
0
LAYER
2
OBJECT__6
70
0
62
253
6
CONTINUOUS
0
LAYER
2
OBJECT__7
70
0
62
253
6
CONTINUOUS
0
LAYER
2
OBJECT__8
70
0
62
253
6
CONTINUOUS
0
LAYER
2
OBJECT__9
70
0
62
253
6
CONTINUOUS
0
LAYER
2
OBJECT__10
70
0
62
253
6
CONTINUOUS
0
LAYER
2
OBJECT__11
70
0
62
253
6
CONTINUOUS
0
LAYER
2
OBJECT__12
70
0
62
253
6
CONTINUOUS
0
LAYER
2
OBJECT__14
70
0
62
253
6
CONTINUOUS
0
LAYER
2
OBJECT__15
70
0
62
253
6
CONTINUOUS
0
LAYER
2
OBJECT__16
70
0
62
253
6
CONTINUOUS
0
LAYER
2
OBJECT__17
70
0
62
253
6
CONTINUOUS
0
LAYER
2
OBJECT__19
70
0
62
253
6
CONTINUOUS
0
LAYER
2
OBJECT__20
70
0
62
253
6
CONTINUOUS
0
LAYER
2
OBJECT__21
70
0
62
253
6
CONTINUOUS
0
LAYER
2
OBJECT__22
70
0
62
253
6
CONTINUOUS
0
LAYER
2
OBJECT__23
70
0
62
253
6
CONTINUOUS
0
LAYER
2
OBJECT__24
70
0
62
253
6
CONTINUOUS
0
LAYER
2
OBJECT__25
70
0
62
253
6
CONTINUOUS
0
LAYER
2
OBJECT__26
70
0
62
253
6
CONTINUOUS
0
LAYER
2
OBJECT__27
70
0
62
253
6
CONTINUOUS
0
LAYER
2
OBJECT__29
70
0
62
253
6
CONTINUOUS
0
LAYER
2
OBJECT__30
70
0
62
253
6
CONTINUOUS
0
LAYER
2
OBJECT__31
70
0
62
253
6
CONTINUOUS
0
LAYER
2
OBJECT__32
70
0
62
253
6
CONTINUOUS
0
LAYER
2
OBJECT__33
70
0
62
253
6
CONTINUOUS
0
LAYER
2
OBJECT__34
70
0
62
253
6
CONTINUOUS
0
LAYER
2
OBJECT__35
70
0
62
253
6
CONTINUOUS
0
LAYER
2
OBJECT__37
70
0
62
253
6
CONTINUOUS
0
LAYER
2
OBJECT__38
70
0
62
253
6
CONTINUOUS
0
LAYER
2
OBJECT__39
70
0
62
253
6
CONTINUOUS
0
LAYER
2
OBJECT__40
70
0
62
253
6
CONTINUOUS
0
LAYER
2
OBJECT__41
70
0
62
253
6
CONTINUOUS
0
LAYER
2
OBJECT__42
70
0
62
253
6
CONTINUOUS
0
LAYER
2
OBJECT__43
70
0
62
253
6
CONTINUOUS
0
LAYER
2
OBJECT__44
70
0
62
253
6
CONTINUOUS
0
LAYER
2
OBJECT__45
70
0
62
253
6
CONTINUOUS
0
LAYER
2
OBJECT__46
70
0
62
253
6
CONTINUOUS
0
LAYER
2
OBJECT__47
70
0
62
253
6
CONTINUOUS
0
LAYER
2
OBJECT__48
70
0
62
253
6
CONTINUOUS
0
LAYER
2
OBJECT__49
70
0
62
253
6
CONTINUOUS
0
LAYER
2
OBJECT__50
70
0
62
253
6
CONTINUOUS
0
LAYER
2
OBJECT__51
70
0
62
253
6
CONTINUOUS
0
LAYER
2
OBJECT__52
70
0
62
253
6
CONTINUOUS
0
LAYER
2
OBJECT__53
70
0
62
253
6
CONTINUOUS
0
LAYER
2
OBJECT__54
70
0
62
253
6
CONTINUOUS
0
LAYER
2
OBJECT__55
70
0
62
253
6
CONTINUOUS
0
LAYER
2
OBJECT__56
70
0
62
253
6
CONTINUOUS
0
LAYER
2
OBJECT__57
70
0
62
253
6
CONTINUOUS
0
LAYER
2
OBJECT__58
70
0
62
253
6
CONTINUOUS
0
LAYER
2
OBJECT__59
70
0
62
253
6
CONTINUOUS
0
LAYER
2
OBJECT__60
70
0
62
253
6
CONTINUOUS
0
LAYER
2
OBJECT__61
70
0
62
253
6
CONTINUOUS
0
LAYER
2
OBJECT__62
70
0
62
253
6
CONTINUOUS
0
LAYER
2
OBJECT__63
70
0
62
253
6
CONTINUOUS
0
LAYER
2
OBJECT__64
70
0
62
253
6
CONTINUOUS
0
ENDTAB
0
TABLE
2
STYLE
70
1
0
STYLE
2
STANDARD
70
0
40
0.0
41
1.0
50
0.0
71
0
42
0.2
3
txt
4
1
0
ENDTAB
0
TABLE
2
UCS
70
0
0
ENDTAB
0
ENDSEC
0
SECTION
2
ENTITIES
0
POLYLINE
8
OBJECT__0
66
1
70
64
71
4
72
2
62
253
0
VERTEX
8
OBJECT__0
10
-26.500000
20
-24.400000
30
8.000000
70
192
0
VERTEX
8
OBJECT__0
10
-26.500000
20
-24.400000
30
0.000000
70
192
0
VERTEX
8
OBJECT__0
10
-24.900000
20
-26.000000
30
0.000000
70
192
0
VERTEX
8
OBJECT__0
10
-24.900000
20
-26.000000
30
8.000000
70
192
0
VERTEX
8
OBJECT__0
10
0
20
0
30
0
70
128
71
1
72
2
73
3
0
VERTEX
8
OBJECT__0
10
0
20
0
30
0
70
128
71
3
72
4
73
1
0
SEQEND
8
OBJECT__0
0
POLYLINE
8
OBJECT__1
66
1
70
64
71
4
72
2
62
253
0
VERTEX
8
OBJECT__1
10
23.900000
20
-26.000000
30
0.000000
70
192
0
VERTEX
8
OBJECT__1
10
23.900000
20
-26.000000
30
8.000000
70
192
0
VERTEX
8
OBJECT__1
10
-24.900000
20
-26.000000
30
8.000000
70
192
0
VERTEX
8
OBJECT__1
10
-24.900000
20
-26.000000
30
0.000000
70
192
0
VERTEX
8
OBJECT__1
10
0
20
0
30
0
70
128
71
1
72
2
73
3
0
VERTEX
8
OBJECT__1
10
0
20
0
30
0
70
128
71
3
72
4
73
1
0
SEQEND
8
OBJECT__1
0
POLYLINE
8
OBJECT__3
66
1
70
64
71
4
72
2
62
253
0
VERTEX
8
OBJECT__3
10
23.900000
20
-26.000000
30
8.000000
70
192
0
VERTEX
8
OBJECT__3
10
23.900000
20
-26.000000
30
0.000000
70
192
0
VERTEX
8
OBJECT__3
10
25.500000
20
-24.400000
30
0.000000
70
192
0
VERTEX
8
OBJECT__3
10
25.500000
20
-24.400000
30
8.000000
70
192
0
VERTEX
8
OBJECT__3
10
0
20
0
30
0
70
128
71
1
72
2
73
3
0
VERTEX
8
OBJECT__3
10
0
20
0
30
0
70
128
71
3
72
4
73
1
0
SEQEND
8
OBJECT__3
0
POLYLINE
8
OBJECT__4
66
1
70
64
71
4
72
2
62
253
0
VERTEX
8
OBJECT__4
10
25.500000
20
24.400000
30
0.000000
70
192
0
VERTEX
8
OBJECT__4
10
25.500000
20
24.400000
30
8.000000
70
192
0
VERTEX
8
OBJECT__4
10
25.500000
20
-24.400000
30
8.000000
70
192
0
VERTEX
8
OBJECT__4
10
25.500000
20
-24.400000
30
0.000000
70
192
0
VERTEX
8
OBJECT__4
10
0
20
0
30
0
70
128
71
1
72
2
73
3
0
VERTEX
8
OBJECT__4
10
0
20
0
30
0
70
128
71
3
72
4
73
1
0
SEQEND
8
OBJECT__4
0
POLYLINE
8
OBJECT__5
66
1
70
64
71
4
72
2
62
253
0
VERTEX
8
OBJECT__5
10
25.500000
20
24.400000
30
8.000000
70
192
0
VERTEX
8
OBJECT__5
10
25.500000
20
24.400000
30
0.000000
70
192
0
VERTEX
8
OBJECT__5
10
23.900000
20
26.000000
30
0.000000
70
192
0
VERTEX
8
OBJECT__5
10
23.900000
20
26.000000
30
8.000000
70
192
0
VERTEX
8
OBJECT__5
10
0
20
0
30
0
70
128
71
1
72
2
73
3
0
VERTEX
8
OBJECT__5
10
0
20
0
30
0
70
128
71
3
72
4
73
1
0
SEQEND
8
OBJECT__5
0
POLYLINE
8
OBJECT__6
66
1
70
64
71
8
72
6
62
253
0
VERTEX
8
OBJECT__6
10
-26.500000
20
-24.400000
30
8.000000
70
192
0
VERTEX
8
OBJECT__6
10
-24.900000
20
-26.000000
30
8.000000
70
192
0
VERTEX
8
OBJECT__6
10
23.900000
20
-26.000000
30
8.000000
70
192
0
VERTEX
8
OBJECT__6
10
-26.500000
20
24.400000
30
8.000000
70
192
0
VERTEX
8
OBJECT__6
10
25.500000
20
24.400000
30
8.000000
70
192
0
VERTEX
8
OBJECT__6
10
23.900000
20
26.000000
30
8.000000
70
192
0
VERTEX
8
OBJECT__6
10
25.500000
20
-24.400000
30
8.000000
70
192
0
VERTEX
8
OBJECT__6
10
-24.900000
20
26.000000
30
8.000000
70
192
0
VERTEX
8
OBJECT__6
10
0
20
0
30
0
70
128
71
1
72
2
73
3
0
VERTEX
8
OBJECT__6
10
0
20
0
30
0
70
128
71
4
72
5
73
6
0
VERTEX
8
OBJECT__6
10
0
20
0
30
0
70
128
71
7
72
4
73
1
0
VERTEX
8
OBJECT__6
10
0
20
0
30
0
70
128
71
4
72
7
73
5
0
VERTEX
8
OBJECT__6
10
0
20
0
30
0
70
128
71
6
72
8
73
4
0
VERTEX
8
OBJECT__6
10
0
20
0
30
0
70
128
71
3
72
7
73
1
0
SEQEND
8
OBJECT__6
0
POLYLINE
8
OBJECT__7
66
1
70
64
71
8
72
6
62
253
0
VERTEX
8
OBJECT__7
10
-26.500000
20
-24.400000
30
0.000000
70
192
0
VERTEX
8
OBJECT__7
10
-26.500000
20
24.400000
30
0.000000
70
192
0
VERTEX
8
OBJECT__7
10
-24.900000
20
26.000000
30
0.000000
70
192
0
VERTEX
8
OBJECT__7
10
25.500000
20
-24.400000
30
0.000000
70
192
0
VERTEX
8
OBJECT__7
10
23.900000
20
-26.000000
30
0.000000
70
192
0
VERTEX
8
OBJECT__7
10
23.900000
20
26.000000
30
0.000000
70
192
0
VERTEX
8
OBJECT__7
10
25.500000
20
24.400000
30
0.000000
70
192
0
VERTEX
8
OBJECT__7
10
-24.900000
20
-26.000000
30
0.000000
70
192
0
VERTEX
8
OBJECT__7
10
0
20
0
30
0
70
128
71
1
72
2
73
3
0
VERTEX
8
OBJECT__7
10
0
20
0
30
0
70
128
71
1
72
4
73
5
0
VERTEX
8
OBJECT__7
10
0
20
0
30
0
70
128
71
3
72
6
73
1
0
VERTEX
8
OBJECT__7
10
0
20
0
30
0
70
128
71
1
72
7
73
4
0
VERTEX
8
OBJECT__7
10
0
20
0
30
0
70
128
71
5
72
8
73
1
0
VERTEX
8
OBJECT__7
10
0
20
0
30
0
70
128
71
6
72
7
73
1
0
SEQEND
8
OBJECT__7
0
POLYLINE
8
OBJECT__8
66
1
70
64
71
4
72
2
62
253
0
VERTEX
8
OBJECT__8
10
23.900000
20
26.000000
30
8.000000
70
192
0
VERTEX
8
OBJECT__8
10
23.900000
20
26.000000
30
0.000000
70
192
0
VERTEX
8
OBJECT__8
10
-24.900000
20
26.000000
30
0.000000
70
192
0
VERTEX
8
OBJECT__8
10
-24.900000
20
26.000000
30
8.000000
70
192
0
VERTEX
8
OBJECT__8
10
0
20
0
30
0
70
128
71
1
72
2
73
3
0
VERTEX
8
OBJECT__8
10
0
20
0
30
0
70
128
71
3
72
4
73
1
0
SEQEND
8
OBJECT__8
0
POLYLINE
8
OBJECT__9
66
1
70
64
71
4
72
2
62
253
0
VERTEX
8
OBJECT__9
10
-24.900000
20
26.000000
30
8.000000
70
192
0
VERTEX
8
OBJECT__9
10
-24.900000
20
26.000000
30
0.000000
70
192
0
VERTEX
8
OBJECT__9
10
-26.500000
20
24.400000
30
0.000000
70
192
0
VERTEX
8
OBJECT__9
10
-26.500000
20
24.400000
30
8.000000
70
192
0
VERTEX
8
OBJECT__9
10
0
20
0
30
0
70
128
71
1
72
2
73
3
0
VERTEX
8
OBJECT__9
10
0
20
0
30
0
70
128
71
3
72
4
73
1
0
SEQEND
8
OBJECT__9
0
POLYLINE
8
OBJECT__10
66
1
70
64
71
4
72
2
62
253
0
VERTEX
8
OBJECT__10
10
-26.500000
20
-24.400000
30
8.000000
70
192
0
VERTEX
8
OBJECT__10
10
-26.500000
20
24.400000
30
8.000000
70
192
0
VERTEX
8
OBJECT__10
10
-26.500000
20
24.400000
30
0.000000
70
192
0
VERTEX
8
OBJECT__10
10
-26.500000
20
-24.400000
30
0.000000
70
192
0
VERTEX
8
OBJECT__10
10
0
20
0
30
0
70
128
71
1
72
2
73
3
0
VERTEX
8
OBJECT__10
10
0
20
0
30
0
70
128
71
3
72
4
73
1
0
SEQEND
8
OBJECT__10
0
POLYLINE
8
OBJECT__11
66
1
70
64
71
24
72
24
62
253
0
VERTEX
8
OBJECT__11
10
-28.030001
20
0.000000
30
41.478001
70
192
0
VERTEX
8
OBJECT__11
10
-19.132999
20
0.000000
30
14.096000
70
192
0
VERTEX
8
OBJECT__11
10
-19.132999
20
-1.846000
30
18.662001
70
192
0
VERTEX
8
OBJECT__11
10
-19.132999
20
-1.264000
30
15.551000
70
192
0
VERTEX
8
OBJECT__11
10
-26.715000
20
-1.732000
30
41.904999
70
192
0
VERTEX
8
OBJECT__11
10
-27.079000
20
-1.732000
30
41.786999
70
192
0
VERTEX
8
OBJECT__11
10
-25.176001
20
-1.732000
30
42.404999
70
192
0
VERTEX
8
OBJECT__11
10
-19.132999
20
-1.773000
30
23.561001
70
192
0
VERTEX
8
OBJECT__11
10
-19.132999
20
-1.109000
30
25.556000
70
192
0
VERTEX
8
OBJECT__11
10
-24.799999
20
-1.047000
30
42.527000
70
192
0
VERTEX
8
OBJECT__11
10
-19.132999
20
-1.959000
30
19.263000
70
192
0
VERTEX
8
OBJECT__11
10
-19.132999
20
-0.790000
30
26.514000
70
192
0
VERTEX
8
OBJECT__11
10
-19.132999
20
0.548000
30
26.792000
70
192
0
VERTEX
8
OBJECT__11
10
-24.799999
20
1.047000
30
42.527000
70
192
0
VERTEX
8
OBJECT__11
10
-24.225000
20
0.000000
30
42.714001
70
192
0
VERTEX
8
OBJECT__11
10
-26.715000
20
1.732000
30
41.904999
70
192
0
VERTEX
8
OBJECT__11
10
-19.132999
20
1.640000
30
24.271999
70
192
0
VERTEX
8
OBJECT__11
10
-19.132999
20
1.994000
30
20.086000
70
192
0
VERTEX
8
OBJECT__11
10
-25.176001
20
1.732000
30
42.404999
70
192
0
VERTEX
8
OBJECT__11
10
-19.132999
20
1.108000
30
25.500000
70
192
0
VERTEX
8
OBJECT__11
10
-19.132999
20
1.805000
30
18.697001
70
192
0
VERTEX
8
OBJECT__11
10
-19.132999
20
1.452000
30
16.117001
70
192
0
VERTEX
8
OBJECT__11
10
-27.079000
20
1.732000
30
41.786999
70
192
0
VERTEX
8
OBJECT__11
10
-19.132999
20
0.256000
30
14.149000
70
192
0
VERTEX
8
OBJECT__11
10
0
20
0
30
0
70
128
71
1
72
2
73
3
0
VERTEX
8
OBJECT__11
10
0
20
0
30
0
70
128
71
2
72
4
73
3
0
VERTEX
8
OBJECT__11
10
0
20
0
30
0
70
128
71
3
72
5
73
6
0
VERTEX
8
OBJECT__11
10
0
20
0
30
0
70
128
71
7
72
8
73
9
0
VERTEX
8
OBJECT__11
10
0
20
0
30
0
70
128
71
9
72
10
73
7
0
VERTEX
8
OBJECT__11
10
0
20
0
30
0
70
128
71
5
72
3
73
11
0
VERTEX
8
OBJECT__11
10
0
20
0
30
0
70
128
71
11
72
8
73
5
0
VERTEX
8
OBJECT__11
10
0
20
0
30
0
70
128
71
10
72
12
73
13
0
VERTEX
8
OBJECT__11
10
0
20
0
30
0
70
128
71
13
72
14
73
15
0
VERTEX
8
OBJECT__11
10
0
20
0
30
0
70
128
71
10
72
9
73
12
0
VERTEX
8
OBJECT__11
10
0
20
0
30
0
70
128
71
13
72
15
73
10
0
VERTEX
8
OBJECT__11
10
0
20
0
30
0
70
128
71
16
72
17
73
18
0
VERTEX
8
OBJECT__11
10
0
20
0
30
0
70
128
71
19
72
14
73
20
0
VERTEX
8
OBJECT__11
10
0
20
0
30
0
70
128
71
17
72
16
73
19
0
VERTEX
8
OBJECT__11
10
0
20
0
30
0
70
128
71
20
72
17
73
19
0
VERTEX
8
OBJECT__11
10
0
20
0
30
0
70
128
71
2
72
21
73
22
0
VERTEX
8
OBJECT__11
10
0
20
0
30
0
70
128
71
1
72
23
73
21
0
VERTEX
8
OBJECT__11
10
0
20
0
30
0
70
128
71
21
72
2
73
1
0
VERTEX
8
OBJECT__11
10
0
20
0
30
0
70
128
71
22
72
24
73
2
0
VERTEX
8
OBJECT__11
10
0
20
0
30
0
70
128
71
23
72
16
73
21
0
VERTEX
8
OBJECT__11
10
0
20
0
30
0
70
128
71
18
72
21
73
16
0
VERTEX
8
OBJECT__11
10
0
20
0
30
0
70
128
71
13
72
20
73
14
0
VERTEX
8
OBJECT__11
10
0
20
0
30
0
70
128
71
7
72
5
73
8
0
VERTEX
8
OBJECT__11
10
0
20
0
30
0
70
128
71
3
72
6
73
1
0
SEQEND
8
OBJECT__11
0
POLYLINE
8
OBJECT__12
66
1
70
64
71
26
72
32
62
253
0
VERTEX
8
OBJECT__12
10
-27.805000
20
-1.732000
30
42.786999
70
192
0
VERTEX
8
OBJECT__12
10
-28.981001
20
-1.732000
30
43.168999
70
192
0
VERTEX
8
OBJECT__12
10
-28.981001
20
0.000000
30
42.168999
70
192
0
VERTEX
8
OBJECT__12
10
-28.393000
20
0.000000
30
41.978001
70
192
0
VERTEX
8
OBJECT__12
10
-28.030001
20
0.000000
30
41.478001
70
192
0
VERTEX
8
OBJECT__12
10
-26.629999
20
-1.732000
30
44.404999
70
192
0
VERTEX
8
OBJECT__12
10
-28.981001
20
-1.732000
30
43.549999
70
192
0
VERTEX
8
OBJECT__12
10
-28.981001
20
-1.732000
30
45.168999
70
192
0
VERTEX
8
OBJECT__12
10
-27.079000
20
-1.732000
30
41.786999
70
192
0
VERTEX
8
OBJECT__12
10
-26.715000
20
-1.732000
30
41.904999
70
192
0
VERTEX
8
OBJECT__12
10
-26.042000
20
0.000000
30
45.214001
70
192
0
VERTEX
8
OBJECT__12
10
-28.981001
20
-1.047000
30
45.563999
70
192
0
VERTEX
8
OBJECT__12
10
-28.981001
20
0.000000
30
46.168999
70
192
0
VERTEX
8
OBJECT__12
10
-25.176001
20
-1.732000
30
42.404999
70
192
0
VERTEX
8
OBJECT__12
10
-24.799999
20
-1.047000
30
42.527000
70
192
0
VERTEX
8
OBJECT__12
10
-26.629999
20
1.732000
30
44.404999
70
192
0
VERTEX
8
OBJECT__12
10
-28.981001
20
1.732000
30
45.168999
70
192
0
VERTEX
8
OBJECT__12
10
-28.981001
20
1.047000
30
45.563999
70
192
0
VERTEX
8
OBJECT__12
10
-24.799999
20
1.047000
30
42.527000
70
192
0
VERTEX
8
OBJECT__12
10
-24.225000
20
0.000000
30
42.714001
70
192
0
VERTEX
8
OBJECT__12
10
-27.805000
20
1.732000
30
42.786999
70
192
0
VERTEX
8
OBJECT__12
10
-28.981001
20
1.732000
30
43.168999
70
192
0
VERTEX
8
OBJECT__12
10
-28.981001
20
1.732000
30
43.549999
70
192
0
VERTEX
8
OBJECT__12
10
-26.715000
20
1.732000
30
41.904999
70
192
0
VERTEX
8
OBJECT__12
10
-25.176001
20
1.732000
30
42.404999
70
192
0
VERTEX
8
OBJECT__12
10
-27.079000
20
1.732000
30
41.786999
70
192
0
VERTEX
8
OBJECT__12
10
0
20
0
30
0
70
128
71
1
72
2
73
3
0
VERTEX
8
OBJECT__12
10
0
20
0
30
0
70
128
71
1
72
4
73
5
0
VERTEX
8
OBJECT__12
10
0
20
0
30
0
70
128
71
1
72
6
73
7
0
VERTEX
8
OBJECT__12
10
0
20
0
30
0
70
128
71
6
72
8
73
7
0
VERTEX
8
OBJECT__12
10
0
20
0
30
0
70
128
71
1
72
9
73
10
0
VERTEX
8
OBJECT__12
10
0
20
0
30
0
70
128
71
10
72
6
73
1
0
VERTEX
8
OBJECT__12
10
0
20
0
30
0
70
128
71
6
72
11
73
12
0
VERTEX
8
OBJECT__12
10
0
20
0
30
0
70
128
71
11
72
13
73
12
0
VERTEX
8
OBJECT__12
10
0
20
0
30
0
70
128
71
6
72
14
73
15
0
VERTEX
8
OBJECT__12
10
0
20
0
30
0
70
128
71
15
72
11
73
6
0
VERTEX
8
OBJECT__12
10
0
20
0
30
0
70
128
71
16
72
17
73
18
0
VERTEX
8
OBJECT__12
10
0
20
0
30
0
70
128
71
18
72
11
73
16
0
VERTEX
8
OBJECT__12
10
0
20
0
30
0
70
128
71
16
72
11
73
19
0
VERTEX
8
OBJECT__12
10
0
20
0
30
0
70
128
71
11
72
20
73
19
0
VERTEX
8
OBJECT__12
10
0
20
0
30
0
70
128
71
21
72
22
73
23
0
VERTEX
8
OBJECT__12
10
0
20
0
30
0
70
128
71
23
72
16
73
21
0
VERTEX
8
OBJECT__12
10
0
20
0
30
0
70
128
71
21
72
16
73
24
0
VERTEX
8
OBJECT__12
10
0
20
0
30
0
70
128
71
16
72
25
73
24
0
VERTEX
8
OBJECT__12
10
0
20
0
30
0
70
128
71
21
72
4
73
3
0
VERTEX
8
OBJECT__12
10
0
20
0
30
0
70
128
71
21
72
26
73
5
0
VERTEX
8
OBJECT__12
10
0
20
0
30
0
70
128
71
5
72
4
73
21
0
VERTEX
8
OBJECT__12
10
0
20
0
30
0
70
128
71
3
72
22
73
21
0
VERTEX
8
OBJECT__12
10
0
20
0
30
0
70
128
71
24
72
26
73
21
0
VERTEX
8
OBJECT__12
10
0
20
0
30
0
70
128
71
23
72
17
73
16
0
VERTEX
8
OBJECT__12
10
0
20
0
30
0
70
128
71
19
72
25
73
16
0
VERTEX
8
OBJECT__12
10
0
20
0
30
0
70
128
71
18
72
13
73
11
0
VERTEX
8
OBJECT__12
10
0
20
0
30
0
70
128
71
15
72
20
73
11
0
VERTEX
8
OBJECT__12
10
0
20
0
30
0
70
128
71
12
72
8
73
6
0
VERTEX
8
OBJECT__12
10
0
20
0
30
0
70
128
71
10
72
14
73
6
0
VERTEX
8
OBJECT__12
10
0
20
0
30
0
70
128
71
7
72
2
73
1
0
VERTEX
8
OBJECT__12
10
0
20
0
30
0
70
128
71
5
72
9
73
1
0
VERTEX
8
OBJECT__12
10
0
20
0
30
0
70
128
71
3
72
4
73
1
0
SEQEND
8
OBJECT__12
0
POLYLINE
8
OBJECT__14
66
1
70
64
71
16
72
16
62
253
0
VERTEX
8
OBJECT__14
10
-42.448002
20
0.000000
30
42.168999
70
192
0
VERTEX
8
OBJECT__14
10
-42.448002
20
1.902000
30
43.549999
70
192
0
VERTEX
8
OBJECT__14
10
-28.981001
20
1.732000
30
43.168999
70
192
0
VERTEX
8
OBJECT__14
10
-28.981001
20
1.732000
30
43.549999
70
192
0
VERTEX
8
OBJECT__14
10
-42.448002
20
1.176000
30
45.786999
70
192
0
VERTEX
8
OBJECT__14
10
-28.981001
20
1.732000
30
45.168999
70
192
0
VERTEX
8
OBJECT__14
10
-28.981001
20
1.047000
30
45.563999
70
192
0
VERTEX
8
OBJECT__14
10
-42.448002
20
0.000000
30
46.168999
70
192
0
VERTEX
8
OBJECT__14
10
-42.448002
20
-1.176000
30
45.786999
70
192
0
VERTEX
8
OBJECT__14
10
-28.981001
20
-1.047000
30
45.563999
70
192
0
VERTEX
8
OBJECT__14
10
-28.981001
20
0.000000
30
46.168999
70
192
0
VERTEX
8
OBJECT__14
10
-42.448002
20
-1.902000
30
43.549999
70
192
0
VERTEX
8
OBJECT__14
10
-28.981001
20
-1.732000
30
43.549999
70
192
0
VERTEX
8
OBJECT__14
10
-28.981001
20
-1.732000
30
45.168999
70
192
0
VERTEX
8
OBJECT__14
10
-28.981001
20
0.000000
30
42.168999
70
192
0
VERTEX
8
OBJECT__14
10
-28.981001
20
-1.732000
30
43.168999
70
192
0
VERTEX
8
OBJECT__14
10
0
20
0
30
0
70
128
71
1
72
2
73
3
0
VERTEX
8
OBJECT__14
10
0
20
0
30
0
70
128
71
2
72
4
73
3
0
VERTEX
8
OBJECT__14
10
0
20
0
30
0
70
128
71
2
72
5
73
6
0
VERTEX
8
OBJECT__14
10
0
20
0
30
0
70
128
71
5
72
7
73
6
0
VERTEX
8
OBJECT__14
10
0
20
0
30
0
70
128
71
8
72
9
73
10
0
VERTEX
8
OBJECT__14
10
0
20
0
30
0
70
128
71
8
72
11
73
7
0
VERTEX
8
OBJECT__14
10
0
20
0
30
0
70
128
71
7
72
5
73
8
0
VERTEX
8
OBJECT__14
10
0
20
0
30
0
70
128
71
12
72
13
73
14
0
VERTEX
8
OBJECT__14
10
0
20
0
30
0
70
128
71
14
72
9
73
12
0
VERTEX
8
OBJECT__14
10
0
20
0
30
0
70
128
71
1
72
15
73
16
0
VERTEX
8
OBJECT__14
10
0
20
0
30
0
70
128
71
16
72
12
73
1
0
VERTEX
8
OBJECT__14
10
0
20
0
30
0
70
128
71
16
72
13
73
12
0
VERTEX
8
OBJECT__14
10
0
20
0
30
0
70
128
71
14
72
10
73
9
0
VERTEX
8
OBJECT__14
10
0
20
0
30
0
70
128
71
10
72
11
73
8
0
VERTEX
8
OBJECT__14
10
0
20
0
30
0
70
128
71
6
72
4
73
2
0
VERTEX
8
OBJECT__14
10
0
20
0
30
0
70
128
71
3
72
15
73
1
0
SEQEND
8
OBJECT__14
0
POLYLINE
8
OBJECT__15
66
1
70
64
71
6
72
4
62
253
0
VERTEX
8
OBJECT__15
10
-42.448002
20
0.000000
30
42.168999
70
192
0
VERTEX
8
OBJECT__15
10
-42.448002
20
0.000000
30
46.168999
70
192
0
VERTEX
8
OBJECT__15
10
-42.448002
20
1.176000
30
45.786999
70
192
0
VERTEX
8
OBJECT__15
10
-42.448002
20
-1.902000
30
43.549999
70
192
0
VERTEX
8
OBJECT__15
10
-42.448002
20
-1.176000
30
45.786999
70
192
0
VERTEX
8
OBJECT__15
10
-42.448002
20
1.902000
30
43.549999
70
192
0
VERTEX
8
OBJECT__15
10
0
20
0
30
0
70
128
71
1
72
2
73
3
0
VERTEX
8
OBJECT__15
10
0
20
0
30
0
70
128
71
1
72
4
73
5
0
VERTEX
8
OBJECT__15
10
0
20
0
30
0
70
128
71
5
72
2
73
1
0
VERTEX
8
OBJECT__15
10
0
20
0
30
0
70
128
71
3
72
6
73
1
0
SEQEND
8
OBJECT__15
0
POLYLINE
8
OBJECT__16
66
1
70
64
71
14
72
12
62
253
0
VERTEX
8
OBJECT__16
10
-20.500000
20
0.000000
30
125.500000
70
192
0
VERTEX
8
OBJECT__16
10
-18.518999
20
-8.678000
30
125.500000
70
192
0
VERTEX
8
OBJECT__16
10
-12.970000
20
-15.637000
30
125.500000
70
192
0
VERTEX
8
OBJECT__16
10
3.950000
20
19.499001
30
125.500000
70
192
0
VERTEX
8
OBJECT__16
10
17.518999
20
-8.678000
30
125.500000
70
192
0
VERTEX
8
OBJECT__16
10
19.500000
20
0.000000
30
125.500000
70
192
0
VERTEX
8
OBJECT__16
10
-4.950000
20
-19.499001
30
125.500000
70
192
0
VERTEX
8
OBJECT__16
10
-18.518999
20
8.678000
30
125.500000
70
192
0
VERTEX
8
OBJECT__16
10
17.518999
20
8.678000
30
125.500000
70
192
0
VERTEX
8
OBJECT__16
10
3.950000
20
-19.499001
30
125.500000
70
192
0
VERTEX
8
OBJECT__16
10
11.970000
20
-15.637000
30
125.500000
70
192
0
VERTEX
8
OBJECT__16
10
-12.970000
20
15.637000
30
125.500000
70
192
0
VERTEX
8
OBJECT__16
10
-4.950000
20
19.499001
30
125.500000
70
192
0
VERTEX
8
OBJECT__16
10
11.970000
20
15.637000
30
125.500000
70
192
0
VERTEX
8
OBJECT__16
10
0
20
0
30
0
70
128
71
1
72
2
73
3
0
VERTEX
8
OBJECT__16
10
0
20
0
30
0
70
128
71
4
72
5
73
6
0
VERTEX
8
OBJECT__16
10
0
20
0
30
0
70
128
71
7
72
8
73
1
0
VERTEX
8
OBJECT__16
10
0
20
0
30
0
70
128
71
6
72
9
73
4
0
VERTEX
8
OBJECT__16
10
0
20
0
30
0
70
128
71
4
72
10
73
11
0
VERTEX
8
OBJECT__16
10
0
20
0
30
0
70
128
71
7
72
12
73
8
0
VERTEX
8
OBJECT__16
10
0
20
0
30
0
70
128
71
11
72
5
73
4
0
VERTEX
8
OBJECT__16
10
0
20
0
30
0
70
128
71
7
72
13
73
12
0
VERTEX
8
OBJECT__16
10
0
20
0
30
0
70
128
71
4
72
7
73
10
0
VERTEX
8
OBJECT__16
10
0
20
0
30
0
70
128
71
7
72
4
73
13
0
VERTEX
8
OBJECT__16
10
0
20
0
30
0
70
128
71
3
72
7
73
1
0
VERTEX
8
OBJECT__16
10
0
20
0
30
0
70
128
71
9
72
14
73
4
0
SEQEND
8
OBJECT__16
0
POLYLINE
8
OBJECT__17
66
1
70
64
71
45
72
47
62
253
0
VERTEX
8
OBJECT__17
10
11.970000
20
15.637000
30
125.500000
70
192
0
VERTEX
8
OBJECT__17
10
11.970000
20
15.637000
30
95.500000
70
192
0
VERTEX
8
OBJECT__17
10
3.950000
20
19.499001
30
95.500000
70
192
0
VERTEX
8
OBJECT__17
10
17.518999
20
8.678000
30
125.500000
70
192
0
VERTEX
8
OBJECT__17
10
17.518999
20
8.678000
30
95.500000
70
192
0
VERTEX
8
OBJECT__17
10
11.970000
20
-15.637000
30
125.500000
70
192
0
VERTEX
8
OBJECT__17
10
11.970000
20
-15.637000
30
95.500000
70
192
0
VERTEX
8
OBJECT__17
10
17.518999
20
-8.678000
30
95.500000
70
192
0
VERTEX
8
OBJECT__17
10
3.950000
20
-19.499001
30
125.500000
70
192
0
VERTEX
8
OBJECT__17
10
3.950000
20
-19.499001
30
95.500000
70
192
0
VERTEX
8
OBJECT__17
10
19.500000
20
0.000000
30
95.500000
70
192
0
VERTEX
8
OBJECT__17
10
17.604000
20
8.500000
30
115.500000
70
192
0
VERTEX
8
OBJECT__17
10
17.604000
20
8.500000
30
121.500000
70
192
0
VERTEX
8
OBJECT__17
10
19.500000
20
0.000000
30
125.500000
70
192
0
VERTEX
8
OBJECT__17
10
19.500000
20
0.000000
30
121.500000
70
192
0
VERTEX
8
OBJECT__17
10
17.518999
20
-8.678000
30
125.500000
70
192
0
VERTEX
8
OBJECT__17
10
17.604000
20
-8.500000
30
121.500000
70
192
0
VERTEX
8
OBJECT__17
10
17.604000
20
-8.500000
30
115.500000
70
192
0
VERTEX
8
OBJECT__17
10
19.500000
20
0.000000
30
115.500000
70
192
0
VERTEX
8
OBJECT__17
10
3.950000
20
19.499001
30
125.500000
70
192
0
VERTEX
8
OBJECT__17
10
0.533000
20
19.973000
30
96.111000
70
192
0
VERTEX
8
OBJECT__17
10
-4.916000
20
19.249001
30
98.768997
70
192
0
VERTEX
8
OBJECT__17
10
1.786000
20
19.868999
30
95.500000
70
192
0
VERTEX
8
OBJECT__17
10
-4.950000
20
19.499001
30
125.500000
70
192
0
VERTEX
8
OBJECT__17
10
-6.712000
20
19.011000
30
99.644997
70
192
0
VERTEX
8
OBJECT__17
10
-12.952000
20
15.605000
30
102.688004
70
192
0
VERTEX
8
OBJECT__17
10
-18.518999
20
8.678000
30
125.500000
70
192
0
VERTEX
8
OBJECT__17
10
-12.970000
20
15.637000
30
125.500000
70
192
0
VERTEX
8
OBJECT__17
10
-17.858000
20
9.936000
30
105.081001
70
192
0
VERTEX
8
OBJECT__17
10
-13.128000
20
15.509000
30
102.774002
70
192
0
VERTEX
8
OBJECT__17
10
-20.500000
20
0.000000
30
125.500000
70
192
0
VERTEX
8
OBJECT__17
10
-20.268000
20
3.035000
30
106.255997
70
192
0
VERTEX
8
OBJECT__17
10
-18.320999
20
8.608000
30
105.306999
70
192
0
VERTEX
8
OBJECT__17
10
-20.173000
20
0.010000
30
106.209999
70
192
0
VERTEX
8
OBJECT__17
10
-20.039000
20
-4.271000
30
106.143997
70
192
0
VERTEX
8
OBJECT__17
10
-18.518999
20
-8.678000
30
125.500000
70
192
0
VERTEX
8
OBJECT__17
10
-12.970000
20
-15.637000
30
125.500000
70
192
0
VERTEX
8
OBJECT__17
10
-18.232000
20
-8.556000
30
105.263000
70
192
0
VERTEX
8
OBJECT__17
10
-17.198999
20
-11.006000
30
104.760002
70
192
0
VERTEX
8
OBJECT__17
10
-4.950000
20
-19.499001
30
125.500000
70
192
0
VERTEX
8
OBJECT__17
10
-12.130000
20
-16.271000
30
102.287003
70
192
0
VERTEX
8
OBJECT__17
10
-5.506000
20
-19.363001
30
99.056000
70
192
0
VERTEX
8
OBJECT__17
10
-12.851000
20
-15.522000
30
102.639000
70
192
0
VERTEX
8
OBJECT__17
10
-4.943000
20
-19.402000
30
98.781998
70
192
0
VERTEX
8
OBJECT__17
10
1.786000
20
-19.868999
30
95.500000
70
192
0
VERTEX
8
OBJECT__17
10
0
20
0
30
0
70
128
71
1
72
2
73
3
0
VERTEX
8
OBJECT__17
10
0
20
0
30
0
70
128
71
4
72
5
73
2
0
VERTEX
8
OBJECT__17
10
0
20
0
30
0
70
128
71
6
72
7
73
8
0
VERTEX
8
OBJECT__17
10
0
20
0
30
0
70
128
71
9
72
10
73
7
0
VERTEX
8
OBJECT__17
10
0
20
0
30
0
70
128
71
11
72
5
73
12
0
VERTEX
8
OBJECT__17
10
0
20
0
30
0
70
128
71
4
72
13
73
12
0
VERTEX
8
OBJECT__17
10
0
20
0
30
0
70
128
71
12
72
5
73
4
0
VERTEX
8
OBJECT__17
10
0
20
0
30
0
70
128
71
14
72
15
73
13
0
VERTEX
8
OBJECT__17
10
0
20
0
30
0
70
128
71
13
72
4
73
14
0
VERTEX
8
OBJECT__17
10
0
20
0
30
0
70
128
71
14
72
16
73
17
0
VERTEX
8
OBJECT__17
10
0
20
0
30
0
70
128
71
16
72
8
73
18
0
VERTEX
8
OBJECT__17
10
0
20
0
30
0
70
128
71
18
72
17
73
16
0
VERTEX
8
OBJECT__17
10
0
20
0
30
0
70
128
71
11
72
19
73
18
0
VERTEX
8
OBJECT__17
10
0
20
0
30
0
70
128
71
18
72
8
73
11
0
VERTEX
8
OBJECT__17
10
0
20
0
30
0
70
128
71
20
72
21
73
22
0
VERTEX
8
OBJECT__17
10
0
20
0
30
0
70
128
71
20
72
3
73
23
0
VERTEX
8
OBJECT__17
10
0
20
0
30
0
70
128
71
23
72
21
73
20
0
VERTEX
8
OBJECT__17
10
0
20
0
30
0
70
128
71
24
72
25
73
26
0
VERTEX
8
OBJECT__17
10
0
20
0
30
0
70
128
71
24
72
22
73
25
0
VERTEX
8
OBJECT__17
10
0
20
0
30
0
70
128
71
27
72
28
73
29
0
VERTEX
8
OBJECT__17
10
0
20
0
30
0
70
128
71
28
72
26
73
30
0
VERTEX
8
OBJECT__17
10
0
20
0
30
0
70
128
71
30
72
29
73
28
0
VERTEX
8
OBJECT__17
10
0
20
0
30
0
70
128
71
31
72
27
73
32
0
VERTEX
8
OBJECT__17
10
0
20
0
30
0
70
128
71
27
72
33
73
32
0
VERTEX
8
OBJECT__17
10
0
20
0
30
0
70
128
71
31
72
34
73
35
0
VERTEX
8
OBJECT__17
10
0
20
0
30
0
70
128
71
35
72
36
73
31
0
VERTEX
8
OBJECT__17
10
0
20
0
30
0
70
128
71
37
72
36
73
38
0
VERTEX
8
OBJECT__17
10
0
20
0
30
0
70
128
71
38
72
39
73
37
0
VERTEX
8
OBJECT__17
10
0
20
0
30
0
70
128
71
40
72
41
73
42
0
VERTEX
8
OBJECT__17
10
0
20
0
30
0
70
128
71
40
72
37
73
43
0
VERTEX
8
OBJECT__17
10
0
20
0
30
0
70
128
71
43
72
41
73
40
0
VERTEX
8
OBJECT__17
10
0
20
0
30
0
70
128
71
9
72
40
73
44
0
VERTEX
8
OBJECT__17
10
0
20
0
30
0
70
128
71
44
72
45
73
9
0
VERTEX
8
OBJECT__17
10
0
20
0
30
0
70
128
71
45
72
10
73
9
0
VERTEX
8
OBJECT__17
10
0
20
0
30
0
70
128
71
42
72
44
73
40
0
VERTEX
8
OBJECT__17
10
0
20
0
30
0
70
128
71
39
72
43
73
37
0
VERTEX
8
OBJECT__17
10
0
20
0
30
0
70
128
71
35
72
38
73
36
0
VERTEX
8
OBJECT__17
10
0
20
0
30
0
70
128
71
32
72
34
73
31
0
VERTEX
8
OBJECT__17
10
0
20
0
30
0
70
128
71
29
72
33
73
27
0
VERTEX
8
OBJECT__17
10
0
20
0
30
0
70
128
71
26
72
28
73
24
0
VERTEX
8
OBJECT__17
10
0
20
0
30
0
70
128
71
22
72
24
73
20
0
VERTEX
8
OBJECT__17
10
0
20
0
30
0
70
128
71
17
72
15
73
14
0
VERTEX
8
OBJECT__17
10
0
20
0
30
0
70
128
71
12
72
19
73
11
0
VERTEX
8
OBJECT__17
10
0
20
0
30
0
70
128
71
7
72
6
73
9
0
VERTEX
8
OBJECT__17
10
0
20
0
30
0
70
128
71
8
72
16
73
6
0
VERTEX
8
OBJECT__17
10
0
20
0
30
0
70
128
71
2
72
1
73
4
0
VERTEX
8
OBJECT__17
10
0
20
0
30
0
70
128
71
3
72
20
73
1
0
SEQEND
8
OBJECT__17
0
POLYLINE
8
OBJECT__19
66
1
70
64
71
9
72
7
62
253
0
VERTEX
8
OBJECT__19
10
11.970000
20
-15.637000
30
95.500000
70
192
0
VERTEX
8
OBJECT__19
10
17.518999
20
8.678000
30
95.500000
70
192
0
VERTEX
8
OBJECT__19
10
19.500000
20
0.000000
30
95.500000
70
192
0
VERTEX
8
OBJECT__19
10
3.950000
20
19.499001
30
95.500000
70
192
0
VERTEX
8
OBJECT__19
10
11.970000
20
15.637000
30
95.500000
70
192
0
VERTEX
8
OBJECT__19
10
17.518999
20
-8.678000
30
95.500000
70
192
0
VERTEX
8
OBJECT__19
10
3.950000
20
-19.499001
30
95.500000
70
192
0
VERTEX
8
OBJECT__19
10
1.786000
20
-19.868999
30
95.500000
70
192
0
VERTEX
8
OBJECT__19
10
1.786000
20
19.868999
30
95.500000
70
192
0
VERTEX
8
OBJECT__19
10
0
20
0
30
0
70
128
71
1
72
2
73
3
0
VERTEX
8
OBJECT__19
10
0
20
0
30
0
70
128
71
1
72
4
73
5
0
VERTEX
8
OBJECT__19
10
0
20
0
30
0
70
128
71
5
72
2
73
1
0
VERTEX
8
OBJECT__19
10
0
20
0
30
0
70
128
71
3
72
6
73
1
0
VERTEX
8
OBJECT__19
10
0
20
0
30
0
70
128
71
1
72
7
73
4
0
VERTEX
8
OBJECT__19
10
0
20
0
30
0
70
128
71
8
72
9
73
4
0
VERTEX
8
OBJECT__19
10
0
20
0
30
0
70
128
71
7
72
8
73
4
0
SEQEND
8
OBJECT__19
0
POLYLINE
8
OBJECT__20
66
1
70
64
71
18
72
16
62
253
0
VERTEX
8
OBJECT__20
10
-12.851000
20
-15.522000
30
102.639000
70
192
0
VERTEX
8
OBJECT__20
10
-4.943000
20
-19.402000
30
98.781998
70
192
0
VERTEX
8
OBJECT__20
10
-5.506000
20
-19.363001
30
99.056000
70
192
0
VERTEX
8
OBJECT__20
10
1.786000
20
-19.868999
30
95.500000
70
192
0
VERTEX
8
OBJECT__20
10
-17.198999
20
-11.006000
30
104.760002
70
192
0
VERTEX
8
OBJECT__20
10
-18.232000
20
-8.556000
30
105.263000
70
192
0
VERTEX
8
OBJECT__20
10
-20.039000
20
-4.271000
30
106.143997
70
192
0
VERTEX
8
OBJECT__20
10
-12.130000
20
-16.271000
30
102.287003
70
192
0
VERTEX
8
OBJECT__20
10
-18.320999
20
8.608000
30
105.306999
70
192
0
VERTEX
8
OBJECT__20
10
-17.858000
20
9.936000
30
105.081001
70
192
0
VERTEX
8
OBJECT__20
10
-20.173000
20
0.010000
30
106.209999
70
192
0
VERTEX
8
OBJECT__20
10
-20.268000
20
3.035000
30
106.255997
70
192
0
VERTEX
8
OBJECT__20
10
-4.916000
20
19.249001
30
98.768997
70
192
0
VERTEX
8
OBJECT__20
10
0.533000
20
19.973000
30
96.111000
70
192
0
VERTEX
8
OBJECT__20
10
-12.952000
20
15.605000
30
102.688004
70
192
0
VERTEX
8
OBJECT__20
10
-6.712000
20
19.011000
30
99.644997
70
192
0
VERTEX
8
OBJECT__20
10
-13.128000
20
15.509000
30
102.774002
70
192
0
VERTEX
8
OBJECT__20
10
1.786000
20
19.868999
30
95.500000
70
192
0
VERTEX
8
OBJECT__20
10
0
20
0
30
0
70
128
71
1
72
2
73
3
0
VERTEX
8
OBJECT__20
10
0
20
0
30
0
70
128
71
4
72
1
73
5
0
VERTEX
8
OBJECT__20
10
0
20
0
30
0
70
128
71
1
72
4
73
2
0
VERTEX
8
OBJECT__20
10
0
20
0
30
0
70
128
71
4
72
6
73
7
0
VERTEX
8
OBJECT__20
10
0
20
0
30
0
70
128
71
3
72
8
73
1
0
VERTEX
8
OBJECT__20
10
0
20
0
30
0
70
128
71
4
72
9
73
10
0
VERTEX
8
OBJECT__20
10
0
20
0
30
0
70
128
71
4
72
11
73
12
0
VERTEX
8
OBJECT__20
10
0
20
0
30
0
70
128
71
5
72
6
73
4
0
VERTEX
8
OBJECT__20
10
0
20
0
30
0
70
128
71
4
72
13
73
14
0
VERTEX
8
OBJECT__20
10
0
20
0
30
0
70
128
71
4
72
15
73
16
0
VERTEX
8
OBJECT__20
10
0
20
0
30
0
70
128
71
10
72
17
73
4
0
VERTEX
8
OBJECT__20
10
0
20
0
30
0
70
128
71
7
72
11
73
4
0
VERTEX
8
OBJECT__20
10
0
20
0
30
0
70
128
71
16
72
13
73
4
0
VERTEX
8
OBJECT__20
10
0
20
0
30
0
70
128
71
12
72
9
73
4
0
VERTEX
8
OBJECT__20
10
0
20
0
30
0
70
128
71
17
72
15
73
4
0
VERTEX
8
OBJECT__20
10
0
20
0
30
0
70
128
71
14
72
18
73
4
0
SEQEND
8
OBJECT__20
0
POLYLINE
8
OBJECT__21
66
1
70
64
71
4
72
2
62
253
0
VERTEX
8
OBJECT__21
10
70.099998
20
-8.500000
30
115.500000
70
192
0
VERTEX
8
OBJECT__21
10
70.099998
20
-8.500000
30
121.500000
70
192
0
VERTEX
8
OBJECT__21
10
17.604000
20
-8.500000
30
121.500000
70
192
0
VERTEX
8
OBJECT__21
10
17.604000
20
-8.500000
30
115.500000
70
192
0
VERTEX
8
OBJECT__21
10
0
20
0
30
0
70
128
71
1
72
2
73
3
0
VERTEX
8
OBJECT__21
10
0
20
0
30
0
70
128
71
3
72
4
73
1
0
SEQEND
8
OBJECT__21
0
POLYLINE
8
OBJECT__22
66
1
70
64
71
5
72
3
62
253
0
VERTEX
8
OBJECT__22
10
70.099998
20
8.500000
30
115.500000
70
192
0
VERTEX
8
OBJECT__22
10
70.099998
20
-8.500000
30
115.500000
70
192
0
VERTEX
8
OBJECT__22
10
19.500000
20
0.000000
30
115.500000
70
192
0
VERTEX
8
OBJECT__22
10
17.604000
20
-8.500000
30
115.500000
70
192
0
VERTEX
8
OBJECT__22
10
17.604000
20
8.500000
30
115.500000
70
192
0
VERTEX
8
OBJECT__22
10
0
20
0
30
0
70
128
71
1
72
2
73
3
0
VERTEX
8
OBJECT__22
10
0
20
0
30
0
70
128
71
2
72
4
73
3
0
VERTEX
8
OBJECT__22
10
0
20
0
30
0
70
128
71
3
72
5
73
1
0
SEQEND
8
OBJECT__22
0
POLYLINE
8
OBJECT__23
66
1
70
64
71
4
72
2
62
253
0
VERTEX
8
OBJECT__23
10
70.099998
20
8.500000
30
121.500000
70
192
0
VERTEX
8
OBJECT__23
10
70.099998
20
8.500000
30
115.500000
70
192
0
VERTEX
8
OBJECT__23
10
17.604000
20
8.500000
30
115.500000
70
192
0
VERTEX
8
OBJECT__23
10
17.604000
20
8.500000
30
121.500000
70
192
0
VERTEX
8
OBJECT__23
10
0
20
0
30
0
70
128
71
1
72
2
73
3
0
VERTEX
8
OBJECT__23
10
0
20
0
30
0
70
128
71
3
72
4
73
1
0
SEQEND
8
OBJECT__23
0
POLYLINE
8
OBJECT__24
66
1
70
64
71
5
72
3
62
253
0
VERTEX
8
OBJECT__24
10
70.099998
20
-8.500000
30
121.500000
70
192
0
VERTEX
8
OBJECT__24
10
70.099998
20
8.500000
30
121.500000
70
192
0
VERTEX
8
OBJECT__24
10
19.500000
20
0.000000
30
121.500000
70
192
0
VERTEX
8
OBJECT__24
10
17.604000
20
8.500000
30
121.500000
70
192
0
VERTEX
8
OBJECT__24
10
17.604000
20
-8.500000
30
121.500000
70
192
0
VERTEX
8
OBJECT__24
10
0
20
0
30
0
70
128
71
1
72
2
73
3
0
VERTEX
8
OBJECT__24
10
0
20
0
30
0
70
128
71
2
72
4
73
3
0
VERTEX
8
OBJECT__24
10
0
20
0
30
0
70
128
71
3
72
5
73
1
0
SEQEND
8
OBJECT__24
0
POLYLINE
8
OBJECT__25
66
1
70
64
71
4
72
2
62
253
0
VERTEX
8
OBJECT__25
10
70.099998
20
-8.500000
30
115.500000
70
192
0
VERTEX
8
OBJECT__25
10
70.099998
20
8.500000
30
115.500000
70
192
0
VERTEX
8
OBJECT__25
10
70.099998
20
8.500000
30
121.500000
70
192
0
VERTEX
8
OBJECT__25
10
70.099998
20
-8.500000
30
121.500000
70
192
0
VERTEX
8
OBJECT__25
10
0
20
0
30
0
70
128
71
1
72
2
73
3
0
VERTEX
8
OBJECT__25
10
0
20
0
30
0
70
128
71
3
72
4
73
1
0
SEQEND
8
OBJECT__25
0
POLYLINE
8
OBJECT__26
66
1
70
64
71
10
72
8
62
253
0
VERTEX
8
OBJECT__26
10
108.429001
20
-1.520000
30
51.117001
70
192
0
VERTEX
8
OBJECT__26
10
104.672997
20
-9.870000
30
43.743999
70
192
0
VERTEX
8
OBJECT__26
10
101.899002
20
-8.930000
30
38.300999
70
192
0
VERTEX
8
OBJECT__26
10
103.211998
20
9.870000
30
40.876999
70
192
0
VERTEX
8
OBJECT__26
10
105.985001
20
8.930000
30
46.320000
70
192
0
VERTEX
8
OBJECT__26
10
107.167000
20
-7.039000
30
48.639000
70
192
0
VERTEX
8
OBJECT__26
10
100.718002
20
7.039000
30
35.981998
70
192
0
VERTEX
8
OBJECT__26
10
99.906998
20
-4.580000
30
34.389999
70
192
0
VERTEX
8
OBJECT__26
10
99.455002
20
1.520000
30
33.504002
70
192
0
VERTEX
8
OBJECT__26
10
107.977997
20
4.580000
30
50.230999
70
192
0
VERTEX
8
OBJECT__26
10
0
20
0
30
0
70
128
71
1
72
2
73
3
0
VERTEX
8
OBJECT__26
10
0
20
0
30
0
70
128
71
1
72
4
73
5
0
VERTEX
8
OBJECT__26
10
0
20
0
30
0
70
128
71
1
72
6
73
2
0
VERTEX
8
OBJECT__26
10
0
20
0
30
0
70
128
71
1
72
7
73
4
0
VERTEX
8
OBJECT__26
10
0
20
0
30
0
70
128
71
3
72
8
73
1
0
VERTEX
8
OBJECT__26
10
0
20
0
30
0
70
128
71
1
72
9
73
7
0
VERTEX
8
OBJECT__26
10
0
20
0
30
0
70
128
71
5
72
10
73
1
0
VERTEX
8
OBJECT__26
10
0
20
0
30
0
70
128
71
8
72
9
73
1
0
SEQEND
8
OBJECT__26
0
POLYLINE
8
OBJECT__27
66
1
70
64
71
32
72
32
62
253
0
VERTEX
8
OBJECT__27
10
108.429001
20
-1.520000
30
51.117001
70
192
0
VERTEX
8
OBJECT__27
10
88.382004
20
-1.520000
30
61.332001
70
192
0
VERTEX
8
OBJECT__27
10
87.638000
20
-5.658000
30
59.872002
70
192
0
VERTEX
8
OBJECT__27
10
107.167000
20
-7.039000
30
48.639000
70
192
0
VERTEX
8
OBJECT__27
10
104.672997
20
-9.870000
30
43.743999
70
192
0
VERTEX
8
OBJECT__27
10
86.153000
20
-8.675000
30
56.957001
70
192
0
VERTEX
8
OBJECT__27
10
87.044998
20
-6.862000
30
58.709000
70
192
0
VERTEX
8
OBJECT__27
10
101.899002
20
-8.930000
30
38.300999
70
192
0
VERTEX
8
OBJECT__27
10
84.220001
20
-9.974000
30
53.165001
70
192
0
VERTEX
8
OBJECT__27
10
84.603996
20
-9.717000
30
53.917000
70
192
0
VERTEX
8
OBJECT__27
10
82.223000
20
-9.298000
30
49.244999
70
192
0
VERTEX
8
OBJECT__27
10
81.892998
20
-8.798000
30
48.597000
70
192
0
VERTEX
8
OBJECT__27
10
80.556999
20
-6.780000
30
45.976002
70
192
0
VERTEX
8
OBJECT__27
10
99.906998
20
-4.580000
30
34.389999
70
192
0
VERTEX
8
OBJECT__27
10
99.455002
20
1.520000
30
33.504002
70
192
0
VERTEX
8
OBJECT__27
10
79.552002
20
-2.919000
30
44.002998
70
192
0
VERTEX
8
OBJECT__27
10
79.954002
20
-4.460000
30
44.791000
70
192
0
VERTEX
8
OBJECT__27
10
79.407997
20
1.520000
30
43.719002
70
192
0
VERTEX
8
OBJECT__27
10
80.151001
20
5.658000
30
45.179001
70
192
0
VERTEX
8
OBJECT__27
10
100.718002
20
7.039000
30
35.981998
70
192
0
VERTEX
8
OBJECT__27
10
103.211998
20
9.870000
30
40.876999
70
192
0
VERTEX
8
OBJECT__27
10
81.636002
20
8.675000
30
48.092999
70
192
0
VERTEX
8
OBJECT__27
10
80.744003
20
6.862000
30
46.341999
70
192
0
VERTEX
8
OBJECT__27
10
105.985001
20
8.930000
30
46.320000
70
192
0
VERTEX
8
OBJECT__27
10
83.569000
20
9.974000
30
51.886002
70
192
0
VERTEX
8
OBJECT__27
10
83.185997
20
9.717000
30
51.133999
70
192
0
VERTEX
8
OBJECT__27
10
85.566002
20
9.298000
30
55.805000
70
192
0
VERTEX
8
OBJECT__27
10
85.896004
20
8.798000
30
56.453999
70
192
0
VERTEX
8
OBJECT__27
10
87.232002
20
6.780000
30
59.075001
70
192
0
VERTEX
8
OBJECT__27
10
107.977997
20
4.580000
30
50.230999
70
192
0
VERTEX
8
OBJECT__27
10
88.237000
20
2.919000
30
61.047001
70
192
0
VERTEX
8
OBJECT__27
10
87.835999
20
4.460000
30
60.259998
70
192
0
VERTEX
8
OBJECT__27
10
0
20
0
30
0
70
128
71
1
72
2
73
3
0
VERTEX
8
OBJECT__27
10
0
20
0
30
0
70
128
71
3
72
4
73
1
0
VERTEX
8
OBJECT__27
10
0
20
0
30
0
70
128
71
5
72
4
73
6
0
VERTEX
8
OBJECT__27
10
0
20
0
30
0
70
128
71
4
72
7
73
6
0
VERTEX
8
OBJECT__27
10
0
20
0
30
0
70
128
71
8
72
5
73
9
0
VERTEX
8
OBJECT__27
10
0
20
0
30
0
70
128
71
5
72
10
73
9
0
VERTEX
8
OBJECT__27
10
0
20
0
30
0
70
128
71
9
72
11
73
8
0
VERTEX
8
OBJECT__27
10
0
20
0
30
0
70
128
71
8
72
12
73
13
0
VERTEX
8
OBJECT__27
10
0
20
0
30
0
70
128
71
13
72
14
73
8
0
VERTEX
8
OBJECT__27
10
0
20
0
30
0
70
128
71
15
72
14
73
16
0
VERTEX
8
OBJECT__27
10
0
20
0
30
0
70
128
71
14
72
17
73
16
0
VERTEX
8
OBJECT__27
10
0
20
0
30
0
70
128
71
15
72
18
73
19
0
VERTEX
8
OBJECT__27
10
0
20
0
30
0
70
128
71
19
72
20
73
15
0
VERTEX
8
OBJECT__27
10
0
20
0
30
0
70
128
71
21
72
20
73
22
0
VERTEX
8
OBJECT__27
10
0
20
0
30
0
70
128
71
20
72
23
73
22
0
VERTEX
8
OBJECT__27
10
0
20
0
30
0
70
128
71
24
72
21
73
25
0
VERTEX
8
OBJECT__27
10
0
20
0
30
0
70
128
71
21
72
26
73
25
0
VERTEX
8
OBJECT__27
10
0
20
0
30
0
70
128
71
25
72
27
73
24
0
VERTEX
8
OBJECT__27
10
0
20
0
30
0
70
128
71
24
72
28
73
29
0
VERTEX
8
OBJECT__27
10
0
20
0
30
0
70
128
71
29
72
30
73
24
0
VERTEX
8
OBJECT__27
10
0
20
0
30
0
70
128
71
1
72
30
73
31
0
VERTEX
8
OBJECT__27
10
0
20
0
30
0
70
128
71
30
72
32
73
31
0
VERTEX
8
OBJECT__27
10
0
20
0
30
0
70
128
71
31
72
2
73
1
0
VERTEX
8
OBJECT__27
10
0
20
0
30
0
70
128
71
29
72
32
73
30
0
VERTEX
8
OBJECT__27
10
0
20
0
30
0
70
128
71
27
72
28
73
24
0
VERTEX
8
OBJECT__27
10
0
20
0
30
0
70
128
71
22
72
26
73
21
0
VERTEX
8
OBJECT__27
10
0
20
0
30
0
70
128
71
19
72
23
73
20
0
VERTEX
8
OBJECT__27
10
0
20
0
30
0
70
128
71
16
72
18
73
15
0
VERTEX
8
OBJECT__27
10
0
20
0
30
0
70
128
71
13
72
17
73
14
0
VERTEX
8
OBJECT__27
10
0
20
0
30
0
70
128
71
11
72
12
73
8
0
VERTEX
8
OBJECT__27
10
0
20
0
30
0
70
128
71
6
72
10
73
5
0
VERTEX
8
OBJECT__27
10
0
20
0
30
0
70
128
71
3
72
7
73
4
0
SEQEND
8
OBJECT__27
0
POLYLINE
8
OBJECT__29
66
1
70
64
71
50
72
64
62
253
0
VERTEX
8
OBJECT__29
10
79.552002
20
-2.919000
30
44.002998
70
192
0
VERTEX
8
OBJECT__29
10
78.797997
20
-2.791000
30
44.859001
70
192
0
VERTEX
8
OBJECT__29
10
78.660004
20
1.453000
30
44.587002
70
192
0
VERTEX
8
OBJECT__29
10
79.759003
20
-6.482000
30
46.744999
70
192
0
VERTEX
8
OBJECT__29
10
79.954002
20
-4.460000
30
44.791000
70
192
0
VERTEX
8
OBJECT__29
10
80.556999
20
-6.780000
30
45.976002
70
192
0
VERTEX
8
OBJECT__29
10
81.892998
20
-8.798000
30
48.597000
70
192
0
VERTEX
8
OBJECT__29
10
81.351997
20
-8.889000
30
49.870998
70
192
0
VERTEX
8
OBJECT__29
10
84.220001
20
-9.974000
30
53.165001
70
192
0
VERTEX
8
OBJECT__29
10
83.261002
20
-9.536000
30
53.618000
70
192
0
VERTEX
8
OBJECT__29
10
85.109001
20
-8.294000
30
57.243999
70
192
0
VERTEX
8
OBJECT__29
10
84.603996
20
-9.717000
30
53.917000
70
192
0
VERTEX
8
OBJECT__29
10
86.153000
20
-8.675000
30
56.957001
70
192
0
VERTEX
8
OBJECT__29
10
87.044998
20
-6.862000
30
58.709000
70
192
0
VERTEX
8
OBJECT__29
10
86.528999
20
-5.409000
30
60.030998
70
192
0
VERTEX
8
OBJECT__29
10
87.638000
20
-5.658000
30
59.872002
70
192
0
VERTEX
8
OBJECT__29
10
88.382004
20
-1.520000
30
61.332001
70
192
0
VERTEX
8
OBJECT__29
10
87.239998
20
-1.453000
30
61.426998
70
192
0
VERTEX
8
OBJECT__29
10
88.237000
20
2.919000
30
61.047001
70
192
0
VERTEX
8
OBJECT__29
10
87.100998
20
2.791000
30
61.154999
70
192
0
VERTEX
8
OBJECT__29
10
86.139999
20
6.482000
30
59.269001
70
192
0
VERTEX
8
OBJECT__29
10
87.835999
20
4.460000
30
60.259998
70
192
0
VERTEX
8
OBJECT__29
10
87.232002
20
6.780000
30
59.075001
70
192
0
VERTEX
8
OBJECT__29
10
85.896004
20
8.798000
30
56.453999
70
192
0
VERTEX
8
OBJECT__29
10
84.546997
20
8.889000
30
56.143002
70
192
0
VERTEX
8
OBJECT__29
10
83.569000
20
9.974000
30
51.886002
70
192
0
VERTEX
8
OBJECT__29
10
82.638000
20
9.536000
30
52.396000
70
192
0
VERTEX
8
OBJECT__29
10
80.791000
20
8.294000
30
48.770000
70
192
0
VERTEX
8
OBJECT__29
10
83.185997
20
9.717000
30
51.133999
70
192
0
VERTEX
8
OBJECT__29
10
81.636002
20
8.675000
30
48.092999
70
192
0
VERTEX
8
OBJECT__29
10
80.744003
20
6.862000
30
46.341999
70
192
0
VERTEX
8
OBJECT__29
10
79.371002
20
5.409000
30
45.983002
70
192
0
VERTEX
8
OBJECT__29
10
80.151001
20
5.658000
30
45.179001
70
192
0
VERTEX
8
OBJECT__29
10
79.407997
20
1.520000
30
43.719002
70
192
0
VERTEX
8
OBJECT__29
10
78.866997
20
-2.481000
30
45.963001
70
192
0
VERTEX
8
OBJECT__29
10
78.744003
20
1.292000
30
45.721001
70
192
0
VERTEX
8
OBJECT__29
10
79.722000
20
-5.763000
30
47.639000
70
192
0
VERTEX
8
OBJECT__29
10
81.138000
20
-7.903000
30
50.417999
70
192
0
VERTEX
8
OBJECT__29
10
82.834999
20
-8.478000
30
53.750000
70
192
0
VERTEX
8
OBJECT__29
10
84.477997
20
-7.374000
30
56.973999
70
192
0
VERTEX
8
OBJECT__29
10
85.739998
20
-4.809000
30
59.451000
70
192
0
VERTEX
8
OBJECT__29
10
86.372002
20
-1.292000
30
60.692001
70
192
0
VERTEX
8
OBJECT__29
10
86.249001
20
2.481000
30
60.450001
70
192
0
VERTEX
8
OBJECT__29
10
85.394997
20
5.763000
30
58.773998
70
192
0
VERTEX
8
OBJECT__29
10
83.978996
20
7.903000
30
55.993999
70
192
0
VERTEX
8
OBJECT__29
10
82.280998
20
8.478000
30
52.662998
70
192
0
VERTEX
8
OBJECT__29
10
80.639000
20
7.374000
30
49.438999
70
192
0
VERTEX
8
OBJECT__29
10
79.375999
20
4.809000
30
46.962002
70
192
0
VERTEX
8
OBJECT__29
10
85.566002
20
9.298000
30
55.805000
70
192
0
VERTEX
8
OBJECT__29
10
82.223000
20
-9.298000
30
49.244999
70
192
0
VERTEX
8
OBJECT__29
10
0
20
0
30
0
70
128
71
1
72
2
73
3
0
VERTEX
8
OBJECT__29
10
0
20
0
30
0
70
128
71
4
72
2
73
5
0
VERTEX
8
OBJECT__29
10
0
20
0
30
0
70
128
71
2
72
1
73
5
0
VERTEX
8
OBJECT__29
10
0
20
0
30
0
70
128
71
4
72
6
73
7
0
VERTEX
8
OBJECT__29
10
0
20
0
30
0
70
128
71
7
72
8
73
4
0
VERTEX
8
OBJECT__29
10
0
20
0
30
0
70
128
71
9
72
10
73
8
0
VERTEX
8
OBJECT__29
10
0
20
0
30
0
70
128
71
11
72
10
73
12
0
VERTEX
8
OBJECT__29
10
0
20
0
30
0
70
128
71
10
72
9
73
12
0
VERTEX
8
OBJECT__29
10
0
20
0
30
0
70
128
71
11
72
13
73
14
0
VERTEX
8
OBJECT__29
10
0
20
0
30
0
70
128
71
14
72
15
73
11
0
VERTEX
8
OBJECT__29
10
0
20
0
30
0
70
128
71
16
72
17
73
18
0
VERTEX
8
OBJECT__29
10
0
20
0
30
0
70
128
71
17
72
19
73
20
0
VERTEX
8
OBJECT__29
10
0
20
0
30
0
70
128
71
21
72
20
73
22
0
VERTEX
8
OBJECT__29
10
0
20
0
30
0
70
128
71
20
72
19
73
22
0
VERTEX
8
OBJECT__29
10
0
20
0
30
0
70
128
71
21
72
23
73
24
0
VERTEX
8
OBJECT__29
10
0
20
0
30
0
70
128
71
24
72
25
73
21
0
VERTEX
8
OBJECT__29
10
0
20
0
30
0
70
128
71
26
72
27
73
25
0
VERTEX
8
OBJECT__29
10
0
20
0
30
0
70
128
71
28
72
27
73
29
0
VERTEX
8
OBJECT__29
10
0
20
0
30
0
70
128
71
27
72
26
73
29
0
VERTEX
8
OBJECT__29
10
0
20
0
30
0
70
128
71
28
72
30
73
31
0
VERTEX
8
OBJECT__29
10
0
20
0
30
0
70
128
71
31
72
32
73
28
0
VERTEX
8
OBJECT__29
10
0
20
0
30
0
70
128
71
33
72
34
73
3
0
VERTEX
8
OBJECT__29
10
0
20
0
30
0
70
128
71
2
72
35
73
36
0
VERTEX
8
OBJECT__29
10
0
20
0
30
0
70
128
71
4
72
37
73
35
0
VERTEX
8
OBJECT__29
10
0
20
0
30
0
70
128
71
4
72
8
73
38
0
VERTEX
8
OBJECT__29
10
0
20
0
30
0
70
128
71
8
72
10
73
39
0
VERTEX
8
OBJECT__29
10
0
20
0
30
0
70
128
71
11
72
40
73
39
0
VERTEX
8
OBJECT__29
10
0
20
0
30
0
70
128
71
15
72
41
73
40
0
VERTEX
8
OBJECT__29
10
0
20
0
30
0
70
128
71
18
72
42
73
41
0
VERTEX
8
OBJECT__29
10
0
20
0
30
0
70
128
71
20
72
43
73
42
0
VERTEX
8
OBJECT__29
10
0
20
0
30
0
70
128
71
20
72
21
73
44
0
VERTEX
8
OBJECT__29
10
0
20
0
30
0
70
128
71
21
72
25
73
45
0
VERTEX
8
OBJECT__29
10
0
20
0
30
0
70
128
71
25
72
27
73
46
0
VERTEX
8
OBJECT__29
10
0
20
0
30
0
70
128
71
27
72
28
73
47
0
VERTEX
8
OBJECT__29
10
0
20
0
30
0
70
128
71
28
72
32
73
48
0
VERTEX
8
OBJECT__29
10
0
20
0
30
0
70
128
71
32
72
3
73
36
0
VERTEX
8
OBJECT__29
10
0
20
0
30
0
70
128
71
36
72
48
73
32
0
VERTEX
8
OBJECT__29
10
0
20
0
30
0
70
128
71
48
72
47
73
28
0
VERTEX
8
OBJECT__29
10
0
20
0
30
0
70
128
71
47
72
46
73
27
0
VERTEX
8
OBJECT__29
10
0
20
0
30
0
70
128
71
46
72
45
73
25
0
VERTEX
8
OBJECT__29
10
0
20
0
30
0
70
128
71
45
72
44
73
21
0
VERTEX
8
OBJECT__29
10
0
20
0
30
0
70
128
71
44
72
43
73
20
0
VERTEX
8
OBJECT__29
10
0
20
0
30
0
70
128
71
42
72
18
73
20
0
VERTEX
8
OBJECT__29
10
0
20
0
30
0
70
128
71
41
72
15
73
18
0
VERTEX
8
OBJECT__29
10
0
20
0
30
0
70
128
71
40
72
11
73
15
0
VERTEX
8
OBJECT__29
10
0
20
0
30
0
70
128
71
39
72
10
73
11
0
VERTEX
8
OBJECT__29
10
0
20
0
30
0
70
128
71
39
72
38
73
8
0
VERTEX
8
OBJECT__29
10
0
20
0
30
0
70
128
71
38
72
37
73
4
0
VERTEX
8
OBJECT__29
10
0
20
0
30
0
70
128
71
35
72
2
73
4
0
VERTEX
8
OBJECT__29
10
0
20
0
30
0
70
128
71
36
72
3
73
2
0
VERTEX
8
OBJECT__29
10
0
20
0
30
0
70
128
71
3
72
32
73
33
0
VERTEX
8
OBJECT__29
10
0
20
0
30
0
70
128
71
31
72
33
73
32
0
VERTEX
8
OBJECT__29
10
0
20
0
30
0
70
128
71
29
72
30
73
28
0
VERTEX
8
OBJECT__29
10
0
20
0
30
0
70
128
71
25
72
49
73
26
0
VERTEX
8
OBJECT__29
10
0
20
0
30
0
70
128
71
24
72
49
73
25
0
VERTEX
8
OBJECT__29
10
0
20
0
30
0
70
128
71
22
72
23
73
21
0
VERTEX
8
OBJECT__29
10
0
20
0
30
0
70
128
71
20
72
18
73
17
0
VERTEX
8
OBJECT__29
10
0
20
0
30
0
70
128
71
18
72
15
73
16
0
VERTEX
8
OBJECT__29
10
0
20
0
30
0
70
128
71
14
72
16
73
15
0
VERTEX
8
OBJECT__29
10
0
20
0
30
0
70
128
71
12
72
13
73
11
0
VERTEX
8
OBJECT__29
10
0
20
0
30
0
70
128
71
8
72
50
73
9
0
VERTEX
8
OBJECT__29
10
0
20
0
30
0
70
128
71
7
72
50
73
8
0
VERTEX
8
OBJECT__29
10
0
20
0
30
0
70
128
71
5
72
6
73
4
0
VERTEX
8
OBJECT__29
10
0
20
0
30
0
70
128
71
3
72
34
73
1
0
SEQEND
8
OBJECT__29
0
POLYLINE
8
OBJECT__30
66
1
70
64
71
23
72
23
62
253
0
VERTEX
8
OBJECT__30
10
79.375999
20
4.809000
30
46.962002
70
192
0
VERTEX
8
OBJECT__30
10
78.744003
20
1.292000
30
45.721001
70
192
0
VERTEX
8
OBJECT__30
10
79.988998
20
0.870000
30
48.165001
70
192
0
VERTEX
8
OBJECT__30
10
80.639000
20
7.374000
30
49.438999
70
192
0
VERTEX
8
OBJECT__30
10
80.844002
20
4.304000
30
49.842999
70
192
0
VERTEX
8
OBJECT__30
10
82.500999
20
5.724000
30
53.094002
70
192
0
VERTEX
8
OBJECT__30
10
78.866997
20
-2.481000
30
45.963001
70
192
0
VERTEX
8
OBJECT__30
10
80.335999
20
-2.971000
30
48.846001
70
192
0
VERTEX
8
OBJECT__30
10
82.834999
20
-8.478000
30
53.750000
70
192
0
VERTEX
8
OBJECT__30
10
83.500000
20
-5.335000
30
55.056000
70
192
0
VERTEX
8
OBJECT__30
10
81.723000
20
-5.421000
30
51.567001
70
192
0
VERTEX
8
OBJECT__30
10
86.372002
20
-1.292000
30
60.692001
70
192
0
VERTEX
8
OBJECT__30
10
86.249001
20
2.481000
30
60.450001
70
192
0
VERTEX
8
OBJECT__30
10
85.107002
20
1.118000
30
58.209000
70
192
0
VERTEX
8
OBJECT__30
10
83.978996
20
7.903000
30
55.993999
70
192
0
VERTEX
8
OBJECT__30
10
82.280998
20
8.478000
30
52.662998
70
192
0
VERTEX
8
OBJECT__30
10
79.722000
20
-5.763000
30
47.639000
70
192
0
VERTEX
8
OBJECT__30
10
81.138000
20
-7.903000
30
50.417999
70
192
0
VERTEX
8
OBJECT__30
10
84.836998
20
-2.753000
30
57.679001
70
192
0
VERTEX
8
OBJECT__30
10
84.477997
20
-7.374000
30
56.973999
70
192
0
VERTEX
8
OBJECT__30
10
85.739998
20
-4.809000
30
59.451000
70
192
0
VERTEX
8
OBJECT__30
10
84.184998
20
4.465000
30
56.398998
70
192
0
VERTEX
8
OBJECT__30
10
85.394997
20
5.763000
30
58.773998
70
192
0
VERTEX
8
OBJECT__30
10
0
20
0
30
0
70
128
71
1
72
2
73
3
0
VERTEX
8
OBJECT__30
10
0
20
0
30
0
70
128
71
4
72
5
73
6
0
VERTEX
8
OBJECT__30
10
0
20
0
30
0
70
128
71
5
72
4
73
1
0
VERTEX
8
OBJECT__30
10
0
20
0
30
0
70
128
71
7
72
8
73
3
0
VERTEX
8
OBJECT__30
10
0
20
0
30
0
70
128
71
9
72
10
73
11
0
VERTEX
8
OBJECT__30
10
0
20
0
30
0
70
128
71
12
72
13
73
14
0
VERTEX
8
OBJECT__30
10
0
20
0
30
0
70
128
71
15
72
16
73
6
0
VERTEX
8
OBJECT__30
10
0
20
0
30
0
70
128
71
3
72
5
73
1
0
VERTEX
8
OBJECT__30
10
0
20
0
30
0
70
128
71
3
72
2
73
7
0
VERTEX
8
OBJECT__30
10
0
20
0
30
0
70
128
71
17
72
18
73
11
0
VERTEX
8
OBJECT__30
10
0
20
0
30
0
70
128
71
11
72
18
73
9
0
VERTEX
8
OBJECT__30
10
0
20
0
30
0
70
128
71
19
72
10
73
20
0
VERTEX
8
OBJECT__30
10
0
20
0
30
0
70
128
71
19
72
21
73
12
0
VERTEX
8
OBJECT__30
10
0
20
0
30
0
70
128
71
22
72
23
73
15
0
VERTEX
8
OBJECT__30
10
0
20
0
30
0
70
128
71
7
72
17
73
8
0
VERTEX
8
OBJECT__30
10
0
20
0
30
0
70
128
71
9
72
20
73
10
0
VERTEX
8
OBJECT__30
10
0
20
0
30
0
70
128
71
14
72
19
73
12
0
VERTEX
8
OBJECT__30
10
0
20
0
30
0
70
128
71
6
72
16
73
4
0
VERTEX
8
OBJECT__30
10
0
20
0
30
0
70
128
71
20
72
21
73
19
0
VERTEX
8
OBJECT__30
10
0
20
0
30
0
70
128
71
14
72
13
73
23
0
VERTEX
8
OBJECT__30
10
0
20
0
30
0
70
128
71
11
72
8
73
17
0
VERTEX
8
OBJECT__30
10
0
20
0
30
0
70
128
71
6
72
22
73
15
0
VERTEX
8
OBJECT__30
10
0
20
0
30
0
70
128
71
23
72
22
73
14
0
SEQEND
8
OBJECT__30
0
POLYLINE
8
OBJECT__31
66
1
70
64
71
39
72
50
62
253
0
VERTEX
8
OBJECT__31
10
80.842003
20
-4.470000
30
59.757000
70
192
0
VERTEX
8
OBJECT__31
10
80.883003
20
-3.533000
30
58.547001
70
192
0
VERTEX
8
OBJECT__31
10
81.461998
20
-0.811000
30
59.683998
70
192
0
VERTEX
8
OBJECT__31
10
79.380997
20
-6.495000
30
56.888000
70
192
0
VERTEX
8
OBJECT__31
10
79.727997
20
-5.134000
30
56.278999
70
192
0
VERTEX
8
OBJECT__31
10
77.653999
20
-6.458000
30
53.500000
70
192
0
VERTEX
8
OBJECT__31
10
78.362999
20
-5.105000
30
53.601002
70
192
0
VERTEX
8
OBJECT__31
10
76.210999
20
-4.370000
30
50.667000
70
192
0
VERTEX
8
OBJECT__31
10
77.222000
20
-3.455000
30
51.361000
70
192
0
VERTEX
8
OBJECT__31
10
75.509003
20
-0.895000
30
49.289001
70
192
0
VERTEX
8
OBJECT__31
10
76.667000
20
-0.708000
30
50.271999
70
192
0
VERTEX
8
OBJECT__31
10
75.771004
20
2.864000
30
49.804001
70
192
0
VERTEX
8
OBJECT__31
10
76.875000
20
2.264000
30
50.680000
70
192
0
VERTEX
8
OBJECT__31
10
76.915001
20
5.714000
30
52.049000
70
192
0
VERTEX
8
OBJECT__31
10
77.778999
20
4.517000
30
52.453999
70
192
0
VERTEX
8
OBJECT__31
10
78.575996
20
6.750000
30
55.308998
70
192
0
VERTEX
8
OBJECT__31
10
79.092003
20
5.336000
30
55.030998
70
192
0
VERTEX
8
OBJECT__31
10
80.227997
20
5.643000
30
58.550999
70
192
0
VERTEX
8
OBJECT__31
10
80.398003
20
4.460000
30
57.594002
70
192
0
VERTEX
8
OBJECT__31
10
81.346001
20
2.744000
30
60.745998
70
192
0
VERTEX
8
OBJECT__31
10
81.280998
20
2.169000
30
59.327999
70
192
0
VERTEX
8
OBJECT__31
10
81.574997
20
-1.026000
30
61.195000
70
192
0
VERTEX
8
OBJECT__31
10
81.944000
20
-3.146000
30
57.514000
70
192
0
VERTEX
8
OBJECT__31
10
82.459999
20
-0.722000
30
58.526001
70
192
0
VERTEX
8
OBJECT__31
10
81.355003
20
-3.961000
30
56.358002
70
192
0
VERTEX
8
OBJECT__31
10
80.916000
20
-4.570000
30
55.494999
70
192
0
VERTEX
8
OBJECT__31
10
79.699997
20
-4.544000
30
53.111000
70
192
0
VERTEX
8
OBJECT__31
10
78.684998
20
-3.075000
30
51.117001
70
192
0
VERTEX
8
OBJECT__31
10
79.557999
20
-4.338000
30
52.831001
70
192
0
VERTEX
8
OBJECT__31
10
78.331001
20
-1.323000
30
50.422001
70
192
0
VERTEX
8
OBJECT__31
10
78.191002
20
-0.630000
30
50.147999
70
192
0
VERTEX
8
OBJECT__31
10
78.375999
20
2.015000
30
50.509998
70
192
0
VERTEX
8
OBJECT__31
10
79.180000
20
4.021000
30
52.089001
70
192
0
VERTEX
8
OBJECT__31
10
78.602997
20
2.584000
30
50.958000
70
192
0
VERTEX
8
OBJECT__31
10
80.184998
20
4.647000
30
54.062000
70
192
0
VERTEX
8
OBJECT__31
10
80.348999
20
4.750000
30
54.383999
70
192
0
VERTEX
8
OBJECT__31
10
81.512001
20
3.971000
30
56.665001
70
192
0
VERTEX
8
OBJECT__31
10
82.297997
20
1.931000
30
58.209000
70
192
0
VERTEX
8
OBJECT__31
10
81.848000
20
3.098000
30
57.326000
70
192
0
VERTEX
8
OBJECT__31
10
0
20
0
30
0
70
128
71
1
72
2
73
3
0
VERTEX
8
OBJECT__31
10
0
20
0
30
0
70
128
71
4
72
5
73
2
0
VERTEX
8
OBJECT__31
10
0
20
0
30
0
70
128
71
4
72
6
73
7
0
VERTEX
8
OBJECT__31
10
0
20
0
30
0
70
128
71
6
72
8
73
9
0
VERTEX
8
OBJECT__31
10
0
20
0
30
0
70
128
71
8
72
10
73
11
0
VERTEX
8
OBJECT__31
10
0
20
0
30
0
70
128
71
10
72
12
73
13
0
VERTEX
8
OBJECT__31
10
0
20
0
30
0
70
128
71
14
72
15
73
13
0
VERTEX
8
OBJECT__31
10
0
20
0
30
0
70
128
71
16
72
17
73
15
0
VERTEX
8
OBJECT__31
10
0
20
0
30
0
70
128
71
16
72
18
73
19
0
VERTEX
8
OBJECT__31
10
0
20
0
30
0
70
128
71
18
72
20
73
21
0
VERTEX
8
OBJECT__31
10
0
20
0
30
0
70
128
71
22
72
3
73
21
0
VERTEX
8
OBJECT__31
10
0
20
0
30
0
70
128
71
2
72
23
73
24
0
VERTEX
8
OBJECT__31
10
0
20
0
30
0
70
128
71
2
72
5
73
25
0
VERTEX
8
OBJECT__31
10
0
20
0
30
0
70
128
71
5
72
26
73
25
0
VERTEX
8
OBJECT__31
10
0
20
0
30
0
70
128
71
5
72
7
73
27
0
VERTEX
8
OBJECT__31
10
0
20
0
30
0
70
128
71
9
72
28
73
29
0
VERTEX
8
OBJECT__31
10
0
20
0
30
0
70
128
71
29
72
7
73
9
0
VERTEX
8
OBJECT__31
10
0
20
0
30
0
70
128
71
9
72
11
73
30
0
VERTEX
8
OBJECT__31
10
0
20
0
30
0
70
128
71
11
72
31
73
30
0
VERTEX
8
OBJECT__31
10
0
20
0
30
0
70
128
71
13
72
32
73
31
0
VERTEX
8
OBJECT__31
10
0
20
0
30
0
70
128
71
15
72
33
73
34
0
VERTEX
8
OBJECT__31
10
0
20
0
30
0
70
128
71
34
72
13
73
15
0
VERTEX
8
OBJECT__31
10
0
20
0
30
0
70
128
71
15
72
17
73
35
0
VERTEX
8
OBJECT__31
10
0
20
0
30
0
70
128
71
17
72
36
73
35
0
VERTEX
8
OBJECT__31
10
0
20
0
30
0
70
128
71
19
72
37
73
36
0
VERTEX
8
OBJECT__31
10
0
20
0
30
0
70
128
71
21
72
38
73
39
0
VERTEX
8
OBJECT__31
10
0
20
0
30
0
70
128
71
39
72
19
73
21
0
VERTEX
8
OBJECT__31
10
0
20
0
30
0
70
128
71
3
72
24
73
38
0
VERTEX
8
OBJECT__31
10
0
20
0
30
0
70
128
71
38
72
21
73
3
0
VERTEX
8
OBJECT__31
10
0
20
0
30
0
70
128
71
39
72
37
73
19
0
VERTEX
8
OBJECT__31
10
0
20
0
30
0
70
128
71
36
72
17
73
19
0
VERTEX
8
OBJECT__31
10
0
20
0
30
0
70
128
71
35
72
33
73
15
0
VERTEX
8
OBJECT__31
10
0
20
0
30
0
70
128
71
34
72
32
73
13
0
VERTEX
8
OBJECT__31
10
0
20
0
30
0
70
128
71
31
72
11
73
13
0
VERTEX
8
OBJECT__31
10
0
20
0
30
0
70
128
71
30
72
28
73
9
0
VERTEX
8
OBJECT__31
10
0
20
0
30
0
70
128
71
29
72
27
73
7
0
VERTEX
8
OBJECT__31
10
0
20
0
30
0
70
128
71
27
72
26
73
5
0
VERTEX
8
OBJECT__31
10
0
20
0
30
0
70
128
71
25
72
23
73
2
0
VERTEX
8
OBJECT__31
10
0
20
0
30
0
70
128
71
24
72
3
73
2
0
VERTEX
8
OBJECT__31
10
0
20
0
30
0
70
128
71
21
72
20
73
22
0
VERTEX
8
OBJECT__31
10
0
20
0
30
0
70
128
71
21
72
19
73
18
0
VERTEX
8
OBJECT__31
10
0
20
0
30
0
70
128
71
19
72
17
73
16
0
VERTEX
8
OBJECT__31
10
0
20
0
30
0
70
128
71
15
72
14
73
16
0
VERTEX
8
OBJECT__31
10
0
20
0
30
0
70
128
71
13
72
12
73
14
0
VERTEX
8
OBJECT__31
10
0
20
0
30
0
70
128
71
13
72
11
73
10
0
VERTEX
8
OBJECT__31
10
0
20
0
30
0
70
128
71
11
72
9
73
8
0
VERTEX
8
OBJECT__31
10
0
20
0
30
0
70
128
71
9
72
7
73
6
0
VERTEX
8
OBJECT__31
10
0
20
0
30
0
70
128
71
7
72
5
73
4
0
VERTEX
8
OBJECT__31
10
0
20
0
30
0
70
128
71
2
72
1
73
4
0
VERTEX
8
OBJECT__31
10
0
20
0
30
0
70
128
71
3
72
22
73
1
0
SEQEND
8
OBJECT__31
0
POLYLINE
8
OBJECT__32
66
1
70
64
71
34
72
34
62
253
0
VERTEX
8
OBJECT__32
10
82.459999
20
-0.722000
30
58.526001
70
192
0
VERTEX
8
OBJECT__32
10
81.944000
20
-3.146000
30
57.514000
70
192
0
VERTEX
8
OBJECT__32
10
83.793999
20
-2.137000
30
57.338001
70
192
0
VERTEX
8
OBJECT__32
10
82.920998
20
-4.078000
30
55.624001
70
192
0
VERTEX
8
OBJECT__32
10
81.355003
20
-3.961000
30
56.358002
70
192
0
VERTEX
8
OBJECT__32
10
81.540001
20
-4.695000
30
52.915001
70
192
0
VERTEX
8
OBJECT__32
10
82.856003
20
-4.223000
30
55.495998
70
192
0
VERTEX
8
OBJECT__32
10
80.916000
20
-4.570000
30
55.494999
70
192
0
VERTEX
8
OBJECT__32
10
81.117996
20
-4.226000
30
52.085999
70
192
0
VERTEX
8
OBJECT__32
10
79.699997
20
-4.544000
30
53.111000
70
192
0
VERTEX
8
OBJECT__32
10
79.557999
20
-4.338000
30
52.831001
70
192
0
VERTEX
8
OBJECT__32
10
79.869003
20
-1.315000
30
49.633999
70
192
0
VERTEX
8
OBJECT__32
10
80.349998
20
-3.374000
30
50.578999
70
192
0
VERTEX
8
OBJECT__32
10
78.684998
20
-3.075000
30
51.117001
70
192
0
VERTEX
8
OBJECT__32
10
78.602997
20
2.584000
30
50.958000
70
192
0
VERTEX
8
OBJECT__32
10
80.139999
20
2.578000
30
50.167000
70
192
0
VERTEX
8
OBJECT__32
10
79.942001
20
2.137000
30
49.778000
70
192
0
VERTEX
8
OBJECT__32
10
79.739998
20
-0.764000
30
49.381001
70
192
0
VERTEX
8
OBJECT__32
10
78.191002
20
-0.630000
30
50.147999
70
192
0
VERTEX
8
OBJECT__32
10
78.375999
20
2.015000
30
50.509998
70
192
0
VERTEX
8
OBJECT__32
10
78.331001
20
-1.323000
30
50.422001
70
192
0
VERTEX
8
OBJECT__32
10
80.184998
20
4.647000
30
54.062000
70
192
0
VERTEX
8
OBJECT__32
10
81.728996
20
4.527000
30
53.285000
70
192
0
VERTEX
8
OBJECT__32
10
80.879997
20
4.223000
30
51.619999
70
192
0
VERTEX
8
OBJECT__32
10
79.180000
20
4.021000
30
52.089001
70
192
0
VERTEX
8
OBJECT__32
10
82.195999
20
4.695000
30
54.201000
70
192
0
VERTEX
8
OBJECT__32
10
80.348999
20
4.750000
30
54.383999
70
192
0
VERTEX
8
OBJECT__32
10
81.512001
20
3.971000
30
56.665001
70
192
0
VERTEX
8
OBJECT__32
10
83.386002
20
3.374000
30
56.536999
70
192
0
VERTEX
8
OBJECT__32
10
81.848000
20
3.098000
30
57.326000
70
192
0
VERTEX
8
OBJECT__32
10
83.429001
20
3.192000
30
56.619999
70
192
0
VERTEX
8
OBJECT__32
10
82.297997
20
1.931000
30
58.209000
70
192
0
VERTEX
8
OBJECT__32
10
84.000000
20
-0.722000
30
57.741001
70
192
0
VERTEX
8
OBJECT__32
10
83.996002
20
0.764000
30
57.735001
70
192
0
VERTEX
8
OBJECT__32
10
0
20
0
30
0
70
128
71
1
72
2
73
3
0
VERTEX
8
OBJECT__32
10
0
20
0
30
0
70
128
71
4
72
3
73
2
0
VERTEX
8
OBJECT__32
10
0
20
0
30
0
70
128
71
2
72
5
73
4
0
VERTEX
8
OBJECT__32
10
0
20
0
30
0
70
128
71
6
72
7
73
8
0
VERTEX
8
OBJECT__32
10
0
20
0
30
0
70
128
71
9
72
6
73
10
0
VERTEX
8
OBJECT__32
10
0
20
0
30
0
70
128
71
10
72
11
73
9
0
VERTEX
8
OBJECT__32
10
0
20
0
30
0
70
128
71
5
72
8
73
7
0
VERTEX
8
OBJECT__32
10
0
20
0
30
0
70
128
71
7
72
4
73
5
0
VERTEX
8
OBJECT__32
10
0
20
0
30
0
70
128
71
12
72
13
73
14
0
VERTEX
8
OBJECT__32
10
0
20
0
30
0
70
128
71
11
72
14
73
13
0
VERTEX
8
OBJECT__32
10
0
20
0
30
0
70
128
71
13
72
9
73
11
0
VERTEX
8
OBJECT__32
10
0
20
0
30
0
70
128
71
15
72
16
73
17
0
VERTEX
8
OBJECT__32
10
0
20
0
30
0
70
128
71
17
72
18
73
19
0
VERTEX
8
OBJECT__32
10
0
20
0
30
0
70
128
71
19
72
20
73
17
0
VERTEX
8
OBJECT__32
10
0
20
0
30
0
70
128
71
21
72
19
73
18
0
VERTEX
8
OBJECT__32
10
0
20
0
30
0
70
128
71
18
72
12
73
21
0
VERTEX
8
OBJECT__32
10
0
20
0
30
0
70
128
71
22
72
23
73
24
0
VERTEX
8
OBJECT__32
10
0
20
0
30
0
70
128
71
16
72
15
73
25
0
VERTEX
8
OBJECT__32
10
0
20
0
30
0
70
128
71
25
72
24
73
16
0
VERTEX
8
OBJECT__32
10
0
20
0
30
0
70
128
71
26
72
27
73
28
0
VERTEX
8
OBJECT__32
10
0
20
0
30
0
70
128
71
28
72
29
73
26
0
VERTEX
8
OBJECT__32
10
0
20
0
30
0
70
128
71
23
72
22
73
27
0
VERTEX
8
OBJECT__32
10
0
20
0
30
0
70
128
71
26
72
23
73
27
0
VERTEX
8
OBJECT__32
10
0
20
0
30
0
70
128
71
30
72
31
73
29
0
VERTEX
8
OBJECT__32
10
0
20
0
30
0
70
128
71
31
72
30
73
32
0
VERTEX
8
OBJECT__32
10
0
20
0
30
0
70
128
71
1
72
33
73
34
0
VERTEX
8
OBJECT__32
10
0
20
0
30
0
70
128
71
34
72
32
73
1
0
VERTEX
8
OBJECT__32
10
0
20
0
30
0
70
128
71
32
72
34
73
31
0
VERTEX
8
OBJECT__32
10
0
20
0
30
0
70
128
71
28
72
30
73
29
0
VERTEX
8
OBJECT__32
10
0
20
0
30
0
70
128
71
24
72
25
73
22
0
VERTEX
8
OBJECT__32
10
0
20
0
30
0
70
128
71
17
72
20
73
15
0
VERTEX
8
OBJECT__32
10
0
20
0
30
0
70
128
71
14
72
21
73
12
0
VERTEX
8
OBJECT__32
10
0
20
0
30
0
70
128
71
8
72
10
73
6
0
VERTEX
8
OBJECT__32
10
0
20
0
30
0
70
128
71
3
72
33
73
1
0
SEQEND
8
OBJECT__32
0
POLYLINE
8
OBJECT__33
66
1
70
64
71
28
72
28
62
253
0
VERTEX
8
OBJECT__33
10
84.557999
20
4.066000
30
56.709999
70
192
0
VERTEX
8
OBJECT__33
10
83.123001
20
5.658000
30
53.895000
70
192
0
VERTEX
8
OBJECT__33
10
82.195999
20
4.695000
30
54.201000
70
192
0
VERTEX
8
OBJECT__33
10
85.293999
20
0.921000
30
58.153999
70
192
0
VERTEX
8
OBJECT__33
10
83.429001
20
3.192000
30
56.619999
70
192
0
VERTEX
8
OBJECT__33
10
83.386002
20
3.374000
30
56.536999
70
192
0
VERTEX
8
OBJECT__33
10
85.049004
20
-2.576000
30
57.674999
70
192
0
VERTEX
8
OBJECT__33
10
85.327003
20
0.000000
30
58.221001
70
192
0
VERTEX
8
OBJECT__33
10
84.000000
20
-0.722000
30
57.741001
70
192
0
VERTEX
8
OBJECT__33
10
83.996002
20
0.764000
30
57.735001
70
192
0
VERTEX
8
OBJECT__33
10
83.793999
20
-2.137000
30
57.338001
70
192
0
VERTEX
8
OBJECT__33
10
82.920998
20
-4.078000
30
55.624001
70
192
0
VERTEX
8
OBJECT__33
10
83.918999
20
-5.089000
30
55.456001
70
192
0
VERTEX
8
OBJECT__33
10
82.333000
20
-5.658000
30
52.344002
70
192
0
VERTEX
8
OBJECT__33
10
82.856003
20
-4.223000
30
55.495998
70
192
0
VERTEX
8
OBJECT__33
10
80.899002
20
-4.066000
30
49.528999
70
192
0
VERTEX
8
OBJECT__33
10
81.117996
20
-4.226000
30
52.085999
70
192
0
VERTEX
8
OBJECT__33
10
81.540001
20
-4.695000
30
52.915001
70
192
0
VERTEX
8
OBJECT__33
10
80.349998
20
-3.374000
30
50.578999
70
192
0
VERTEX
8
OBJECT__33
10
79.869003
20
-1.315000
30
49.633999
70
192
0
VERTEX
8
OBJECT__33
10
80.163002
20
-0.921000
30
48.084999
70
192
0
VERTEX
8
OBJECT__33
10
80.406998
20
2.576000
30
48.563999
70
192
0
VERTEX
8
OBJECT__33
10
79.739998
20
-0.764000
30
49.381001
70
192
0
VERTEX
8
OBJECT__33
10
81.538002
20
5.089000
30
50.783001
70
192
0
VERTEX
8
OBJECT__33
10
80.139999
20
2.578000
30
50.167000
70
192
0
VERTEX
8
OBJECT__33
10
79.942001
20
2.137000
30
49.778000
70
192
0
VERTEX
8
OBJECT__33
10
80.879997
20
4.223000
30
51.619999
70
192
0
VERTEX
8
OBJECT__33
10
81.728996
20
4.527000
30
53.285000
70
192
0
VERTEX
8
OBJECT__33
10
0
20
0
30
0
70
128
71
1
72
2
73
3
0
VERTEX
8
OBJECT__33
10
0
20
0
30
0
70
128
71
4
72
1
73
5
0
VERTEX
8
OBJECT__33
10
0
20
0
30
0
70
128
71
1
72
6
73
5
0
VERTEX
8
OBJECT__33
10
0
20
0
30
0
70
128
71
7
72
8
73
9
0
VERTEX
8
OBJECT__33
10
0
20
0
30
0
70
128
71
10
72
9
73
8
0
VERTEX
8
OBJECT__33
10
0
20
0
30
0
70
128
71
8
72
4
73
10
0
VERTEX
8
OBJECT__33
10
0
20
0
30
0
70
128
71
7
72
11
73
12
0
VERTEX
8
OBJECT__33
10
0
20
0
30
0
70
128
71
12
72
13
73
7
0
VERTEX
8
OBJECT__33
10
0
20
0
30
0
70
128
71
14
72
13
73
15
0
VERTEX
8
OBJECT__33
10
0
20
0
30
0
70
128
71
16
72
14
73
17
0
VERTEX
8
OBJECT__33
10
0
20
0
30
0
70
128
71
14
72
18
73
17
0
VERTEX
8
OBJECT__33
10
0
20
0
30
0
70
128
71
16
72
19
73
20
0
VERTEX
8
OBJECT__33
10
0
20
0
30
0
70
128
71
20
72
21
73
16
0
VERTEX
8
OBJECT__33
10
0
20
0
30
0
70
128
71
22
72
21
73
23
0
VERTEX
8
OBJECT__33
10
0
20
0
30
0
70
128
71
24
72
22
73
25
0
VERTEX
8
OBJECT__33
10
0
20
0
30
0
70
128
71
22
72
26
73
25
0
VERTEX
8
OBJECT__33
10
0
20
0
30
0
70
128
71
24
72
27
73
28
0
VERTEX
8
OBJECT__33
10
0
20
0
30
0
70
128
71
28
72
2
73
24
0
VERTEX
8
OBJECT__33
10
0
20
0
30
0
70
128
71
28
72
3
73
2
0
VERTEX
8
OBJECT__33
10
0
20
0
30
0
70
128
71
25
72
27
73
24
0
VERTEX
8
OBJECT__33
10
0
20
0
30
0
70
128
71
23
72
26
73
22
0
VERTEX
8
OBJECT__33
10
0
20
0
30
0
70
128
71
20
72
23
73
21
0
VERTEX
8
OBJECT__33
10
0
20
0
30
0
70
128
71
17
72
19
73
16
0
VERTEX
8
OBJECT__33
10
0
20
0
30
0
70
128
71
15
72
18
73
14
0
VERTEX
8
OBJECT__33
10
0
20
0
30
0
70
128
71
12
72
15
73
13
0
VERTEX
8
OBJECT__33
10
0
20
0
30
0
70
128
71
9
72
11
73
7
0
VERTEX
8
OBJECT__33
10
0
20
0
30
0
70
128
71
5
72
10
73
4
0
VERTEX
8
OBJECT__33
10
0
20
0
30
0
70
128
71
3
72
6
73
1
0
SEQEND
8
OBJECT__33
0
POLYLINE
8
OBJECT__34
66
1
70
64
71
14
72
12
62
253
0
VERTEX
8
OBJECT__34
10
-19.999001
20
4.450000
30
95.000000
70
192
0
VERTEX
8
OBJECT__34
10
-0.500000
20
20.000000
30
95.000000
70
192
0
VERTEX
8
OBJECT__34
10
-9.178000
20
18.018999
30
95.000000
70
192
0
VERTEX
8
OBJECT__34
10
8.178000
20
18.018999
30
95.000000
70
192
0
VERTEX
8
OBJECT__34
10
18.999001
20
-4.450000
30
95.000000
70
192
0
VERTEX
8
OBJECT__34
10
-0.500000
20
-20.000000
30
95.000000
70
192
0
VERTEX
8
OBJECT__34
10
8.178000
20
-18.018999
30
95.000000
70
192
0
VERTEX
8
OBJECT__34
10
-16.136999
20
-12.470000
30
95.000000
70
192
0
VERTEX
8
OBJECT__34
10
-9.178000
20
-18.018999
30
95.000000
70
192
0
VERTEX
8
OBJECT__34
10
15.137000
20
12.470000
30
95.000000
70
192
0
VERTEX
8
OBJECT__34
10
-19.999001
20
-4.450000
30
95.000000
70
192
0
VERTEX
8
OBJECT__34
10
18.999001
20
4.450000
30
95.000000
70
192
0
VERTEX
8
OBJECT__34
10
-16.136999
20
12.470000
30
95.000000
70
192
0
VERTEX
8
OBJECT__34
10
15.137000
20
-12.470000
30
95.000000
70
192
0
VERTEX
8
OBJECT__34
10
0
20
0
30
0
70
128
71
1
72
2
73
3
0
VERTEX
8
OBJECT__34
10
0
20
0
30
0
70
128
71
1
72
4
73
2
0
VERTEX
8
OBJECT__34
10
0
20
0
30
0
70
128
71
5
72
6
73
7
0
VERTEX
8
OBJECT__34
10
0
20
0
30
0
70
128
71
5
72
8
73
9
0
VERTEX
8
OBJECT__34
10
0
20
0
30
0
70
128
71
1
72
10
73
4
0
VERTEX
8
OBJECT__34
10
0
20
0
30
0
70
128
71
9
72
6
73
5
0
VERTEX
8
OBJECT__34
10
0
20
0
30
0
70
128
71
5
72
1
73
11
0
VERTEX
8
OBJECT__34
10
0
20
0
30
0
70
128
71
1
72
12
73
10
0
VERTEX
8
OBJECT__34
10
0
20
0
30
0
70
128
71
11
72
8
73
5
0
VERTEX
8
OBJECT__34
10
0
20
0
30
0
70
128
71
1
72
5
73
12
0
VERTEX
8
OBJECT__34
10
0
20
0
30
0
70
128
71
3
72
13
73
1
0
VERTEX
8
OBJECT__34
10
0
20
0
30
0
70
128
71
7
72
14
73
5
0
SEQEND
8
OBJECT__34
0
POLYLINE
8
OBJECT__35
66
1
70
64
71
76
72
78
62
253
0
VERTEX
8
OBJECT__35
10
-9.178000
20
18.018999
30
8.000000
70
192
0
VERTEX
8
OBJECT__35
10
-9.178000
20
18.018999
30
95.000000
70
192
0
VERTEX
8
OBJECT__35
10
-0.500000
20
20.000000
30
95.000000
70
192
0
VERTEX
8
OBJECT__35
10
-16.136999
20
12.470000
30
8.000000
70
192
0
VERTEX
8
OBJECT__35
10
-16.136999
20
12.470000
30
95.000000
70
192
0
VERTEX
8
OBJECT__35
10
-19.999001
20
4.450000
30
8.000000
70
192
0
VERTEX
8
OBJECT__35
10
-19.999001
20
4.450000
30
95.000000
70
192
0
VERTEX
8
OBJECT__35
10
-19.999001
20
-4.450000
30
8.000000
70
192
0
VERTEX
8
OBJECT__35
10
-19.999001
20
-4.450000
30
95.000000
70
192
0
VERTEX
8
OBJECT__35
10
-16.136999
20
-12.470000
30
8.000000
70
192
0
VERTEX
8
OBJECT__35
10
-16.136999
20
-12.470000
30
95.000000
70
192
0
VERTEX
8
OBJECT__35
10
-9.178000
20
-18.018999
30
8.000000
70
192
0
VERTEX
8
OBJECT__35
10
-0.500000
20
-20.000000
30
8.000000
70
192
0
VERTEX
8
OBJECT__35
10
-0.500000
20
-20.000000
30
95.000000
70
192
0
VERTEX
8
OBJECT__35
10
8.178000
20
-18.018999
30
8.000000
70
192
0
VERTEX
8
OBJECT__35
10
8.178000
20
-18.018999
30
95.000000
70
192
0
VERTEX
8
OBJECT__35
10
-0.500000
20
20.000000
30
8.000000
70
192
0
VERTEX
8
OBJECT__35
10
8.178000
20
18.018999
30
95.000000
70
192
0
VERTEX
8
OBJECT__35
10
15.137000
20
12.470000
30
8.000000
70
192
0
VERTEX
8
OBJECT__35
10
18.410999
20
6.509000
30
39.410999
70
192
0
VERTEX
8
OBJECT__35
10
18.992001
20
4.449000
30
38.103001
70
192
0
VERTEX
8
OBJECT__35
10
15.125000
20
12.460000
30
47.040001
70
192
0
VERTEX
8
OBJECT__35
10
15.378000
20
12.161000
30
46.443001
70
192
0
VERTEX
8
OBJECT__35
10
16.778000
20
10.073000
30
43.161999
70
192
0
VERTEX
8
OBJECT__35
10
17.563000
20
8.587000
30
41.348000
70
192
0
VERTEX
8
OBJECT__35
10
18.999001
20
-4.450000
30
8.000000
70
192
0
VERTEX
8
OBJECT__35
10
19.375999
20
-2.226000
30
37.245998
70
192
0
VERTEX
8
OBJECT__35
10
19.017000
20
-4.369000
30
38.046001
70
192
0
VERTEX
8
OBJECT__35
10
19.490999
20
-0.613000
30
36.990002
70
192
0
VERTEX
8
OBJECT__35
10
18.999001
20
4.450000
30
8.000000
70
192
0
VERTEX
8
OBJECT__35
10
19.440001
20
1.549000
30
37.103001
70
192
0
VERTEX
8
OBJECT__35
10
19.028000
20
4.321000
30
38.021999
70
192
0
VERTEX
8
OBJECT__35
10
19.128000
20
3.840000
30
37.798000
70
192
0
VERTEX
8
OBJECT__35
10
15.137000
20
-12.470000
30
8.000000
70
192
0
VERTEX
8
OBJECT__35
10
16.861000
20
-9.929000
30
42.969002
70
192
0
VERTEX
8
OBJECT__35
10
15.357000
20
-12.188000
30
46.491001
70
192
0
VERTEX
8
OBJECT__35
10
17.853001
20
-7.948000
30
40.681999
70
192
0
VERTEX
8
OBJECT__35
10
18.658001
20
-5.742000
30
38.853001
70
192
0
VERTEX
8
OBJECT__35
10
18.996000
20
-4.450000
30
38.092999
70
192
0
VERTEX
8
OBJECT__35
10
14.396000
20
-13.346000
30
72.393997
70
192
0
VERTEX
8
OBJECT__35
10
15.128000
20
-12.463000
30
72.598000
70
192
0
VERTEX
8
OBJECT__35
10
12.478000
20
-15.217000
30
53.306000
70
192
0
VERTEX
8
OBJECT__35
10
12.478000
20
-15.217000
30
57.664001
70
192
0
VERTEX
8
OBJECT__35
10
12.478000
20
-15.217000
30
69.164001
70
192
0
VERTEX
8
OBJECT__35
10
12.549000
20
-15.157000
30
69.859001
70
192
0
VERTEX
8
OBJECT__35
10
12.821000
20
-14.918000
30
70.677002
70
192
0
VERTEX
8
OBJECT__35
10
13.359000
20
-14.420000
30
71.526001
70
192
0
VERTEX
8
OBJECT__35
10
13.510000
20
-14.273000
30
50.863998
70
192
0
VERTEX
8
OBJECT__35
10
12.975000
20
-14.779000
30
52.131001
70
192
0
VERTEX
8
OBJECT__35
10
15.120000
20
-12.456000
30
47.051998
70
192
0
VERTEX
8
OBJECT__35
10
18.999001
20
-4.450000
30
95.000000
70
192
0
VERTEX
8
OBJECT__35
10
15.137000
20
-12.470000
30
95.000000
70
192
0
VERTEX
8
OBJECT__35
10
17.363001
20
-8.995000
30
72.664001
70
192
0
VERTEX
8
OBJECT__35
10
15.368000
20
-12.174000
30
72.664001
70
192
0
VERTEX
8
OBJECT__35
10
18.503000
20
-6.235000
30
72.664001
70
192
0
VERTEX
8
OBJECT__35
10
18.999001
20
4.450000
30
95.000000
70
192
0
VERTEX
8
OBJECT__35
10
19.496000
20
0.406000
30
72.664001
70
192
0
VERTEX
8
OBJECT__35
10
19.068001
20
4.135000
30
72.664001
70
192
0
VERTEX
8
OBJECT__35
10
19.334000
20
-2.575000
30
72.664001
70
192
0
VERTEX
8
OBJECT__35
10
18.913000
20
-4.431000
30
72.664001
70
192
0
VERTEX
8
OBJECT__35
10
15.137000
20
12.470000
30
95.000000
70
192
0
VERTEX
8
OBJECT__35
10
18.233999
20
7.002000
30
72.664001
70
192
0
VERTEX
8
OBJECT__35
10
16.599001
20
10.375000
30
72.664001
70
192
0
VERTEX
8
OBJECT__35
10
18.978001
20
4.444000
30
72.664001
70
192
0
VERTEX
8
OBJECT__35
10
15.368000
20
12.174000
30
72.664001
70
192
0
VERTEX
8
OBJECT__35
10
8.178000
20
18.018999
30
8.000000
70
192
0
VERTEX
8
OBJECT__35
10
14.113000
20
13.655000
30
49.431999
70
192
0
VERTEX
8
OBJECT__35
10
12.478000
20
15.217000
30
53.306000
70
192
0
VERTEX
8
OBJECT__35
10
12.478000
20
15.217000
30
57.664001
70
192
0
VERTEX
8
OBJECT__35
10
12.478000
20
15.217000
30
69.164001
70
192
0
VERTEX
8
OBJECT__35
10
12.594000
20
15.118000
30
70.053001
70
192
0
VERTEX
8
OBJECT__35
10
13.553000
20
14.231000
30
71.744003
70
192
0
VERTEX
8
OBJECT__35
10
12.894000
20
14.852000
30
70.825996
70
192
0
VERTEX
8
OBJECT__35
10
15.130000
20
12.465000
30
72.610001
70
192
0
VERTEX
8
OBJECT__35
10
14.581000
20
13.136000
30
72.485001
70
192
0
VERTEX
8
OBJECT__35
10
-9.178000
20
-18.018999
30
95.000000
70
192
0
VERTEX
8
OBJECT__35
10
0
20
0
30
0
70
128
71
1
72
2
73
3
0
VERTEX
8
OBJECT__35
10
0
20
0
30
0
70
128
71
1
72
4
73
5
0
VERTEX
8
OBJECT__35
10
0
20
0
30
0
70
128
71
6
72
7
73
5
0
VERTEX
8
OBJECT__35
10
0
20
0
30
0
70
128
71
8
72
9
73
7
0
VERTEX
8
OBJECT__35
10
0
20
0
30
0
70
128
71
10
72
11
73
9
0
VERTEX
8
OBJECT__35
10
0
20
0
30
0
70
128
71
11
72
10
73
12
0
VERTEX
8
OBJECT__35
10
0
20
0
30
0
70
128
71
12
72
13
73
14
0
VERTEX
8
OBJECT__35
10
0
20
0
30
0
70
128
71
15
72
16
73
14
0
VERTEX
8
OBJECT__35
10
0
20
0
30
0
70
128
71
17
72
3
73
18
0
VERTEX
8
OBJECT__35
10
0
20
0
30
0
70
128
71
19
72
20
73
21
0
VERTEX
8
OBJECT__35
10
0
20
0
30
0
70
128
71
19
72
22
73
23
0
VERTEX
8
OBJECT__35
10
0
20
0
30
0
70
128
71
23
72
24
73
19
0
VERTEX
8
OBJECT__35
10
0
20
0
30
0
70
128
71
24
72
25
73
19
0
VERTEX
8
OBJECT__35
10
0
20
0
30
0
70
128
71
25
72
20
73
19
0
VERTEX
8
OBJECT__35
10
0
20
0
30
0
70
128
71
26
72
27
73
28
0
VERTEX
8
OBJECT__35
10
0
20
0
30
0
70
128
71
26
72
29
73
27
0
VERTEX
8
OBJECT__35
10
0
20
0
30
0
70
128
71
30
72
31
73
29
0
VERTEX
8
OBJECT__35
10
0
20
0
30
0
70
128
71
29
72
26
73
30
0
VERTEX
8
OBJECT__35
10
0
20
0
30
0
70
128
71
30
72
21
73
32
0
VERTEX
8
OBJECT__35
10
0
20
0
30
0
70
128
71
32
72
33
73
30
0
VERTEX
8
OBJECT__35
10
0
20
0
30
0
70
128
71
33
72
31
73
30
0
VERTEX
8
OBJECT__35
10
0
20
0
30
0
70
128
71
34
72
35
73
36
0
VERTEX
8
OBJECT__35
10
0
20
0
30
0
70
128
71
34
72
37
73
35
0
VERTEX
8
OBJECT__35
10
0
20
0
30
0
70
128
71
34
72
38
73
37
0
VERTEX
8
OBJECT__35
10
0
20
0
30
0
70
128
71
34
72
26
73
39
0
VERTEX
8
OBJECT__35
10
0
20
0
30
0
70
128
71
39
72
38
73
34
0
VERTEX
8
OBJECT__35
10
0
20
0
30
0
70
128
71
16
72
40
73
41
0
VERTEX
8
OBJECT__35
10
0
20
0
30
0
70
128
71
16
72
15
73
42
0
VERTEX
8
OBJECT__35
10
0
20
0
30
0
70
128
71
42
72
43
73
16
0
VERTEX
8
OBJECT__35
10
0
20
0
30
0
70
128
71
43
72
44
73
16
0
VERTEX
8
OBJECT__35
10
0
20
0
30
0
70
128
71
44
72
45
73
16
0
VERTEX
8
OBJECT__35
10
0
20
0
30
0
70
128
71
45
72
46
73
16
0
VERTEX
8
OBJECT__35
10
0
20
0
30
0
70
128
71
46
72
47
73
16
0
VERTEX
8
OBJECT__35
10
0
20
0
30
0
70
128
71
47
72
40
73
16
0
VERTEX
8
OBJECT__35
10
0
20
0
30
0
70
128
71
15
72
48
73
49
0
VERTEX
8
OBJECT__35
10
0
20
0
30
0
70
128
71
15
72
34
73
50
0
VERTEX
8
OBJECT__35
10
0
20
0
30
0
70
128
71
50
72
48
73
15
0
VERTEX
8
OBJECT__35
10
0
20
0
30
0
70
128
71
49
72
42
73
15
0
VERTEX
8
OBJECT__35
10
0
20
0
30
0
70
128
71
51
72
52
73
53
0
VERTEX
8
OBJECT__35
10
0
20
0
30
0
70
128
71
52
72
54
73
53
0
VERTEX
8
OBJECT__35
10
0
20
0
30
0
70
128
71
53
72
55
73
51
0
VERTEX
8
OBJECT__35
10
0
20
0
30
0
70
128
71
52
72
41
73
54
0
VERTEX
8
OBJECT__35
10
0
20
0
30
0
70
128
71
56
72
57
73
58
0
VERTEX
8
OBJECT__35
10
0
20
0
30
0
70
128
71
51
72
59
73
57
0
VERTEX
8
OBJECT__35
10
0
20
0
30
0
70
128
71
51
72
60
73
59
0
VERTEX
8
OBJECT__35
10
0
20
0
30
0
70
128
71
57
72
56
73
51
0
VERTEX
8
OBJECT__35
10
0
20
0
30
0
70
128
71
61
72
56
73
62
0
VERTEX
8
OBJECT__35
10
0
20
0
30
0
70
128
71
62
72
63
73
61
0
VERTEX
8
OBJECT__35
10
0
20
0
30
0
70
128
71
56
72
64
73
62
0
VERTEX
8
OBJECT__35
10
0
20
0
30
0
70
128
71
63
72
65
73
61
0
VERTEX
8
OBJECT__35
10
0
20
0
30
0
70
128
71
66
72
67
73
22
0
VERTEX
8
OBJECT__35
10
0
20
0
30
0
70
128
71
66
72
68
73
67
0
VERTEX
8
OBJECT__35
10
0
20
0
30
0
70
128
71
18
72
69
73
68
0
VERTEX
8
OBJECT__35
10
0
20
0
30
0
70
128
71
18
72
70
73
69
0
VERTEX
8
OBJECT__35
10
0
20
0
30
0
70
128
71
18
72
71
73
70
0
VERTEX
8
OBJECT__35
10
0
20
0
30
0
70
128
71
18
72
72
73
73
0
VERTEX
8
OBJECT__35
10
0
20
0
30
0
70
128
71
73
72
71
73
18
0
VERTEX
8
OBJECT__35
10
0
20
0
30
0
70
128
71
61
72
74
73
75
0
VERTEX
8
OBJECT__35
10
0
20
0
30
0
70
128
71
75
72
18
73
61
0
VERTEX
8
OBJECT__35
10
0
20
0
30
0
70
128
71
75
72
72
73
18
0
VERTEX
8
OBJECT__35
10
0
20
0
30
0
70
128
71
68
72
66
73
18
0
VERTEX
8
OBJECT__35
10
0
20
0
30
0
70
128
71
22
72
19
73
66
0
VERTEX
8
OBJECT__35
10
0
20
0
30
0
70
128
71
65
72
74
73
61
0
VERTEX
8
OBJECT__35
10
0
20
0
30
0
70
128
71
58
72
64
73
56
0
VERTEX
8
OBJECT__35
10
0
20
0
30
0
70
128
71
55
72
60
73
51
0
VERTEX
8
OBJECT__35
10
0
20
0
30
0
70
128
71
41
72
52
73
16
0
VERTEX
8
OBJECT__35
10
0
20
0
30
0
70
128
71
36
72
50
73
34
0
VERTEX
8
OBJECT__35
10
0
20
0
30
0
70
128
71
28
72
39
73
26
0
VERTEX
8
OBJECT__35
10
0
20
0
30
0
70
128
71
21
72
30
73
19
0
VERTEX
8
OBJECT__35
10
0
20
0
30
0
70
128
71
18
72
66
73
17
0
VERTEX
8
OBJECT__35
10
0
20
0
30
0
70
128
71
14
72
13
73
15
0
VERTEX
8
OBJECT__35
10
0
20
0
30
0
70
128
71
14
72
76
73
12
0
VERTEX
8
OBJECT__35
10
0
20
0
30
0
70
128
71
12
72
76
73
11
0
VERTEX
8
OBJECT__35
10
0
20
0
30
0
70
128
71
9
72
8
73
10
0
VERTEX
8
OBJECT__35
10
0
20
0
30
0
70
128
71
7
72
6
73
8
0
VERTEX
8
OBJECT__35
10
0
20
0
30
0
70
128
71
5
72
4
73
6
0
VERTEX
8
OBJECT__35
10
0
20
0
30
0
70
128
71
5
72
2
73
1
0
VERTEX
8
OBJECT__35
10
0
20
0
30
0
70
128
71
3
72
17
73
1
0
SEQEND
8
OBJECT__35
0
POLYLINE
8
OBJECT__37
66
1
70
64
71
19
72
21
62
253
0
VERTEX
8
OBJECT__37
10
15.128000
20
-12.463000
30
72.598000
70
192
0
VERTEX
8
OBJECT__37
10
14.396000
20
-13.346000
30
72.393997
70
192
0
VERTEX
8
OBJECT__37
10
15.221000
20
-13.357000
30
70.648003
70
192
0
VERTEX
8
OBJECT__37
10
16.065001
20
-12.709000
30
70.542999
70
192
0
VERTEX
8
OBJECT__37
10
15.368000
20
-12.174000
30
72.664001
70
192
0
VERTEX
8
OBJECT__37
10
16.629999
20
-14.193000
30
69.625999
70
192
0
VERTEX
8
OBJECT__37
10
13.359000
20
-14.420000
30
71.526001
70
192
0
VERTEX
8
OBJECT__37
10
14.250000
20
-14.082000
30
70.370003
70
192
0
VERTEX
8
OBJECT__37
10
15.438000
20
-14.369000
30
69.501999
70
192
0
VERTEX
8
OBJECT__37
10
12.821000
20
-14.918000
30
70.677002
70
192
0
VERTEX
8
OBJECT__37
10
13.726000
20
-14.454000
30
69.968002
70
192
0
VERTEX
8
OBJECT__37
10
14.819000
20
-14.451000
30
69.379997
70
192
0
VERTEX
8
OBJECT__37
10
12.549000
20
-15.157000
30
69.859001
70
192
0
VERTEX
8
OBJECT__37
10
13.458000
20
-14.638000
30
69.540001
70
192
0
VERTEX
8
OBJECT__37
10
14.506000
20
-14.490000
30
69.263000
70
192
0
VERTEX
8
OBJECT__37
10
12.478000
20
-15.217000
30
69.164001
70
192
0
VERTEX
8
OBJECT__37
10
13.387000
20
-14.685000
30
69.164001
70
192
0
VERTEX
8
OBJECT__37
10
14.425000
20
-14.500000
30
69.164001
70
192
0
VERTEX
8
OBJECT__37
10
17.747999
20
-14.000000
30
69.664001
70
192
0
VERTEX
8
OBJECT__37
10
0
20
0
30
0
70
128
71
1
72
2
73
3
0
VERTEX
8
OBJECT__37
10
0
20
0
30
0
70
128
71
4
72
5
73
1
0
VERTEX
8
OBJECT__37
10
0
20
0
30
0
70
128
71
4
72
3
73
6
0
VERTEX
8
OBJECT__37
10
0
20
0
30
0
70
128
71
2
72
7
73
8
0
VERTEX
8
OBJECT__37
10
0
20
0
30
0
70
128
71
3
72
8
73
9
0
VERTEX
8
OBJECT__37
10
0
20
0
30
0
70
128
71
7
72
10
73
11
0
VERTEX
8
OBJECT__37
10
0
20
0
30
0
70
128
71
8
72
11
73
12
0
VERTEX
8
OBJECT__37
10
0
20
0
30
0
70
128
71
10
72
13
73
14
0
VERTEX
8
OBJECT__37
10
0
20
0
30
0
70
128
71
11
72
14
73
15
0
VERTEX
8
OBJECT__37
10
0
20
0
30
0
70
128
71
13
72
16
73
17
0
VERTEX
8
OBJECT__37
10
0
20
0
30
0
70
128
71
14
72
17
73
18
0
VERTEX
8
OBJECT__37
10
0
20
0
30
0
70
128
71
18
72
15
73
14
0
VERTEX
8
OBJECT__37
10
0
20
0
30
0
70
128
71
17
72
14
73
13
0
VERTEX
8
OBJECT__37
10
0
20
0
30
0
70
128
71
15
72
12
73
11
0
VERTEX
8
OBJECT__37
10
0
20
0
30
0
70
128
71
14
72
11
73
10
0
VERTEX
8
OBJECT__37
10
0
20
0
30
0
70
128
71
12
72
9
73
8
0
VERTEX
8
OBJECT__37
10
0
20
0
30
0
70
128
71
11
72
8
73
7
0
VERTEX
8
OBJECT__37
10
0
20
0
30
0
70
128
71
9
72
6
73
3
0
VERTEX
8
OBJECT__37
10
0
20
0
30
0
70
128
71
8
72
3
73
2
0
VERTEX
8
OBJECT__37
10
0
20
0
30
0
70
128
71
6
72
19
73
4
0
VERTEX
8
OBJECT__37
10
0
20
0
30
0
70
128
71
3
72
4
73
1
0
SEQEND
8
OBJECT__37
0
POLYLINE
8
OBJECT__38
66
1
70
64
71
29
72
34
62
253
0
VERTEX
8
OBJECT__38
10
17.747999
20
-14.000000
30
69.664001
70
192
0
VERTEX
8
OBJECT__38
10
20.042999
20
-10.344000
30
69.664001
70
192
0
VERTEX
8
OBJECT__38
10
18.148001
20
-9.390000
30
70.542999
70
192
0
VERTEX
8
OBJECT__38
10
17.363001
20
-8.995000
30
72.664001
70
192
0
VERTEX
8
OBJECT__38
10
15.368000
20
-12.174000
30
72.664001
70
192
0
VERTEX
8
OBJECT__38
10
21.354000
20
-7.171000
30
69.664001
70
192
0
VERTEX
8
OBJECT__38
10
19.337999
20
-6.509000
30
70.542999
70
192
0
VERTEX
8
OBJECT__38
10
18.503000
20
-6.235000
30
72.664001
70
192
0
VERTEX
8
OBJECT__38
10
22.309000
20
-2.961000
30
69.664001
70
192
0
VERTEX
8
OBJECT__38
10
20.205000
20
-2.688000
30
70.542999
70
192
0
VERTEX
8
OBJECT__38
10
19.334000
20
-2.575000
30
72.664001
70
192
0
VERTEX
8
OBJECT__38
10
18.913000
20
-4.431000
30
72.664001
70
192
0
VERTEX
8
OBJECT__38
10
22.495001
20
0.467000
30
69.664001
70
192
0
VERTEX
8
OBJECT__38
10
20.374001
20
0.424000
30
70.542999
70
192
0
VERTEX
8
OBJECT__38
10
19.496000
20
0.406000
30
72.664001
70
192
0
VERTEX
8
OBJECT__38
10
22.003000
20
4.755000
30
69.664001
70
192
0
VERTEX
8
OBJECT__38
10
19.927999
20
4.317000
30
70.542999
70
192
0
VERTEX
8
OBJECT__38
10
19.068001
20
4.135000
30
72.664001
70
192
0
VERTEX
8
OBJECT__38
10
21.044001
20
8.053000
30
69.664001
70
192
0
VERTEX
8
OBJECT__38
10
19.056999
20
7.310000
30
70.542999
70
192
0
VERTEX
8
OBJECT__38
10
18.233999
20
7.002000
30
72.664001
70
192
0
VERTEX
8
OBJECT__38
10
18.978001
20
4.444000
30
72.664001
70
192
0
VERTEX
8
OBJECT__38
10
19.163000
20
11.931000
30
69.664001
70
192
0
VERTEX
8
OBJECT__38
10
17.350000
20
10.831000
30
70.542999
70
192
0
VERTEX
8
OBJECT__38
10
16.599001
20
10.375000
30
72.664001
70
192
0
VERTEX
8
OBJECT__38
10
17.747999
20
14.000000
30
69.664001
70
192
0
VERTEX
8
OBJECT__38
10
16.065001
20
12.709000
30
70.542999
70
192
0
VERTEX
8
OBJECT__38
10
15.368000
20
12.174000
30
72.664001
70
192
0
VERTEX
8
OBJECT__38
10
16.065001
20
-12.709000
30
70.542999
70
192
0
VERTEX
8
OBJECT__38
10
0
20
0
30
0
70
128
71
1
72
2
73
3
0
VERTEX
8
OBJECT__38
10
0
20
0
30
0
70
128
71
3
72
4
73
5
0
VERTEX
8
OBJECT__38
10
0
20
0
30
0
70
128
71
2
72
6
73
7
0
VERTEX
8
OBJECT__38
10
0
20
0
30
0
70
128
71
3
72
7
73
8
0
VERTEX
8
OBJECT__38
10
0
20
0
30
0
70
128
71
6
72
9
73
10
0
VERTEX
8
OBJECT__38
10
0
20
0
30
0
70
128
71
10
72
11
73
12
0
VERTEX
8
OBJECT__38
10
0
20
0
30
0
70
128
71
12
72
7
73
10
0
VERTEX
8
OBJECT__38
10
0
20
0
30
0
70
128
71
9
72
13
73
14
0
VERTEX
8
OBJECT__38
10
0
20
0
30
0
70
128
71
14
72
15
73
11
0
VERTEX
8
OBJECT__38
10
0
20
0
30
0
70
128
71
16
72
17
73
14
0
VERTEX
8
OBJECT__38
10
0
20
0
30
0
70
128
71
14
72
17
73
18
0
VERTEX
8
OBJECT__38
10
0
20
0
30
0
70
128
71
19
72
20
73
17
0
VERTEX
8
OBJECT__38
10
0
20
0
30
0
70
128
71
20
72
21
73
22
0
VERTEX
8
OBJECT__38
10
0
20
0
30
0
70
128
71
22
72
17
73
20
0
VERTEX
8
OBJECT__38
10
0
20
0
30
0
70
128
71
19
72
23
73
24
0
VERTEX
8
OBJECT__38
10
0
20
0
30
0
70
128
71
24
72
25
73
21
0
VERTEX
8
OBJECT__38
10
0
20
0
30
0
70
128
71
23
72
26
73
27
0
VERTEX
8
OBJECT__38
10
0
20
0
30
0
70
128
71
24
72
27
73
28
0
VERTEX
8
OBJECT__38
10
0
20
0
30
0
70
128
71
28
72
25
73
24
0
VERTEX
8
OBJECT__38
10
0
20
0
30
0
70
128
71
27
72
24
73
23
0
VERTEX
8
OBJECT__38
10
0
20
0
30
0
70
128
71
21
72
20
73
24
0
VERTEX
8
OBJECT__38
10
0
20
0
30
0
70
128
71
24
72
20
73
19
0
VERTEX
8
OBJECT__38
10
0
20
0
30
0
70
128
71
22
72
18
73
17
0
VERTEX
8
OBJECT__38
10
0
20
0
30
0
70
128
71
17
72
16
73
19
0
VERTEX
8
OBJECT__38
10
0
20
0
30
0
70
128
71
18
72
15
73
14
0
VERTEX
8
OBJECT__38
10
0
20
0
30
0
70
128
71
14
72
13
73
16
0
VERTEX
8
OBJECT__38
10
0
20
0
30
0
70
128
71
11
72
10
73
14
0
VERTEX
8
OBJECT__38
10
0
20
0
30
0
70
128
71
14
72
10
73
9
0
VERTEX
8
OBJECT__38
10
0
20
0
30
0
70
128
71
12
72
8
73
7
0
VERTEX
8
OBJECT__38
10
0
20
0
30
0
70
128
71
10
72
7
73
6
0
VERTEX
8
OBJECT__38
10
0
20
0
30
0
70
128
71
8
72
4
73
3
0
VERTEX
8
OBJECT__38
10
0
20
0
30
0
70
128
71
7
72
3
73
2
0
VERTEX
8
OBJECT__38
10
0
20
0
30
0
70
128
71
5
72
29
73
3
0
VERTEX
8
OBJECT__38
10
0
20
0
30
0
70
128
71
3
72
29
73
1
0
SEQEND
8
OBJECT__38
0
POLYLINE
8
OBJECT__39
66
1
70
64
71
19
72
21
62
253
0
VERTEX
8
OBJECT__39
10
12.594000
20
15.118000
30
70.053001
70
192
0
VERTEX
8
OBJECT__39
10
13.503000
20
14.607000
30
69.643997
70
192
0
VERTEX
8
OBJECT__39
10
13.451000
20
14.859000
30
69.164001
70
192
0
VERTEX
8
OBJECT__39
10
14.558000
20
14.484000
30
69.291000
70
192
0
VERTEX
8
OBJECT__39
10
14.425000
20
14.500000
30
69.164001
70
192
0
VERTEX
8
OBJECT__39
10
12.894000
20
14.852000
30
70.825996
70
192
0
VERTEX
8
OBJECT__39
10
13.799000
20
14.403000
30
70.042999
70
192
0
VERTEX
8
OBJECT__39
10
14.903000
20
14.440000
30
69.402000
70
192
0
VERTEX
8
OBJECT__39
10
13.553000
20
14.231000
30
71.744003
70
192
0
VERTEX
8
OBJECT__39
10
14.436000
20
13.947000
30
70.459000
70
192
0
VERTEX
8
OBJECT__39
10
15.661000
20
14.338000
30
69.532997
70
192
0
VERTEX
8
OBJECT__39
10
14.581000
20
13.136000
30
72.485001
70
192
0
VERTEX
8
OBJECT__39
10
15.388000
20
13.229000
30
70.653000
70
192
0
VERTEX
8
OBJECT__39
10
16.843000
20
14.158000
30
69.638000
70
192
0
VERTEX
8
OBJECT__39
10
15.130000
20
12.465000
30
72.610001
70
192
0
VERTEX
8
OBJECT__39
10
16.065001
20
12.709000
30
70.542999
70
192
0
VERTEX
8
OBJECT__39
10
17.747999
20
14.000000
30
69.664001
70
192
0
VERTEX
8
OBJECT__39
10
15.368000
20
12.174000
30
72.664001
70
192
0
VERTEX
8
OBJECT__39
10
12.478000
20
15.217000
30
69.164001
70
192
0
VERTEX
8
OBJECT__39
10
0
20
0
30
0
70
128
71
1
72
2
73
3
0
VERTEX
8
OBJECT__39
10
0
20
0
30
0
70
128
71
2
72
4
73
5
0
VERTEX
8
OBJECT__39
10
0
20
0
30
0
70
128
71
6
72
7
73
2
0
VERTEX
8
OBJECT__39
10
0
20
0
30
0
70
128
71
7
72
8
73
4
0
VERTEX
8
OBJECT__39
10
0
20
0
30
0
70
128
71
9
72
10
73
7
0
VERTEX
8
OBJECT__39
10
0
20
0
30
0
70
128
71
10
72
11
73
8
0
VERTEX
8
OBJECT__39
10
0
20
0
30
0
70
128
71
12
72
13
73
10
0
VERTEX
8
OBJECT__39
10
0
20
0
30
0
70
128
71
13
72
14
73
11
0
VERTEX
8
OBJECT__39
10
0
20
0
30
0
70
128
71
15
72
16
73
13
0
VERTEX
8
OBJECT__39
10
0
20
0
30
0
70
128
71
13
72
12
73
15
0
VERTEX
8
OBJECT__39
10
0
20
0
30
0
70
128
71
16
72
17
73
14
0
VERTEX
8
OBJECT__39
10
0
20
0
30
0
70
128
71
14
72
13
73
16
0
VERTEX
8
OBJECT__39
10
0
20
0
30
0
70
128
71
15
72
18
73
16
0
VERTEX
8
OBJECT__39
10
0
20
0
30
0
70
128
71
11
72
10
73
13
0
VERTEX
8
OBJECT__39
10
0
20
0
30
0
70
128
71
10
72
9
73
12
0
VERTEX
8
OBJECT__39
10
0
20
0
30
0
70
128
71
8
72
7
73
10
0
VERTEX
8
OBJECT__39
10
0
20
0
30
0
70
128
71
7
72
6
73
9
0
VERTEX
8
OBJECT__39
10
0
20
0
30
0
70
128
71
4
72
2
73
7
0
VERTEX
8
OBJECT__39
10
0
20
0
30
0
70
128
71
2
72
1
73
6
0
VERTEX
8
OBJECT__39
10
0
20
0
30
0
70
128
71
5
72
3
73
2
0
VERTEX
8
OBJECT__39
10
0
20
0
30
0
70
128
71
3
72
19
73
1
0
SEQEND
8
OBJECT__39
0
POLYLINE
8
OBJECT__40
66
1
70
64
71
17
72
15
62
253
0
VERTEX
8
OBJECT__40
10
22.003000
20
4.755000
30
69.664001
70
192
0
VERTEX
8
OBJECT__40
10
53.431000
20
14.000000
30
69.664001
70
192
0
VERTEX
8
OBJECT__40
10
36.937000
20
14.000000
30
69.664001
70
192
0
VERTEX
8
OBJECT__40
10
19.163000
20
11.931000
30
69.664001
70
192
0
VERTEX
8
OBJECT__40
10
20.443001
20
14.000000
30
69.664001
70
192
0
VERTEX
8
OBJECT__40
10
69.926003
20
14.000000
30
69.664001
70
192
0
VERTEX
8
OBJECT__40
10
17.747999
20
14.000000
30
69.664001
70
192
0
VERTEX
8
OBJECT__40
10
22.309000
20
-2.961000
30
69.664001
70
192
0
VERTEX
8
OBJECT__40
10
21.354000
20
-7.171000
30
69.664001
70
192
0
VERTEX
8
OBJECT__40
10
53.431000
20
-14.000000
30
69.664001
70
192
0
VERTEX
8
OBJECT__40
10
69.926003
20
-14.000000
30
69.664001
70
192
0
VERTEX
8
OBJECT__40
10
22.495001
20
0.467000
30
69.664001
70
192
0
VERTEX
8
OBJECT__40
10
21.044001
20
8.053000
30
69.664001
70
192
0
VERTEX
8
OBJECT__40
10
20.042999
20
-10.344000
30
69.664001
70
192
0
VERTEX
8
OBJECT__40
10
36.937000
20
-14.000000
30
69.664001
70
192
0
VERTEX
8
OBJECT__40
10
17.747999
20
-14.000000
30
69.664001
70
192
0
VERTEX
8
OBJECT__40
10
20.443001
20
-14.000000
30
69.664001
70
192
0
VERTEX
8
OBJECT__40
10
0
20
0
30
0
70
128
71
1
72
2
73
3
0
VERTEX
8
OBJECT__40
10
0
20
0
30
0
70
128
71
4
72
3
73
5
0
VERTEX
8
OBJECT__40
10
0
20
0
30
0
70
128
71
1
72
6
73
2
0
VERTEX
8
OBJECT__40
10
0
20
0
30
0
70
128
71
5
72
7
73
4
0
VERTEX
8
OBJECT__40
10
0
20
0
30
0
70
128
71
8
72
9
73
10
0
VERTEX
8
OBJECT__40
10
0
20
0
30
0
70
128
71
11
72
6
73
12
0
VERTEX
8
OBJECT__40
10
0
20
0
30
0
70
128
71
4
72
13
73
3
0
VERTEX
8
OBJECT__40
10
0
20
0
30
0
70
128
71
12
72
8
73
11
0
VERTEX
8
OBJECT__40
10
0
20
0
30
0
70
128
71
3
72
13
73
1
0
VERTEX
8
OBJECT__40
10
0
20
0
30
0
70
128
71
9
72
14
73
15
0
VERTEX
8
OBJECT__40
10
0
20
0
30
0
70
128
71
1
72
12
73
6
0
VERTEX
8
OBJECT__40
10
0
20
0
30
0
70
128
71
14
72
16
73
17
0
VERTEX
8
OBJECT__40
10
0
20
0
30
0
70
128
71
10
72
11
73
8
0
VERTEX
8
OBJECT__40
10
0
20
0
30
0
70
128
71
15
72
10
73
9
0
VERTEX
8
OBJECT__40
10
0
20
0
30
0
70
128
71
17
72
15
73
14
0
SEQEND
8
OBJECT__40
0
POLYLINE
8
OBJECT__41
66
1
70
64
71
9
72
7
62
253
0
VERTEX
8
OBJECT__41
10
14.425000
20
-14.500000
30
57.664001
70
192
0
VERTEX
8
OBJECT__41
10
14.425000
20
-14.500000
30
69.164001
70
192
0
VERTEX
8
OBJECT__41
10
13.387000
20
-14.685000
30
69.164001
70
192
0
VERTEX
8
OBJECT__41
10
12.478000
20
-15.217000
30
57.664001
70
192
0
VERTEX
8
OBJECT__41
10
12.488000
20
-15.209000
30
53.330002
70
192
0
VERTEX
8
OBJECT__41
10
13.115000
20
-14.801000
30
54.709000
70
192
0
VERTEX
8
OBJECT__41
10
12.478000
20
-15.217000
30
53.306000
70
192
0
VERTEX
8
OBJECT__41
10
14.425000
20
-14.500000
30
57.160999
70
192
0
VERTEX
8
OBJECT__41
10
12.478000
20
-15.217000
30
69.164001
70
192
0
VERTEX
8
OBJECT__41
10
0
20
0
30
0
70
128
71
1
72
2
73
3
0
VERTEX
8
OBJECT__41
10
0
20
0
30
0
70
128
71
3
72
4
73
1
0
VERTEX
8
OBJECT__41
10
0
20
0
30
0
70
128
71
1
72
5
73
6
0
VERTEX
8
OBJECT__41
10
0
20
0
30
0
70
128
71
4
72
7
73
5
0
VERTEX
8
OBJECT__41
10
0
20
0
30
0
70
128
71
5
72
1
73
4
0
VERTEX
8
OBJECT__41
10
0
20
0
30
0
70
128
71
6
72
8
73
1
0
VERTEX
8
OBJECT__41
10
0
20
0
30
0
70
128
71
3
72
9
73
4
0
SEQEND
8
OBJECT__41
0
POLYLINE
8
OBJECT__42
66
1
70
64
71
14
72
12
62
253
0
VERTEX
8
OBJECT__42
10
69.926003
20
-14.000000
30
69.664001
70
192
0
VERTEX
8
OBJECT__42
10
53.431000
20
-14.000000
30
69.664001
70
192
0
VERTEX
8
OBJECT__42
10
53.431000
20
-14.500000
30
69.164001
70
192
0
VERTEX
8
OBJECT__42
10
36.937000
20
-14.500000
30
69.164001
70
192
0
VERTEX
8
OBJECT__42
10
36.937000
20
-14.000000
30
69.664001
70
192
0
VERTEX
8
OBJECT__42
10
20.443001
20
-14.000000
30
69.664001
70
192
0
VERTEX
8
OBJECT__42
10
20.443001
20
-14.500000
30
69.164001
70
192
0
VERTEX
8
OBJECT__42
10
14.425000
20
-14.500000
30
69.164001
70
192
0
VERTEX
8
OBJECT__42
10
14.819000
20
-14.451000
30
69.379997
70
192
0
VERTEX
8
OBJECT__42
10
15.438000
20
-14.369000
30
69.501999
70
192
0
VERTEX
8
OBJECT__42
10
16.629999
20
-14.193000
30
69.625999
70
192
0
VERTEX
8
OBJECT__42
10
17.747999
20
-14.000000
30
69.664001
70
192
0
VERTEX
8
OBJECT__42
10
14.506000
20
-14.490000
30
69.263000
70
192
0
VERTEX
8
OBJECT__42
10
69.926003
20
-14.500000
30
69.164001
70
192
0
VERTEX
8
OBJECT__42
10
0
20
0
30
0
70
128
71
1
72
2
73
3
0
VERTEX
8
OBJECT__42
10
0
20
0
30
0
70
128
71
4
72
3
73
2
0
VERTEX
8
OBJECT__42
10
0
20
0
30
0
70
128
71
5
72
6
73
7
0
VERTEX
8
OBJECT__42
10
0
20
0
30
0
70
128
71
8
72
7
73
9
0
VERTEX
8
OBJECT__42
10
0
20
0
30
0
70
128
71
7
72
10
73
9
0
VERTEX
8
OBJECT__42
10
0
20
0
30
0
70
128
71
7
72
11
73
10
0
VERTEX
8
OBJECT__42
10
0
20
0
30
0
70
128
71
7
72
6
73
12
0
VERTEX
8
OBJECT__42
10
0
20
0
30
0
70
128
71
12
72
11
73
7
0
VERTEX
8
OBJECT__42
10
0
20
0
30
0
70
128
71
9
72
13
73
8
0
VERTEX
8
OBJECT__42
10
0
20
0
30
0
70
128
71
7
72
4
73
5
0
VERTEX
8
OBJECT__42
10
0
20
0
30
0
70
128
71
2
72
5
73
4
0
VERTEX
8
OBJECT__42
10
0
20
0
30
0
70
128
71
3
72
14
73
1
0
SEQEND
8
OBJECT__42
0
POLYLINE
8
OBJECT__43
66
1
70
64
71
9
72
7
62
253
0
VERTEX
8
OBJECT__43
10
79.789001
20
-14.000000
30
67.778000
70
192
0
VERTEX
8
OBJECT__43
10
79.695999
20
-14.500000
30
67.500000
70
192
0
VERTEX
8
OBJECT__43
10
83.501999
20
-14.500000
30
65.857002
70
192
0
VERTEX
8
OBJECT__43
10
77.029999
20
-14.000000
30
68.810997
70
192
0
VERTEX
8
OBJECT__43
10
74.698997
20
-14.500000
30
68.776001
70
192
0
VERTEX
8
OBJECT__43
10
69.926003
20
-14.000000
30
69.664001
70
192
0
VERTEX
8
OBJECT__43
10
69.926003
20
-14.500000
30
69.164001
70
192
0
VERTEX
8
OBJECT__43
10
74.757004
20
-14.000000
30
69.084000
70
192
0
VERTEX
8
OBJECT__43
10
83.731003
20
-14.000000
30
66.301003
70
192
0
VERTEX
8
OBJECT__43
10
0
20
0
30
0
70
128
71
1
72
2
73
3
0
VERTEX
8
OBJECT__43
10
0
20
0
30
0
70
128
71
2
72
1
73
4
0
VERTEX
8
OBJECT__43
10
0
20
0
30
0
70
128
71
4
72
5
73
2
0
VERTEX
8
OBJECT__43
10
0
20
0
30
0
70
128
71
6
72
7
73
5
0
VERTEX
8
OBJECT__43
10
0
20
0
30
0
70
128
71
5
72
8
73
6
0
VERTEX
8
OBJECT__43
10
0
20
0
30
0
70
128
71
4
72
8
73
5
0
VERTEX
8
OBJECT__43
10
0
20
0
30
0
70
128
71
3
72
9
73
1
0
SEQEND
8
OBJECT__43
0
POLYLINE
8
OBJECT__44
66
1
70
64
71
9
72
7
62
253
0
VERTEX
8
OBJECT__44
10
14.425000
20
14.500000
30
57.664001
70
192
0
VERTEX
8
OBJECT__44
10
12.478000
20
15.217000
30
57.664001
70
192
0
VERTEX
8
OBJECT__44
10
13.451000
20
14.859000
30
69.164001
70
192
0
VERTEX
8
OBJECT__44
10
12.478000
20
15.217000
30
69.164001
70
192
0
VERTEX
8
OBJECT__44
10
14.425000
20
14.500000
30
57.160999
70
192
0
VERTEX
8
OBJECT__44
10
13.323000
20
14.710000
30
55.125000
70
192
0
VERTEX
8
OBJECT__44
10
12.488000
20
15.209000
30
53.330002
70
192
0
VERTEX
8
OBJECT__44
10
12.478000
20
15.217000
30
53.306000
70
192
0
VERTEX
8
OBJECT__44
10
14.425000
20
14.500000
30
69.164001
70
192
0
VERTEX
8
OBJECT__44
10
0
20
0
30
0
70
128
71
1
72
2
73
3
0
VERTEX
8
OBJECT__44
10
0
20
0
30
0
70
128
71
2
72
4
73
3
0
VERTEX
8
OBJECT__44
10
0
20
0
30
0
70
128
71
2
72
1
73
5
0
VERTEX
8
OBJECT__44
10
0
20
0
30
0
70
128
71
5
72
6
73
2
0
VERTEX
8
OBJECT__44
10
0
20
0
30
0
70
128
71
6
72
7
73
2
0
VERTEX
8
OBJECT__44
10
0
20
0
30
0
70
128
71
7
72
8
73
2
0
VERTEX
8
OBJECT__44
10
0
20
0
30
0
70
128
71
3
72
9
73
1
0
SEQEND
8
OBJECT__44
0
POLYLINE
8
OBJECT__45
66
1
70
64
71
14
72
12
62
253
0
VERTEX
8
OBJECT__45
10
53.431000
20
14.000000
30
69.664001
70
192
0
VERTEX
8
OBJECT__45
10
69.926003
20
14.000000
30
69.664001
70
192
0
VERTEX
8
OBJECT__45
10
69.926003
20
14.500000
30
69.164001
70
192
0
VERTEX
8
OBJECT__45
10
53.431000
20
14.500000
30
69.164001
70
192
0
VERTEX
8
OBJECT__45
10
36.937000
20
14.500000
30
69.164001
70
192
0
VERTEX
8
OBJECT__45
10
36.937000
20
14.000000
30
69.664001
70
192
0
VERTEX
8
OBJECT__45
10
20.443001
20
14.000000
30
69.664001
70
192
0
VERTEX
8
OBJECT__45
10
20.443001
20
14.500000
30
69.164001
70
192
0
VERTEX
8
OBJECT__45
10
16.843000
20
14.158000
30
69.638000
70
192
0
VERTEX
8
OBJECT__45
10
17.747999
20
14.000000
30
69.664001
70
192
0
VERTEX
8
OBJECT__45
10
14.425000
20
14.500000
30
69.164001
70
192
0
VERTEX
8
OBJECT__45
10
14.558000
20
14.484000
30
69.291000
70
192
0
VERTEX
8
OBJECT__45
10
14.903000
20
14.440000
30
69.402000
70
192
0
VERTEX
8
OBJECT__45
10
15.661000
20
14.338000
30
69.532997
70
192
0
VERTEX
8
OBJECT__45
10
0
20
0
30
0
70
128
71
1
72
2
73
3
0
VERTEX
8
OBJECT__45
10
0
20
0
30
0
70
128
71
4
72
5
73
6
0
VERTEX
8
OBJECT__45
10
0
20
0
30
0
70
128
71
7
72
6
73
5
0
VERTEX
8
OBJECT__45
10
0
20
0
30
0
70
128
71
8
72
9
73
10
0
VERTEX
8
OBJECT__45
10
0
20
0
30
0
70
128
71
11
72
12
73
13
0
VERTEX
8
OBJECT__45
10
0
20
0
30
0
70
128
71
13
72
8
73
11
0
VERTEX
8
OBJECT__45
10
0
20
0
30
0
70
128
71
13
72
14
73
8
0
VERTEX
8
OBJECT__45
10
0
20
0
30
0
70
128
71
14
72
9
73
8
0
VERTEX
8
OBJECT__45
10
0
20
0
30
0
70
128
71
10
72
7
73
8
0
VERTEX
8
OBJECT__45
10
0
20
0
30
0
70
128
71
5
72
8
73
7
0
VERTEX
8
OBJECT__45
10
0
20
0
30
0
70
128
71
6
72
1
73
4
0
VERTEX
8
OBJECT__45
10
0
20
0
30
0
70
128
71
3
72
4
73
1
0
SEQEND
8
OBJECT__45
0
POLYLINE
8
OBJECT__46
66
1
70
64
71
9
72
7
62
253
0
VERTEX
8
OBJECT__46
10
79.789001
20
14.000000
30
67.778000
70
192
0
VERTEX
8
OBJECT__46
10
83.731003
20
14.000000
30
66.301003
70
192
0
VERTEX
8
OBJECT__46
10
83.501999
20
14.500000
30
65.857002
70
192
0
VERTEX
8
OBJECT__46
10
79.695999
20
14.500000
30
67.500000
70
192
0
VERTEX
8
OBJECT__46
10
74.698997
20
14.500000
30
68.776001
70
192
0
VERTEX
8
OBJECT__46
10
77.029999
20
14.000000
30
68.810997
70
192
0
VERTEX
8
OBJECT__46
10
74.757004
20
14.000000
30
69.084000
70
192
0
VERTEX
8
OBJECT__46
10
69.926003
20
14.000000
30
69.664001
70
192
0
VERTEX
8
OBJECT__46
10
69.926003
20
14.500000
30
69.164001
70
192
0
VERTEX
8
OBJECT__46
10
0
20
0
30
0
70
128
71
1
72
2
73
3
0
VERTEX
8
OBJECT__46
10
0
20
0
30
0
70
128
71
4
72
5
73
6
0
VERTEX
8
OBJECT__46
10
0
20
0
30
0
70
128
71
5
72
7
73
6
0
VERTEX
8
OBJECT__46
10
0
20
0
30
0
70
128
71
8
72
7
73
5
0
VERTEX
8
OBJECT__46
10
0
20
0
30
0
70
128
71
5
72
9
73
8
0
VERTEX
8
OBJECT__46
10
0
20
0
30
0
70
128
71
6
72
1
73
4
0
VERTEX
8
OBJECT__46
10
0
20
0
30
0
70
128
71
3
72
4
73
1
0
SEQEND
8
OBJECT__46
0
POLYLINE
8
OBJECT__47
66
1
70
64
71
11
72
9
62
253
0
VERTEX
8
OBJECT__47
10
83.731003
20
0.000000
30
66.301003
70
192
0
VERTEX
8
OBJECT__47
10
83.731003
20
14.000000
30
66.301003
70
192
0
VERTEX
8
OBJECT__47
10
79.789001
20
14.000000
30
67.778000
70
192
0
VERTEX
8
OBJECT__47
10
79.789001
20
-14.000000
30
67.778000
70
192
0
VERTEX
8
OBJECT__47
10
83.731003
20
-14.000000
30
66.301003
70
192
0
VERTEX
8
OBJECT__47
10
77.029999
20
14.000000
30
68.810997
70
192
0
VERTEX
8
OBJECT__47
10
77.029999
20
-14.000000
30
68.810997
70
192
0
VERTEX
8
OBJECT__47
10
74.757004
20
14.000000
30
69.084000
70
192
0
VERTEX
8
OBJECT__47
10
69.926003
20
14.000000
30
69.664001
70
192
0
VERTEX
8
OBJECT__47
10
69.926003
20
-14.000000
30
69.664001
70
192
0
VERTEX
8
OBJECT__47
10
74.757004
20
-14.000000
30
69.084000
70
192
0
VERTEX
8
OBJECT__47
10
0
20
0
30
0
70
128
71
1
72
2
73
3
0
VERTEX
8
OBJECT__47
10
0
20
0
30
0
70
128
71
4
72
5
73
1
0
VERTEX
8
OBJECT__47
10
0
20
0
30
0
70
128
71
6
72
7
73
4
0
VERTEX
8
OBJECT__47
10
0
20
0
30
0
70
128
71
1
72
6
73
4
0
VERTEX
8
OBJECT__47
10
0
20
0
30
0
70
128
71
7
72
6
73
8
0
VERTEX
8
OBJECT__47
10
0
20
0
30
0
70
128
71
9
72
10
73
11
0
VERTEX
8
OBJECT__47
10
0
20
0
30
0
70
128
71
11
72
8
73
9
0
VERTEX
8
OBJECT__47
10
0
20
0
30
0
70
128
71
8
72
11
73
7
0
VERTEX
8
OBJECT__47
10
0
20
0
30
0
70
128
71
3
72
6
73
1
0
SEQEND
8
OBJECT__47
0
POLYLINE
8
OBJECT__48
66
1
70
64
71
6
72
4
62
253
0
VERTEX
8
OBJECT__48
10
83.946999
20
-14.000000
30
65.629997
70
192
0
VERTEX
8
OBJECT__48
10
83.946999
20
0.000000
30
65.629997
70
192
0
VERTEX
8
OBJECT__48
10
83.731003
20
0.000000
30
66.301003
70
192
0
VERTEX
8
OBJECT__48
10
83.731003
20
14.000000
30
66.301003
70
192
0
VERTEX
8
OBJECT__48
10
83.946999
20
14.000000
30
65.629997
70
192
0
VERTEX
8
OBJECT__48
10
83.731003
20
-14.000000
30
66.301003
70
192
0
VERTEX
8
OBJECT__48
10
0
20
0
30
0
70
128
71
1
72
2
73
3
0
VERTEX
8
OBJECT__48
10
0
20
0
30
0
70
128
71
4
72
3
73
2
0
VERTEX
8
OBJECT__48
10
0
20
0
30
0
70
128
71
2
72
5
73
4
0
VERTEX
8
OBJECT__48
10
0
20
0
30
0
70
128
71
3
72
6
73
1
0
SEQEND
8
OBJECT__48
0
POLYLINE
8
OBJECT__49
66
1
70
64
71
98
72
130
62
253
0
VERTEX
8
OBJECT__49
10
17.716999
20
12.096000
30
52.546001
70
192
0
VERTEX
8
OBJECT__49
10
19.959000
20
12.354000
30
53.707001
70
192
0
VERTEX
8
OBJECT__49
10
21.323000
20
11.083000
30
51.887001
70
192
0
VERTEX
8
OBJECT__49
10
19.201000
20
10.375000
30
50.098999
70
192
0
VERTEX
8
OBJECT__49
10
16.990999
20
10.882000
30
48.394001
70
192
0
VERTEX
8
OBJECT__49
10
15.701000
20
12.545000
30
51.071999
70
192
0
VERTEX
8
OBJECT__49
10
15.125000
20
12.460000
30
47.040001
70
192
0
VERTEX
8
OBJECT__49
10
14.113000
20
13.655000
30
49.431999
70
192
0
VERTEX
8
OBJECT__49
10
15.378000
20
12.161000
30
46.443001
70
192
0
VERTEX
8
OBJECT__49
10
20.787001
20
8.113000
30
47.601002
70
192
0
VERTEX
8
OBJECT__49
10
21.729000
20
10.704000
30
51.345001
70
192
0
VERTEX
8
OBJECT__49
10
18.351999
20
8.654000
30
45.576000
70
192
0
VERTEX
8
OBJECT__49
10
16.778000
20
10.073000
30
43.161999
70
192
0
VERTEX
8
OBJECT__49
10
21.634001
20
6.625000
30
46.341000
70
192
0
VERTEX
8
OBJECT__49
10
23.690001
20
8.538000
30
48.910000
70
192
0
VERTEX
8
OBJECT__49
10
24.438000
20
7.558000
30
48.054001
70
192
0
VERTEX
8
OBJECT__49
10
19.066999
20
7.154000
30
44.099998
70
192
0
VERTEX
8
OBJECT__49
10
17.563000
20
8.587000
30
41.348000
70
192
0
VERTEX
8
OBJECT__49
10
22.502001
20
4.729000
30
45.131001
70
192
0
VERTEX
8
OBJECT__49
10
24.788000
20
7.099000
30
47.653999
70
192
0
VERTEX
8
OBJECT__49
10
19.784000
20
5.193000
30
42.619999
70
192
0
VERTEX
8
OBJECT__49
10
23.087000
20
2.969000
30
44.381001
70
192
0
VERTEX
8
OBJECT__49
10
25.976000
20
5.219000
30
46.398998
70
192
0
VERTEX
8
OBJECT__49
10
26.629999
20
3.824000
30
45.765999
70
192
0
VERTEX
8
OBJECT__49
10
20.253000
20
3.310000
30
41.644001
70
192
0
VERTEX
8
OBJECT__49
10
18.410999
20
6.509000
30
39.410999
70
192
0
VERTEX
8
OBJECT__49
10
19.028000
20
4.321000
30
38.021999
70
192
0
VERTEX
8
OBJECT__49
10
18.992001
20
4.449000
30
38.103001
70
192
0
VERTEX
8
OBJECT__49
10
23.177999
20
2.611000
30
44.271000
70
192
0
VERTEX
8
OBJECT__49
10
26.839001
20
3.380000
30
45.563999
70
192
0
VERTEX
8
OBJECT__49
10
20.323999
20
2.920000
30
41.494999
70
192
0
VERTEX
8
OBJECT__49
10
19.128000
20
3.840000
30
37.798000
70
192
0
VERTEX
8
OBJECT__49
10
23.450001
20
1.017000
30
43.953999
70
192
0
VERTEX
8
OBJECT__49
10
26.979000
20
2.992000
30
45.433998
70
192
0
VERTEX
8
OBJECT__49
10
20.533001
20
1.148000
30
41.050999
70
192
0
VERTEX
8
OBJECT__49
10
27.416000
20
1.191000
30
45.042999
70
192
0
VERTEX
8
OBJECT__49
10
27.466999
20
-0.001000
30
44.999001
70
192
0
VERTEX
8
OBJECT__49
10
23.492001
20
-0.400000
30
43.907001
70
192
0
VERTEX
8
OBJECT__49
10
20.566000
20
-0.452000
30
40.981998
70
192
0
VERTEX
8
OBJECT__49
10
19.440001
20
1.549000
30
37.103001
70
192
0
VERTEX
8
OBJECT__49
10
27.326000
20
-1.716000
30
45.122002
70
192
0
VERTEX
8
OBJECT__49
10
23.395000
20
-1.472000
30
44.015999
70
192
0
VERTEX
8
OBJECT__49
10
20.492001
20
-1.659000
30
41.139999
70
192
0
VERTEX
8
OBJECT__49
10
19.375999
20
-2.226000
30
37.245998
70
192
0
VERTEX
8
OBJECT__49
10
19.490999
20
-0.613000
30
36.990002
70
192
0
VERTEX
8
OBJECT__49
10
26.823999
20
-3.419000
30
45.577999
70
192
0
VERTEX
8
OBJECT__49
10
23.077000
20
-3.005000
30
44.393002
70
192
0
VERTEX
8
OBJECT__49
10
20.245001
20
-3.349000
30
41.660000
70
192
0
VERTEX
8
OBJECT__49
10
19.017000
20
-4.369000
30
38.046001
70
192
0
VERTEX
8
OBJECT__49
10
26.643000
20
-3.831000
30
45.750000
70
192
0
VERTEX
8
OBJECT__49
10
26.320999
20
-4.560000
30
46.056999
70
192
0
VERTEX
8
OBJECT__49
10
22.742001
20
-4.086000
30
44.816002
70
192
0
VERTEX
8
OBJECT__49
10
19.978001
20
-4.512000
30
42.217999
70
192
0
VERTEX
8
OBJECT__49
10
18.658001
20
-5.742000
30
38.853001
70
192
0
VERTEX
8
OBJECT__49
10
18.996000
20
-4.450000
30
38.092999
70
192
0
VERTEX
8
OBJECT__49
10
25.194000
20
-6.505000
30
47.212002
70
192
0
VERTEX
8
OBJECT__49
10
21.938000
20
-6.018000
30
45.907001
70
192
0
VERTEX
8
OBJECT__49
10
19.320000
20
-6.533000
30
43.577999
70
192
0
VERTEX
8
OBJECT__49
10
17.853001
20
-7.948000
30
40.681999
70
192
0
VERTEX
8
OBJECT__49
10
20.878000
20
-7.964000
30
47.462002
70
192
0
VERTEX
8
OBJECT__49
10
24.429001
20
-7.547000
30
48.073002
70
192
0
VERTEX
8
OBJECT__49
10
18.430000
20
-8.505000
30
45.416000
70
192
0
VERTEX
8
OBJECT__49
10
16.861000
20
-9.929000
30
42.969002
70
192
0
VERTEX
8
OBJECT__49
10
23.806000
20
-8.395000
30
48.772999
70
192
0
VERTEX
8
OBJECT__49
10
21.700001
20
-10.733000
30
51.382999
70
192
0
VERTEX
8
OBJECT__49
10
19.177000
20
-10.405000
30
50.138000
70
192
0
VERTEX
8
OBJECT__49
10
16.971001
20
-10.911000
30
48.437000
70
192
0
VERTEX
8
OBJECT__49
10
15.357000
20
-12.188000
30
46.491001
70
192
0
VERTEX
8
OBJECT__49
10
16.996000
20
-12.831000
30
53.757999
70
192
0
VERTEX
8
OBJECT__49
10
21.320000
20
-11.075000
30
51.895000
70
192
0
VERTEX
8
OBJECT__49
10
15.070000
20
-13.248000
30
52.379002
70
192
0
VERTEX
8
OBJECT__49
10
13.510000
20
-14.273000
30
50.863998
70
192
0
VERTEX
8
OBJECT__49
10
15.120000
20
-12.456000
30
47.051998
70
192
0
VERTEX
8
OBJECT__49
10
19.114000
20
-13.061000
30
54.875000
70
192
0
VERTEX
8
OBJECT__49
10
18.365000
20
-13.649000
30
55.926998
70
192
0
VERTEX
8
OBJECT__49
10
16.353001
20
-13.441000
30
54.848999
70
192
0
VERTEX
8
OBJECT__49
10
14.505000
20
-13.828000
30
53.548000
70
192
0
VERTEX
8
OBJECT__49
10
12.975000
20
-14.779000
30
52.131001
70
192
0
VERTEX
8
OBJECT__49
10
12.497000
20
15.201000
30
53.331001
70
192
0
VERTEX
8
OBJECT__49
10
12.478000
20
15.217000
30
53.306000
70
192
0
VERTEX
8
OBJECT__49
10
13.670000
20
14.510000
30
54.691002
70
192
0
VERTEX
8
OBJECT__49
10
13.863000
20
14.478000
30
54.889999
70
192
0
VERTEX
8
OBJECT__49
10
15.210000
20
14.258000
30
56.278000
70
192
0
VERTEX
8
OBJECT__49
10
17.424999
20
14.195000
30
56.971001
70
192
0
VERTEX
8
OBJECT__49
10
17.650000
20
14.179000
30
56.943001
70
192
0
VERTEX
8
OBJECT__49
10
15.434000
20
14.258000
30
56.414001
70
192
0
VERTEX
8
OBJECT__49
10
16.208000
20
14.259000
30
56.880001
70
192
0
VERTEX
8
OBJECT__49
10
17.424999
20
-14.195000
30
56.971001
70
192
0
VERTEX
8
OBJECT__49
10
16.208000
20
-14.259000
30
56.880001
70
192
0
VERTEX
8
OBJECT__49
10
17.650000
20
-14.179000
30
56.943001
70
192
0
VERTEX
8
OBJECT__49
10
15.210000
20
-14.258000
30
56.278000
70
192
0
VERTEX
8
OBJECT__49
10
13.862000
20
-14.473000
30
54.889000
70
192
0
VERTEX
8
OBJECT__49
10
15.434000
20
-14.258000
30
56.414001
70
192
0
VERTEX
8
OBJECT__49
10
13.377000
20
-14.635000
30
54.373001
70
192
0
VERTEX
8
OBJECT__49
10
12.497000
20
-15.201000
30
53.331001
70
192
0
VERTEX
8
OBJECT__49
10
13.703000
20
-14.498000
30
54.726002
70
192
0
VERTEX
8
OBJECT__49
10
12.478000
20
-15.217000
30
53.306000
70
192
0
VERTEX
8
OBJECT__49
10
27.487000
20
-0.470000
30
44.980999
70
192
0
VERTEX
8
OBJECT__49
10
0
20
0
30
0
70
128
71
1
72
2
73
3
0
VERTEX
8
OBJECT__49
10
0
20
0
30
0
70
128
71
3
72
4
73
1
0
VERTEX
8
OBJECT__49
10
0
20
0
30
0
70
128
71
4
72
5
73
6
0
VERTEX
8
OBJECT__49
10
0
20
0
30
0
70
128
71
5
72
7
73
8
0
VERTEX
8
OBJECT__49
10
0
20
0
30
0
70
128
71
5
72
9
73
7
0
VERTEX
8
OBJECT__49
10
0
20
0
30
0
70
128
71
10
72
4
73
11
0
VERTEX
8
OBJECT__49
10
0
20
0
30
0
70
128
71
10
72
12
73
5
0
VERTEX
8
OBJECT__49
10
0
20
0
30
0
70
128
71
12
72
13
73
9
0
VERTEX
8
OBJECT__49
10
0
20
0
30
0
70
128
71
14
72
10
73
15
0
VERTEX
8
OBJECT__49
10
0
20
0
30
0
70
128
71
15
72
16
73
14
0
VERTEX
8
OBJECT__49
10
0
20
0
30
0
70
128
71
14
72
17
73
12
0
VERTEX
8
OBJECT__49
10
0
20
0
30
0
70
128
71
17
72
18
73
13
0
VERTEX
8
OBJECT__49
10
0
20
0
30
0
70
128
71
19
72
14
73
20
0
VERTEX
8
OBJECT__49
10
0
20
0
30
0
70
128
71
19
72
21
73
17
0
VERTEX
8
OBJECT__49
10
0
20
0
30
0
70
128
71
18
72
17
73
21
0
VERTEX
8
OBJECT__49
10
0
20
0
30
0
70
128
71
22
72
19
73
23
0
VERTEX
8
OBJECT__49
10
0
20
0
30
0
70
128
71
23
72
24
73
22
0
VERTEX
8
OBJECT__49
10
0
20
0
30
0
70
128
71
22
72
25
73
21
0
VERTEX
8
OBJECT__49
10
0
20
0
30
0
70
128
71
26
72
21
73
25
0
VERTEX
8
OBJECT__49
10
0
20
0
30
0
70
128
71
25
72
27
73
28
0
VERTEX
8
OBJECT__49
10
0
20
0
30
0
70
128
71
29
72
22
73
30
0
VERTEX
8
OBJECT__49
10
0
20
0
30
0
70
128
71
29
72
31
73
25
0
VERTEX
8
OBJECT__49
10
0
20
0
30
0
70
128
71
31
72
32
73
27
0
VERTEX
8
OBJECT__49
10
0
20
0
30
0
70
128
71
33
72
29
73
34
0
VERTEX
8
OBJECT__49
10
0
20
0
30
0
70
128
71
33
72
35
73
31
0
VERTEX
8
OBJECT__49
10
0
20
0
30
0
70
128
71
32
72
31
73
35
0
VERTEX
8
OBJECT__49
10
0
20
0
30
0
70
128
71
33
72
36
73
37
0
VERTEX
8
OBJECT__49
10
0
20
0
30
0
70
128
71
37
72
38
73
33
0
VERTEX
8
OBJECT__49
10
0
20
0
30
0
70
128
71
38
72
39
73
35
0
VERTEX
8
OBJECT__49
10
0
20
0
30
0
70
128
71
40
72
35
73
39
0
VERTEX
8
OBJECT__49
10
0
20
0
30
0
70
128
71
41
72
42
73
38
0
VERTEX
8
OBJECT__49
10
0
20
0
30
0
70
128
71
42
72
43
73
39
0
VERTEX
8
OBJECT__49
10
0
20
0
30
0
70
128
71
44
72
45
73
39
0
VERTEX
8
OBJECT__49
10
0
20
0
30
0
70
128
71
42
72
41
73
46
0
VERTEX
8
OBJECT__49
10
0
20
0
30
0
70
128
71
47
72
48
73
43
0
VERTEX
8
OBJECT__49
10
0
20
0
30
0
70
128
71
49
72
44
73
43
0
VERTEX
8
OBJECT__49
10
0
20
0
30
0
70
128
71
47
72
50
73
51
0
VERTEX
8
OBJECT__49
10
0
20
0
30
0
70
128
71
47
72
46
73
50
0
VERTEX
8
OBJECT__49
10
0
20
0
30
0
70
128
71
52
72
53
73
48
0
VERTEX
8
OBJECT__49
10
0
20
0
30
0
70
128
71
48
72
53
73
54
0
VERTEX
8
OBJECT__49
10
0
20
0
30
0
70
128
71
54
72
55
73
48
0
VERTEX
8
OBJECT__49
10
0
20
0
30
0
70
128
71
52
72
51
73
56
0
VERTEX
8
OBJECT__49
10
0
20
0
30
0
70
128
71
57
72
58
73
53
0
VERTEX
8
OBJECT__49
10
0
20
0
30
0
70
128
71
59
72
54
73
53
0
VERTEX
8
OBJECT__49
10
0
20
0
30
0
70
128
71
60
72
57
73
61
0
VERTEX
8
OBJECT__49
10
0
20
0
30
0
70
128
71
57
72
56
73
61
0
VERTEX
8
OBJECT__49
10
0
20
0
30
0
70
128
71
60
72
62
73
58
0
VERTEX
8
OBJECT__49
10
0
20
0
30
0
70
128
71
63
72
59
73
58
0
VERTEX
8
OBJECT__49
10
0
20
0
30
0
70
128
71
60
72
64
73
65
0
VERTEX
8
OBJECT__49
10
0
20
0
30
0
70
128
71
66
72
67
73
62
0
VERTEX
8
OBJECT__49
10
0
20
0
30
0
70
128
71
68
72
63
73
62
0
VERTEX
8
OBJECT__49
10
0
20
0
30
0
70
128
71
69
72
66
73
70
0
VERTEX
8
OBJECT__49
10
0
20
0
30
0
70
128
71
66
72
65
73
70
0
VERTEX
8
OBJECT__49
10
0
20
0
30
0
70
128
71
69
72
71
73
67
0
VERTEX
8
OBJECT__49
10
0
20
0
30
0
70
128
71
67
72
71
73
72
0
VERTEX
8
OBJECT__49
10
0
20
0
30
0
70
128
71
72
72
73
73
67
0
VERTEX
8
OBJECT__49
10
0
20
0
30
0
70
128
71
69
72
74
73
75
0
VERTEX
8
OBJECT__49
10
0
20
0
30
0
70
128
71
76
72
77
73
71
0
VERTEX
8
OBJECT__49
10
0
20
0
30
0
70
128
71
71
72
77
73
78
0
VERTEX
8
OBJECT__49
10
0
20
0
30
0
70
128
71
6
72
8
73
79
0
VERTEX
8
OBJECT__49
10
0
20
0
30
0
70
128
71
8
72
80
73
79
0
VERTEX
8
OBJECT__49
10
0
20
0
30
0
70
128
71
79
72
81
73
6
0
VERTEX
8
OBJECT__49
10
0
20
0
30
0
70
128
71
1
72
6
73
82
0
VERTEX
8
OBJECT__49
10
0
20
0
30
0
70
128
71
82
72
83
73
1
0
VERTEX
8
OBJECT__49
10
0
20
0
30
0
70
128
71
1
72
84
73
85
0
VERTEX
8
OBJECT__49
10
0
20
0
30
0
70
128
71
1
72
86
73
87
0
VERTEX
8
OBJECT__49
10
0
20
0
30
0
70
128
71
87
72
84
73
1
0
VERTEX
8
OBJECT__49
10
0
20
0
30
0
70
128
71
76
72
88
73
89
0
VERTEX
8
OBJECT__49
10
0
20
0
30
0
70
128
71
76
72
75
73
90
0
VERTEX
8
OBJECT__49
10
0
20
0
30
0
70
128
71
90
72
88
73
76
0
VERTEX
8
OBJECT__49
10
0
20
0
30
0
70
128
71
76
72
91
73
92
0
VERTEX
8
OBJECT__49
10
0
20
0
30
0
70
128
71
76
72
93
73
91
0
VERTEX
8
OBJECT__49
10
0
20
0
30
0
70
128
71
77
72
94
73
95
0
VERTEX
8
OBJECT__49
10
0
20
0
30
0
70
128
71
95
72
78
73
77
0
VERTEX
8
OBJECT__49
10
0
20
0
30
0
70
128
71
77
72
96
73
94
0
VERTEX
8
OBJECT__49
10
0
20
0
30
0
70
128
71
77
72
92
73
96
0
VERTEX
8
OBJECT__49
10
0
20
0
30
0
70
128
71
95
72
97
73
78
0
VERTEX
8
OBJECT__49
10
0
20
0
30
0
70
128
71
92
72
77
73
76
0
VERTEX
8
OBJECT__49
10
0
20
0
30
0
70
128
71
89
72
93
73
76
0
VERTEX
8
OBJECT__49
10
0
20
0
30
0
70
128
71
85
72
2
73
1
0
VERTEX
8
OBJECT__49
10
0
20
0
30
0
70
128
71
83
72
86
73
1
0
VERTEX
8
OBJECT__49
10
0
20
0
30
0
70
128
71
81
72
82
73
6
0
VERTEX
8
OBJECT__49
10
0
20
0
30
0
70
128
71
78
72
72
73
71
0
VERTEX
8
OBJECT__49
10
0
20
0
30
0
70
128
71
71
72
69
73
76
0
VERTEX
8
OBJECT__49
10
0
20
0
30
0
70
128
71
75
72
76
73
69
0
VERTEX
8
OBJECT__49
10
0
20
0
30
0
70
128
71
73
72
68
73
67
0
VERTEX
8
OBJECT__49
10
0
20
0
30
0
70
128
71
67
72
66
73
69
0
VERTEX
8
OBJECT__49
10
0
20
0
30
0
70
128
71
70
72
74
73
69
0
VERTEX
8
OBJECT__49
10
0
20
0
30
0
70
128
71
62
72
67
73
68
0
VERTEX
8
OBJECT__49
10
0
20
0
30
0
70
128
71
62
72
60
73
66
0
VERTEX
8
OBJECT__49
10
0
20
0
30
0
70
128
71
65
72
66
73
60
0
VERTEX
8
OBJECT__49
10
0
20
0
30
0
70
128
71
58
72
62
73
63
0
VERTEX
8
OBJECT__49
10
0
20
0
30
0
70
128
71
58
72
57
73
60
0
VERTEX
8
OBJECT__49
10
0
20
0
30
0
70
128
71
61
72
64
73
60
0
VERTEX
8
OBJECT__49
10
0
20
0
30
0
70
128
71
53
72
58
73
59
0
VERTEX
8
OBJECT__49
10
0
20
0
30
0
70
128
71
53
72
52
73
57
0
VERTEX
8
OBJECT__49
10
0
20
0
30
0
70
128
71
56
72
57
73
52
0
VERTEX
8
OBJECT__49
10
0
20
0
30
0
70
128
71
55
72
49
73
48
0
VERTEX
8
OBJECT__49
10
0
20
0
30
0
70
128
71
48
72
47
73
52
0
VERTEX
8
OBJECT__49
10
0
20
0
30
0
70
128
71
51
72
52
73
47
0
VERTEX
8
OBJECT__49
10
0
20
0
30
0
70
128
71
43
72
48
73
49
0
VERTEX
8
OBJECT__49
10
0
20
0
30
0
70
128
71
43
72
42
73
47
0
VERTEX
8
OBJECT__49
10
0
20
0
30
0
70
128
71
46
72
47
73
42
0
VERTEX
8
OBJECT__49
10
0
20
0
30
0
70
128
71
39
72
43
73
44
0
VERTEX
8
OBJECT__49
10
0
20
0
30
0
70
128
71
39
72
38
73
42
0
VERTEX
8
OBJECT__49
10
0
20
0
30
0
70
128
71
38
72
98
73
41
0
VERTEX
8
OBJECT__49
10
0
20
0
30
0
70
128
71
39
72
45
73
40
0
VERTEX
8
OBJECT__49
10
0
20
0
30
0
70
128
71
35
72
33
73
38
0
VERTEX
8
OBJECT__49
10
0
20
0
30
0
70
128
71
37
72
98
73
38
0
VERTEX
8
OBJECT__49
10
0
20
0
30
0
70
128
71
35
72
40
73
32
0
VERTEX
8
OBJECT__49
10
0
20
0
30
0
70
128
71
31
72
29
73
33
0
VERTEX
8
OBJECT__49
10
0
20
0
30
0
70
128
71
34
72
36
73
33
0
VERTEX
8
OBJECT__49
10
0
20
0
30
0
70
128
71
27
72
25
73
31
0
VERTEX
8
OBJECT__49
10
0
20
0
30
0
70
128
71
25
72
22
73
29
0
VERTEX
8
OBJECT__49
10
0
20
0
30
0
70
128
71
30
72
34
73
29
0
VERTEX
8
OBJECT__49
10
0
20
0
30
0
70
128
71
25
72
28
73
26
0
VERTEX
8
OBJECT__49
10
0
20
0
30
0
70
128
71
21
72
19
73
22
0
VERTEX
8
OBJECT__49
10
0
20
0
30
0
70
128
71
24
72
30
73
22
0
VERTEX
8
OBJECT__49
10
0
20
0
30
0
70
128
71
21
72
26
73
18
0
VERTEX
8
OBJECT__49
10
0
20
0
30
0
70
128
71
17
72
14
73
19
0
VERTEX
8
OBJECT__49
10
0
20
0
30
0
70
128
71
20
72
23
73
19
0
VERTEX
8
OBJECT__49
10
0
20
0
30
0
70
128
71
13
72
12
73
17
0
VERTEX
8
OBJECT__49
10
0
20
0
30
0
70
128
71
12
72
10
73
14
0
VERTEX
8
OBJECT__49
10
0
20
0
30
0
70
128
71
16
72
20
73
14
0
VERTEX
8
OBJECT__49
10
0
20
0
30
0
70
128
71
9
72
5
73
12
0
VERTEX
8
OBJECT__49
10
0
20
0
30
0
70
128
71
5
72
4
73
10
0
VERTEX
8
OBJECT__49
10
0
20
0
30
0
70
128
71
11
72
15
73
10
0
VERTEX
8
OBJECT__49
10
0
20
0
30
0
70
128
71
8
72
6
73
5
0
VERTEX
8
OBJECT__49
10
0
20
0
30
0
70
128
71
6
72
1
73
4
0
VERTEX
8
OBJECT__49
10
0
20
0
30
0
70
128
71
3
72
11
73
4
0
SEQEND
8
OBJECT__49
0
POLYLINE
8
OBJECT__50
66
1
70
64
71
9
72
7
62
253
0
VERTEX
8
OBJECT__50
10
15.799000
20
14.500000
30
57.986000
70
192
0
VERTEX
8
OBJECT__50
10
16.208000
20
14.259000
30
56.880001
70
192
0
VERTEX
8
OBJECT__50
10
15.434000
20
14.258000
30
56.414001
70
192
0
VERTEX
8
OBJECT__50
10
14.425000
20
14.500000
30
57.160999
70
192
0
VERTEX
8
OBJECT__50
10
17.367001
20
14.500000
30
58.287998
70
192
0
VERTEX
8
OBJECT__50
10
17.424999
20
14.195000
30
56.971001
70
192
0
VERTEX
8
OBJECT__50
10
17.650000
20
14.500000
30
58.293999
70
192
0
VERTEX
8
OBJECT__50
10
17.650000
20
14.179000
30
56.943001
70
192
0
VERTEX
8
OBJECT__50
10
15.210000
20
14.258000
30
56.278000
70
192
0
VERTEX
8
OBJECT__50
10
0
20
0
30
0
70
128
71
1
72
2
73
3
0
VERTEX
8
OBJECT__50
10
0
20
0
30
0
70
128
71
3
72
4
73
1
0
VERTEX
8
OBJECT__50
10
0
20
0
30
0
70
128
71
5
72
6
73
2
0
VERTEX
8
OBJECT__50
10
0
20
0
30
0
70
128
71
7
72
8
73
6
0
VERTEX
8
OBJECT__50
10
0
20
0
30
0
70
128
71
6
72
5
73
7
0
VERTEX
8
OBJECT__50
10
0
20
0
30
0
70
128
71
2
72
1
73
5
0
VERTEX
8
OBJECT__50
10
0
20
0
30
0
70
128
71
3
72
9
73
4
0
SEQEND
8
OBJECT__50
0
POLYLINE
8
OBJECT__51
66
1
70
64
71
9
72
7
62
253
0
VERTEX
8
OBJECT__51
10
15.799000
20
-14.500000
30
57.986000
70
192
0
VERTEX
8
OBJECT__51
10
14.425000
20
-14.500000
30
57.160999
70
192
0
VERTEX
8
OBJECT__51
10
15.434000
20
-14.258000
30
56.414001
70
192
0
VERTEX
8
OBJECT__51
10
15.210000
20
-14.258000
30
56.278000
70
192
0
VERTEX
8
OBJECT__51
10
17.367001
20
-14.500000
30
58.287998
70
192
0
VERTEX
8
OBJECT__51
10
16.208000
20
-14.259000
30
56.880001
70
192
0
VERTEX
8
OBJECT__51
10
17.650000
20
-14.500000
30
58.293999
70
192
0
VERTEX
8
OBJECT__51
10
17.424999
20
-14.195000
30
56.971001
70
192
0
VERTEX
8
OBJECT__51
10
17.650000
20
-14.179000
30
56.943001
70
192
0
VERTEX
8
OBJECT__51
10
0
20
0
30
0
70
128
71
1
72
2
73
3
0
VERTEX
8
OBJECT__51
10
0
20
0
30
0
70
128
71
2
72
4
73
3
0
VERTEX
8
OBJECT__51
10
0
20
0
30
0
70
128
71
5
72
1
73
6
0
VERTEX
8
OBJECT__51
10
0
20
0
30
0
70
128
71
7
72
5
73
8
0
VERTEX
8
OBJECT__51
10
0
20
0
30
0
70
128
71
8
72
9
73
7
0
VERTEX
8
OBJECT__51
10
0
20
0
30
0
70
128
71
6
72
8
73
5
0
VERTEX
8
OBJECT__51
10
0
20
0
30
0
70
128
71
3
72
6
73
1
0
SEQEND
8
OBJECT__51
0
POLYLINE
8
OBJECT__52
66
1
70
64
71
58
72
63
62
253
0
VERTEX
8
OBJECT__52
10
43.491001
20
0.000000
30
44.970001
70
192
0
VERTEX
8
OBJECT__52
10
70.053001
20
-0.003000
30
45.228001
70
192
0
VERTEX
8
OBJECT__52
10
70.051003
20
-2.113000
30
45.206001
70
192
0
VERTEX
8
OBJECT__52
10
43.497002
20
-3.836000
30
45.736000
70
192
0
VERTEX
8
OBJECT__52
10
43.514000
20
7.570000
30
48.035000
70
192
0
VERTEX
8
OBJECT__52
10
70.242996
20
6.528000
30
47.235001
70
192
0
VERTEX
8
OBJECT__52
10
70.120003
20
3.749000
30
45.928001
70
192
0
VERTEX
8
OBJECT__52
10
43.497002
20
3.836000
30
45.736000
70
192
0
VERTEX
8
OBJECT__52
10
70.327003
20
7.496000
30
48.122002
70
192
0
VERTEX
8
OBJECT__52
10
43.542000
20
11.099000
30
51.868000
70
192
0
VERTEX
8
OBJECT__52
10
70.519997
20
9.712000
30
50.153000
70
192
0
VERTEX
8
OBJECT__52
10
70.328003
20
7.498000
30
48.124001
70
192
0
VERTEX
8
OBJECT__52
10
70.694000
20
10.921000
30
51.994999
70
192
0
VERTEX
8
OBJECT__52
10
70.056000
20
2.311000
30
45.250999
70
192
0
VERTEX
8
OBJECT__52
10
43.514000
20
-7.570000
30
48.035000
70
192
0
VERTEX
8
OBJECT__52
10
70.332001
20
-7.443000
30
48.168999
70
192
0
VERTEX
8
OBJECT__52
10
70.332001
20
-7.445000
30
48.169998
70
192
0
VERTEX
8
OBJECT__52
10
43.542000
20
-11.099000
30
51.868000
70
192
0
VERTEX
8
OBJECT__52
10
70.656998
20
-10.898000
30
51.609001
70
192
0
VERTEX
8
OBJECT__52
10
70.122002
20
-3.741000
30
45.946999
70
192
0
VERTEX
8
OBJECT__52
10
70.237999
20
-6.453000
30
47.181999
70
192
0
VERTEX
8
OBJECT__52
10
23.806000
20
-8.395000
30
48.772999
70
192
0
VERTEX
8
OBJECT__52
10
24.429001
20
-7.547000
30
48.073002
70
192
0
VERTEX
8
OBJECT__52
10
21.320000
20
-11.075000
30
51.895000
70
192
0
VERTEX
8
OBJECT__52
10
21.700001
20
-10.733000
30
51.382999
70
192
0
VERTEX
8
OBJECT__52
10
26.320999
20
-4.560000
30
46.056999
70
192
0
VERTEX
8
OBJECT__52
10
26.643000
20
-3.831000
30
45.750000
70
192
0
VERTEX
8
OBJECT__52
10
25.194000
20
-6.505000
30
47.212002
70
192
0
VERTEX
8
OBJECT__52
10
27.326000
20
-1.716000
30
45.122002
70
192
0
VERTEX
8
OBJECT__52
10
27.487000
20
-0.470000
30
44.980999
70
192
0
VERTEX
8
OBJECT__52
10
26.823999
20
-3.419000
30
45.577999
70
192
0
VERTEX
8
OBJECT__52
10
26.979000
20
2.992000
30
45.433998
70
192
0
VERTEX
8
OBJECT__52
10
26.839001
20
3.380000
30
45.563999
70
192
0
VERTEX
8
OBJECT__52
10
27.416000
20
1.191000
30
45.042999
70
192
0
VERTEX
8
OBJECT__52
10
27.466999
20
-0.001000
30
44.999001
70
192
0
VERTEX
8
OBJECT__52
10
25.976000
20
5.219000
30
46.398998
70
192
0
VERTEX
8
OBJECT__52
10
24.788000
20
7.099000
30
47.653999
70
192
0
VERTEX
8
OBJECT__52
10
26.629999
20
3.824000
30
45.765999
70
192
0
VERTEX
8
OBJECT__52
10
23.690001
20
8.538000
30
48.910000
70
192
0
VERTEX
8
OBJECT__52
10
21.729000
20
10.704000
30
51.345001
70
192
0
VERTEX
8
OBJECT__52
10
24.438000
20
7.558000
30
48.054001
70
192
0
VERTEX
8
OBJECT__52
10
21.323000
20
11.083000
30
51.887001
70
192
0
VERTEX
8
OBJECT__52
10
19.959000
20
12.354000
30
53.707001
70
192
0
VERTEX
8
OBJECT__52
10
34.312000
20
14.179000
30
56.943001
70
192
0
VERTEX
8
OBJECT__52
10
43.578999
20
14.179000
30
56.943001
70
192
0
VERTEX
8
OBJECT__52
10
70.694000
20
10.923000
30
51.998001
70
192
0
VERTEX
8
OBJECT__52
10
50.973999
20
14.179000
30
56.943001
70
192
0
VERTEX
8
OBJECT__52
10
71.164001
20
14.179000
30
56.959000
70
192
0
VERTEX
8
OBJECT__52
10
70.683998
20
-11.073000
30
51.894001
70
192
0
VERTEX
8
OBJECT__52
10
70.684998
20
-11.075000
30
51.896999
70
192
0
VERTEX
8
OBJECT__52
10
50.973999
20
-14.179000
30
56.943001
70
192
0
VERTEX
8
OBJECT__52
10
71.164001
20
-14.179000
30
56.959000
70
192
0
VERTEX
8
OBJECT__52
10
34.312000
20
-14.179000
30
56.943001
70
192
0
VERTEX
8
OBJECT__52
10
43.578999
20
-14.179000
30
56.943001
70
192
0
VERTEX
8
OBJECT__52
10
17.650000
20
-14.179000
30
56.943001
70
192
0
VERTEX
8
OBJECT__52
10
18.365000
20
-13.649000
30
55.926998
70
192
0
VERTEX
8
OBJECT__52
10
19.114000
20
-13.061000
30
54.875000
70
192
0
VERTEX
8
OBJECT__52
10
17.650000
20
14.179000
30
56.943001
70
192
0
VERTEX
8
OBJECT__52
10
0
20
0
30
0
70
128
71
1
72
2
73
3
0
VERTEX
8
OBJECT__52
10
0
20
0
30
0
70
128
71
3
72
4
73
1
0
VERTEX
8
OBJECT__52
10
0
20
0
30
0
70
128
71
5
72
6
73
7
0
VERTEX
8
OBJECT__52
10
0
20
0
30
0
70
128
71
7
72
8
73
5
0
VERTEX
8
OBJECT__52
10
0
20
0
30
0
70
128
71
5
72
9
73
6
0
VERTEX
8
OBJECT__52
10
0
20
0
30
0
70
128
71
10
72
11
73
12
0
VERTEX
8
OBJECT__52
10
0
20
0
30
0
70
128
71
12
72
5
73
10
0
VERTEX
8
OBJECT__52
10
0
20
0
30
0
70
128
71
10
72
13
73
11
0
VERTEX
8
OBJECT__52
10
0
20
0
30
0
70
128
71
1
72
8
73
14
0
VERTEX
8
OBJECT__52
10
0
20
0
30
0
70
128
71
8
72
7
73
14
0
VERTEX
8
OBJECT__52
10
0
20
0
30
0
70
128
71
15
72
16
73
17
0
VERTEX
8
OBJECT__52
10
0
20
0
30
0
70
128
71
17
72
18
73
15
0
VERTEX
8
OBJECT__52
10
0
20
0
30
0
70
128
71
17
72
19
73
18
0
VERTEX
8
OBJECT__52
10
0
20
0
30
0
70
128
71
20
72
15
73
4
0
VERTEX
8
OBJECT__52
10
0
20
0
30
0
70
128
71
20
72
21
73
15
0
VERTEX
8
OBJECT__52
10
0
20
0
30
0
70
128
71
18
72
22
73
23
0
VERTEX
8
OBJECT__52
10
0
20
0
30
0
70
128
71
18
72
24
73
25
0
VERTEX
8
OBJECT__52
10
0
20
0
30
0
70
128
71
25
72
22
73
18
0
VERTEX
8
OBJECT__52
10
0
20
0
30
0
70
128
71
15
72
26
73
27
0
VERTEX
8
OBJECT__52
10
0
20
0
30
0
70
128
71
15
72
23
73
28
0
VERTEX
8
OBJECT__52
10
0
20
0
30
0
70
128
71
28
72
26
73
15
0
VERTEX
8
OBJECT__52
10
0
20
0
30
0
70
128
71
4
72
29
73
30
0
VERTEX
8
OBJECT__52
10
0
20
0
30
0
70
128
71
4
72
27
73
31
0
VERTEX
8
OBJECT__52
10
0
20
0
30
0
70
128
71
31
72
29
73
4
0
VERTEX
8
OBJECT__52
10
0
20
0
30
0
70
128
71
30
72
1
73
4
0
VERTEX
8
OBJECT__52
10
0
20
0
30
0
70
128
71
8
72
32
73
33
0
VERTEX
8
OBJECT__52
10
0
20
0
30
0
70
128
71
8
72
34
73
32
0
VERTEX
8
OBJECT__52
10
0
20
0
30
0
70
128
71
1
72
35
73
34
0
VERTEX
8
OBJECT__52
10
0
20
0
30
0
70
128
71
34
72
8
73
1
0
VERTEX
8
OBJECT__52
10
0
20
0
30
0
70
128
71
5
72
36
73
37
0
VERTEX
8
OBJECT__52
10
0
20
0
30
0
70
128
71
5
72
8
73
38
0
VERTEX
8
OBJECT__52
10
0
20
0
30
0
70
128
71
38
72
36
73
5
0
VERTEX
8
OBJECT__52
10
0
20
0
30
0
70
128
71
10
72
39
73
40
0
VERTEX
8
OBJECT__52
10
0
20
0
30
0
70
128
71
10
72
5
73
41
0
VERTEX
8
OBJECT__52
10
0
20
0
30
0
70
128
71
41
72
39
73
10
0
VERTEX
8
OBJECT__52
10
0
20
0
30
0
70
128
71
42
72
43
73
44
0
VERTEX
8
OBJECT__52
10
0
20
0
30
0
70
128
71
44
72
10
73
42
0
VERTEX
8
OBJECT__52
10
0
20
0
30
0
70
128
71
44
72
45
73
10
0
VERTEX
8
OBJECT__52
10
0
20
0
30
0
70
128
71
46
72
10
73
47
0
VERTEX
8
OBJECT__52
10
0
20
0
30
0
70
128
71
47
72
48
73
46
0
VERTEX
8
OBJECT__52
10
0
20
0
30
0
70
128
71
10
72
45
73
47
0
VERTEX
8
OBJECT__52
10
0
20
0
30
0
70
128
71
49
72
50
73
51
0
VERTEX
8
OBJECT__52
10
0
20
0
30
0
70
128
71
51
72
18
73
49
0
VERTEX
8
OBJECT__52
10
0
20
0
30
0
70
128
71
50
72
52
73
51
0
VERTEX
8
OBJECT__52
10
0
20
0
30
0
70
128
71
24
72
18
73
53
0
VERTEX
8
OBJECT__52
10
0
20
0
30
0
70
128
71
18
72
54
73
53
0
VERTEX
8
OBJECT__52
10
0
20
0
30
0
70
128
71
53
72
55
73
56
0
VERTEX
8
OBJECT__52
10
0
20
0
30
0
70
128
71
56
72
57
73
53
0
VERTEX
8
OBJECT__52
10
0
20
0
30
0
70
128
71
53
72
57
73
24
0
VERTEX
8
OBJECT__52
10
0
20
0
30
0
70
128
71
51
72
54
73
18
0
VERTEX
8
OBJECT__52
10
0
20
0
30
0
70
128
71
46
72
13
73
10
0
VERTEX
8
OBJECT__52
10
0
20
0
30
0
70
128
71
43
72
58
73
44
0
VERTEX
8
OBJECT__52
10
0
20
0
30
0
70
128
71
40
72
42
73
10
0
VERTEX
8
OBJECT__52
10
0
20
0
30
0
70
128
71
37
72
41
73
5
0
VERTEX
8
OBJECT__52
10
0
20
0
30
0
70
128
71
33
72
38
73
8
0
VERTEX
8
OBJECT__52
10
0
20
0
30
0
70
128
71
30
72
35
73
1
0
VERTEX
8
OBJECT__52
10
0
20
0
30
0
70
128
71
27
72
4
73
15
0
VERTEX
8
OBJECT__52
10
0
20
0
30
0
70
128
71
23
72
15
73
18
0
VERTEX
8
OBJECT__52
10
0
20
0
30
0
70
128
71
21
72
16
73
15
0
VERTEX
8
OBJECT__52
10
0
20
0
30
0
70
128
71
19
72
49
73
18
0
VERTEX
8
OBJECT__52
10
0
20
0
30
0
70
128
71
14
72
2
73
1
0
VERTEX
8
OBJECT__52
10
0
20
0
30
0
70
128
71
12
72
9
73
5
0
VERTEX
8
OBJECT__52
10
0
20
0
30
0
70
128
71
3
72
20
73
4
0
SEQEND
8
OBJECT__52
0
POLYLINE
8
OBJECT__53
66
1
70
64
71
11
72
9
62
253
0
VERTEX
8
OBJECT__53
10
17.650000
20
14.500000
30
58.293999
70
192
0
VERTEX
8
OBJECT__53
10
34.312000
20
14.500000
30
58.293999
70
192
0
VERTEX
8
OBJECT__53
10
34.312000
20
14.179000
30
56.943001
70
192
0
VERTEX
8
OBJECT__53
10
50.973999
20
14.500000
30
58.293999
70
192
0
VERTEX
8
OBJECT__53
10
43.578999
20
14.179000
30
56.943001
70
192
0
VERTEX
8
OBJECT__53
10
50.973999
20
14.179000
30
56.943001
70
192
0
VERTEX
8
OBJECT__53
10
71.240997
20
14.500000
30
58.278000
70
192
0
VERTEX
8
OBJECT__53
10
71.164001
20
14.181000
30
56.964001
70
192
0
VERTEX
8
OBJECT__53
10
71.242996
20
14.500000
30
58.308998
70
192
0
VERTEX
8
OBJECT__53
10
71.164001
20
14.179000
30
56.959000
70
192
0
VERTEX
8
OBJECT__53
10
17.650000
20
14.179000
30
56.943001
70
192
0
VERTEX
8
OBJECT__53
10
0
20
0
30
0
70
128
71
1
72
2
73
3
0
VERTEX
8
OBJECT__53
10
0
20
0
30
0
70
128
71
2
72
4
73
5
0
VERTEX
8
OBJECT__53
10
0
20
0
30
0
70
128
71
4
72
6
73
5
0
VERTEX
8
OBJECT__53
10
0
20
0
30
0
70
128
71
6
72
7
73
8
0
VERTEX
8
OBJECT__53
10
0
20
0
30
0
70
128
71
4
72
9
73
7
0
VERTEX
8
OBJECT__53
10
0
20
0
30
0
70
128
71
7
72
6
73
4
0
VERTEX
8
OBJECT__53
10
0
20
0
30
0
70
128
71
8
72
10
73
6
0
VERTEX
8
OBJECT__53
10
0
20
0
30
0
70
128
71
5
72
3
73
2
0
VERTEX
8
OBJECT__53
10
0
20
0
30
0
70
128
71
3
72
11
73
1
0
SEQEND
8
OBJECT__53
0
POLYLINE
8
OBJECT__54
66
1
70
64
71
9
72
7
62
253
0
VERTEX
8
OBJECT__54
10
78.367996
20
14.456000
30
55.778000
70
192
0
VERTEX
8
OBJECT__54
10
77.940002
20
14.119000
30
54.930000
70
192
0
VERTEX
8
OBJECT__54
10
74.983002
20
14.156000
30
56.143002
70
192
0
VERTEX
8
OBJECT__54
10
75.377998
20
14.500000
30
57.480999
70
192
0
VERTEX
8
OBJECT__54
10
78.599998
20
14.500000
30
56.237000
70
192
0
VERTEX
8
OBJECT__54
10
71.240997
20
14.500000
30
58.278000
70
192
0
VERTEX
8
OBJECT__54
10
74.668999
20
14.158000
30
56.210999
70
192
0
VERTEX
8
OBJECT__54
10
71.164001
20
14.181000
30
56.964001
70
192
0
VERTEX
8
OBJECT__54
10
71.242996
20
14.500000
30
58.308998
70
192
0
VERTEX
8
OBJECT__54
10
0
20
0
30
0
70
128
71
1
72
2
73
3
0
VERTEX
8
OBJECT__54
10
0
20
0
30
0
70
128
71
4
72
5
73
1
0
VERTEX
8
OBJECT__54
10
0
20
0
30
0
70
128
71
6
72
4
73
7
0
VERTEX
8
OBJECT__54
10
0
20
0
30
0
70
128
71
4
72
3
73
7
0
VERTEX
8
OBJECT__54
10
0
20
0
30
0
70
128
71
7
72
8
73
6
0
VERTEX
8
OBJECT__54
10
0
20
0
30
0
70
128
71
6
72
9
73
4
0
VERTEX
8
OBJECT__54
10
0
20
0
30
0
70
128
71
3
72
4
73
1
0
SEQEND
8
OBJECT__54
0
POLYLINE
8
OBJECT__55
66
1
70
64
71
19
72
17
62
253
0
VERTEX
8
OBJECT__55
10
71.242996
20
14.500000
30
58.308998
70
192
0
VERTEX
8
OBJECT__55
10
50.973999
20
14.500000
30
58.293999
70
192
0
VERTEX
8
OBJECT__55
10
53.431000
20
14.500000
30
69.164001
70
192
0
VERTEX
8
OBJECT__55
10
34.312000
20
14.500000
30
58.293999
70
192
0
VERTEX
8
OBJECT__55
10
36.937000
20
14.500000
30
69.164001
70
192
0
VERTEX
8
OBJECT__55
10
17.650000
20
14.500000
30
58.293999
70
192
0
VERTEX
8
OBJECT__55
10
20.443001
20
14.500000
30
69.164001
70
192
0
VERTEX
8
OBJECT__55
10
14.425000
20
14.500000
30
69.164001
70
192
0
VERTEX
8
OBJECT__55
10
74.698997
20
14.500000
30
68.776001
70
192
0
VERTEX
8
OBJECT__55
10
79.695999
20
14.500000
30
67.500000
70
192
0
VERTEX
8
OBJECT__55
10
75.377998
20
14.500000
30
57.480999
70
192
0
VERTEX
8
OBJECT__55
10
81.051003
20
14.500000
30
61.047001
70
192
0
VERTEX
8
OBJECT__55
10
69.926003
20
14.500000
30
69.164001
70
192
0
VERTEX
8
OBJECT__55
10
83.501999
20
14.500000
30
65.857002
70
192
0
VERTEX
8
OBJECT__55
10
17.367001
20
14.500000
30
58.287998
70
192
0
VERTEX
8
OBJECT__55
10
78.599998
20
14.500000
30
56.237000
70
192
0
VERTEX
8
OBJECT__55
10
15.799000
20
14.500000
30
57.986000
70
192
0
VERTEX
8
OBJECT__55
10
14.425000
20
14.500000
30
57.160999
70
192
0
VERTEX
8
OBJECT__55
10
14.425000
20
14.500000
30
57.664001
70
192
0
VERTEX
8
OBJECT__55
10
0
20
0
30
0
70
128
71
1
72
2
73
3
0
VERTEX
8
OBJECT__55
10
0
20
0
30
0
70
128
71
2
72
4
73
5
0
VERTEX
8
OBJECT__55
10
0
20
0
30
0
70
128
71
5
72
3
73
2
0
VERTEX
8
OBJECT__55
10
0
20
0
30
0
70
128
71
4
72
6
73
7
0
VERTEX
8
OBJECT__55
10
0
20
0
30
0
70
128
71
8
72
7
73
6
0
VERTEX
8
OBJECT__55
10
0
20
0
30
0
70
128
71
7
72
5
73
4
0
VERTEX
8
OBJECT__55
10
0
20
0
30
0
70
128
71
9
72
10
73
11
0
VERTEX
8
OBJECT__55
10
0
20
0
30
0
70
128
71
11
72
10
73
12
0
VERTEX
8
OBJECT__55
10
0
20
0
30
0
70
128
71
3
72
13
73
1
0
VERTEX
8
OBJECT__55
10
0
20
0
30
0
70
128
71
1
72
13
73
9
0
VERTEX
8
OBJECT__55
10
0
20
0
30
0
70
128
71
10
72
14
73
12
0
VERTEX
8
OBJECT__55
10
0
20
0
30
0
70
128
71
6
72
15
73
8
0
VERTEX
8
OBJECT__55
10
0
20
0
30
0
70
128
71
12
72
16
73
11
0
VERTEX
8
OBJECT__55
10
0
20
0
30
0
70
128
71
17
72
18
73
19
0
VERTEX
8
OBJECT__55
10
0
20
0
30
0
70
128
71
11
72
1
73
9
0
VERTEX
8
OBJECT__55
10
0
20
0
30
0
70
128
71
15
72
17
73
8
0
VERTEX
8
OBJECT__55
10
0
20
0
30
0
70
128
71
19
72
8
73
17
0
SEQEND
8
OBJECT__55
0
POLYLINE
8
OBJECT__56
66
1
70
64
71
6
72
4
62
253
0
VERTEX
8
OBJECT__56
10
81.051003
20
14.500000
30
61.047001
70
192
0
VERTEX
8
OBJECT__56
10
83.501999
20
14.500000
30
65.857002
70
192
0
VERTEX
8
OBJECT__56
10
83.946999
20
14.000000
30
65.629997
70
192
0
VERTEX
8
OBJECT__56
10
81.496002
20
14.000000
30
60.820000
70
192
0
VERTEX
8
OBJECT__56
10
79.045998
20
14.000000
30
56.009998
70
192
0
VERTEX
8
OBJECT__56
10
78.599998
20
14.500000
30
56.237000
70
192
0
VERTEX
8
OBJECT__56
10
0
20
0
30
0
70
128
71
1
72
2
73
3
0
VERTEX
8
OBJECT__56
10
0
20
0
30
0
70
128
71
4
72
5
73
6
0
VERTEX
8
OBJECT__56
10
0
20
0
30
0
70
128
71
6
72
1
73
4
0
VERTEX
8
OBJECT__56
10
0
20
0
30
0
70
128
71
3
72
4
73
1
0
SEQEND
8
OBJECT__56
0
POLYLINE
8
OBJECT__57
66
1
70
64
71
12
72
10
62
253
0
VERTEX
8
OBJECT__57
10
34.312000
20
-14.500000
30
58.293999
70
192
0
VERTEX
8
OBJECT__57
10
17.650000
20
-14.500000
30
58.293999
70
192
0
VERTEX
8
OBJECT__57
10
17.650000
20
-14.179000
30
56.943001
70
192
0
VERTEX
8
OBJECT__57
10
34.312000
20
-14.179000
30
56.943001
70
192
0
VERTEX
8
OBJECT__57
10
43.578999
20
-14.179000
30
56.943001
70
192
0
VERTEX
8
OBJECT__57
10
50.973999
20
-14.500000
30
58.293999
70
192
0
VERTEX
8
OBJECT__57
10
71.220001
20
-14.476000
30
57.929001
70
192
0
VERTEX
8
OBJECT__57
10
71.240997
20
-14.500000
30
58.278000
70
192
0
VERTEX
8
OBJECT__57
10
50.973999
20
-14.179000
30
56.943001
70
192
0
VERTEX
8
OBJECT__57
10
71.164001
20
-14.179000
30
56.959000
70
192
0
VERTEX
8
OBJECT__57
10
71.164001
20
-14.181000
30
56.964001
70
192
0
VERTEX
8
OBJECT__57
10
71.242996
20
-14.500000
30
58.308998
70
192
0
VERTEX
8
OBJECT__57
10
0
20
0
30
0
70
128
71
1
72
2
73
3
0
VERTEX
8
OBJECT__57
10
0
20
0
30
0
70
128
71
1
72
4
73
5
0
VERTEX
8
OBJECT__57
10
0
20
0
30
0
70
128
71
5
72
6
73
1
0
VERTEX
8
OBJECT__57
10
0
20
0
30
0
70
128
71
6
72
7
73
8
0
VERTEX
8
OBJECT__57
10
0
20
0
30
0
70
128
71
6
72
9
73
10
0
VERTEX
8
OBJECT__57
10
0
20
0
30
0
70
128
71
10
72
11
73
6
0
VERTEX
8
OBJECT__57
10
0
20
0
30
0
70
128
71
11
72
7
73
6
0
VERTEX
8
OBJECT__57
10
0
20
0
30
0
70
128
71
8
72
12
73
6
0
VERTEX
8
OBJECT__57
10
0
20
0
30
0
70
128
71
5
72
9
73
6
0
VERTEX
8
OBJECT__57
10
0
20
0
30
0
70
128
71
3
72
4
73
1
0
SEQEND
8
OBJECT__57
0
POLYLINE
8
OBJECT__58
66
1
70
64
71
10
72
8
62
253
0
VERTEX
8
OBJECT__58
10
74.902000
20
-14.157000
30
56.168999
70
192
0
VERTEX
8
OBJECT__58
10
77.940002
20
-14.119000
30
54.930000
70
192
0
VERTEX
8
OBJECT__58
10
78.152000
20
-14.331000
30
55.351002
70
192
0
VERTEX
8
OBJECT__58
10
75.290001
20
-14.500000
30
57.507000
70
192
0
VERTEX
8
OBJECT__58
10
71.164001
20
-14.181000
30
56.964001
70
192
0
VERTEX
8
OBJECT__58
10
74.670998
20
-14.158000
30
56.217999
70
192
0
VERTEX
8
OBJECT__58
10
71.220001
20
-14.476000
30
57.929001
70
192
0
VERTEX
8
OBJECT__58
10
71.242996
20
-14.500000
30
58.308998
70
192
0
VERTEX
8
OBJECT__58
10
71.240997
20
-14.500000
30
58.278000
70
192
0
VERTEX
8
OBJECT__58
10
78.599998
20
-14.500000
30
56.237000
70
192
0
VERTEX
8
OBJECT__58
10
0
20
0
30
0
70
128
71
1
72
2
73
3
0
VERTEX
8
OBJECT__58
10
0
20
0
30
0
70
128
71
3
72
4
73
1
0
VERTEX
8
OBJECT__58
10
0
20
0
30
0
70
128
71
4
72
5
73
6
0
VERTEX
8
OBJECT__58
10
0
20
0
30
0
70
128
71
4
72
8
73
9
0
VERTEX
8
OBJECT__58
10
0
20
0
30
0
70
128
71
9
72
7
73
4
0
VERTEX
8
OBJECT__58
10
0
20
0
30
0
70
128
71
5
72
4
73
7
0
VERTEX
8
OBJECT__58
10
0
20
0
30
0
70
128
71
6
72
1
73
4
0
VERTEX
8
OBJECT__58
10
0
20
0
30
0
70
128
71
3
72
10
73
4
0
SEQEND
8
OBJECT__58
0
POLYLINE
8
OBJECT__59
66
1
70
64
71
19
72
17
62
253
0
VERTEX
8
OBJECT__59
10
50.973999
20
-14.500000
30
58.293999
70
192
0
VERTEX
8
OBJECT__59
10
53.431000
20
-14.500000
30
69.164001
70
192
0
VERTEX
8
OBJECT__59
10
36.937000
20
-14.500000
30
69.164001
70
192
0
VERTEX
8
OBJECT__59
10
71.242996
20
-14.500000
30
58.308998
70
192
0
VERTEX
8
OBJECT__59
10
69.926003
20
-14.500000
30
69.164001
70
192
0
VERTEX
8
OBJECT__59
10
34.312000
20
-14.500000
30
58.293999
70
192
0
VERTEX
8
OBJECT__59
10
20.443001
20
-14.500000
30
69.164001
70
192
0
VERTEX
8
OBJECT__59
10
75.290001
20
-14.500000
30
57.507000
70
192
0
VERTEX
8
OBJECT__59
10
78.599998
20
-14.500000
30
56.237000
70
192
0
VERTEX
8
OBJECT__59
10
81.051003
20
-14.500000
30
61.047001
70
192
0
VERTEX
8
OBJECT__59
10
74.698997
20
-14.500000
30
68.776001
70
192
0
VERTEX
8
OBJECT__59
10
17.650000
20
-14.500000
30
58.293999
70
192
0
VERTEX
8
OBJECT__59
10
14.425000
20
-14.500000
30
69.164001
70
192
0
VERTEX
8
OBJECT__59
10
17.367001
20
-14.500000
30
58.287998
70
192
0
VERTEX
8
OBJECT__59
10
79.695999
20
-14.500000
30
67.500000
70
192
0
VERTEX
8
OBJECT__59
10
15.799000
20
-14.500000
30
57.986000
70
192
0
VERTEX
8
OBJECT__59
10
14.425000
20
-14.500000
30
57.664001
70
192
0
VERTEX
8
OBJECT__59
10
14.425000
20
-14.500000
30
57.160999
70
192
0
VERTEX
8
OBJECT__59
10
83.501999
20
-14.500000
30
65.857002
70
192
0
VERTEX
8
OBJECT__59
10
0
20
0
30
0
70
128
71
1
72
2
73
3
0
VERTEX
8
OBJECT__59
10
0
20
0
30
0
70
128
71
4
72
5
73
2
0
VERTEX
8
OBJECT__59
10
0
20
0
30
0
70
128
71
2
72
1
73
4
0
VERTEX
8
OBJECT__59
10
0
20
0
30
0
70
128
71
6
72
3
73
7
0
VERTEX
8
OBJECT__59
10
0
20
0
30
0
70
128
71
8
72
9
73
10
0
VERTEX
8
OBJECT__59
10
0
20
0
30
0
70
128
71
11
72
4
73
8
0
VERTEX
8
OBJECT__59
10
0
20
0
30
0
70
128
71
7
72
12
73
6
0
VERTEX
8
OBJECT__59
10
0
20
0
30
0
70
128
71
13
72
14
73
12
0
VERTEX
8
OBJECT__59
10
0
20
0
30
0
70
128
71
10
72
15
73
8
0
VERTEX
8
OBJECT__59
10
0
20
0
30
0
70
128
71
8
72
15
73
11
0
VERTEX
8
OBJECT__59
10
0
20
0
30
0
70
128
71
12
72
7
73
13
0
VERTEX
8
OBJECT__59
10
0
20
0
30
0
70
128
71
11
72
5
73
4
0
VERTEX
8
OBJECT__59
10
0
20
0
30
0
70
128
71
13
72
16
73
14
0
VERTEX
8
OBJECT__59
10
0
20
0
30
0
70
128
71
3
72
6
73
1
0
VERTEX
8
OBJECT__59
10
0
20
0
30
0
70
128
71
16
72
13
73
17
0
VERTEX
8
OBJECT__59
10
0
20
0
30
0
70
128
71
17
72
18
73
16
0
VERTEX
8
OBJECT__59
10
0
20
0
30
0
70
128
71
10
72
19
73
15
0
SEQEND
8
OBJECT__59
0
POLYLINE
8
OBJECT__60
66
1
70
64
71
6
72
4
62
253
0
VERTEX
8
OBJECT__60
10
81.496002
20
-14.000000
30
60.820000
70
192
0
VERTEX
8
OBJECT__60
10
81.051003
20
-14.500000
30
61.047001
70
192
0
VERTEX
8
OBJECT__60
10
78.599998
20
-14.500000
30
56.237000
70
192
0
VERTEX
8
OBJECT__60
10
83.946999
20
-14.000000
30
65.629997
70
192
0
VERTEX
8
OBJECT__60
10
83.501999
20
-14.500000
30
65.857002
70
192
0
VERTEX
8
OBJECT__60
10
79.045998
20
-14.000000
30
56.009998
70
192
0
VERTEX
8
OBJECT__60
10
0
20
0
30
0
70
128
71
1
72
2
73
3
0
VERTEX
8
OBJECT__60
10
0
20
0
30
0
70
128
71
2
72
1
73
4
0
VERTEX
8
OBJECT__60
10
0
20
0
30
0
70
128
71
4
72
5
73
2
0
VERTEX
8
OBJECT__60
10
0
20
0
30
0
70
128
71
3
72
6
73
1
0
SEQEND
8
OBJECT__60
0
POLYLINE
8
OBJECT__61
66
1
70
64
71
53
72
58
62
253
0
VERTEX
8
OBJECT__61
10
74.983002
20
14.156000
30
56.143002
70
192
0
VERTEX
8
OBJECT__61
10
77.940002
20
14.119000
30
54.930000
70
192
0
VERTEX
8
OBJECT__61
10
76.085999
20
11.415000
30
51.217999
70
192
0
VERTEX
8
OBJECT__61
10
73.638000
20
11.102000
30
51.469002
70
192
0
VERTEX
8
OBJECT__61
10
74.668999
20
14.158000
30
56.210999
70
192
0
VERTEX
8
OBJECT__61
10
75.918999
20
11.076000
30
50.876999
70
192
0
VERTEX
8
OBJECT__61
10
74.741997
20
8.685000
30
48.478001
70
192
0
VERTEX
8
OBJECT__61
10
72.848000
20
7.571000
30
47.837002
70
192
0
VERTEX
8
OBJECT__61
10
73.745003
20
5.657000
30
46.396000
70
192
0
VERTEX
8
OBJECT__61
10
73.630997
20
5.183000
30
46.153000
70
192
0
VERTEX
8
OBJECT__61
10
74.356003
20
7.513000
30
47.672001
70
192
0
VERTEX
8
OBJECT__61
10
72.374001
20
3.837000
30
45.658001
70
192
0
VERTEX
8
OBJECT__61
10
73.153000
20
2.243000
30
45.129002
70
192
0
VERTEX
8
OBJECT__61
10
73.103996
20
1.660000
30
45.021999
70
192
0
VERTEX
8
OBJECT__61
10
73.405998
20
3.800000
30
45.672001
70
192
0
VERTEX
8
OBJECT__61
10
72.216003
20
0.000000
30
44.931999
70
192
0
VERTEX
8
OBJECT__61
10
73.082001
20
-1.315000
30
44.973999
70
192
0
VERTEX
8
OBJECT__61
10
73.141998
20
-2.129000
30
45.105000
70
192
0
VERTEX
8
OBJECT__61
10
72.374001
20
-3.837000
30
45.658001
70
192
0
VERTEX
8
OBJECT__61
10
73.091003
20
-0.002000
30
44.994999
70
192
0
VERTEX
8
OBJECT__61
10
72.848000
20
-7.571000
30
47.837002
70
192
0
VERTEX
8
OBJECT__61
10
73.625999
20
-5.162000
30
46.143002
70
192
0
VERTEX
8
OBJECT__61
10
73.408997
20
-3.799000
30
45.676998
70
192
0
VERTEX
8
OBJECT__61
10
74.584999
20
-8.291000
30
48.153000
70
192
0
VERTEX
8
OBJECT__61
10
75.106003
20
-9.523000
30
49.224998
70
192
0
VERTEX
8
OBJECT__61
10
73.638000
20
-11.102000
30
51.469002
70
192
0
VERTEX
8
OBJECT__61
10
74.349998
20
-7.525000
30
47.660999
70
192
0
VERTEX
8
OBJECT__61
10
76.880997
20
-12.682000
30
52.816002
70
192
0
VERTEX
8
OBJECT__61
10
77.940002
20
-14.119000
30
54.930000
70
192
0
VERTEX
8
OBJECT__61
10
74.902000
20
-14.157000
30
56.168999
70
192
0
VERTEX
8
OBJECT__61
10
75.942001
20
-11.012000
30
50.917000
70
192
0
VERTEX
8
OBJECT__61
10
74.670998
20
-14.158000
30
56.217999
70
192
0
VERTEX
8
OBJECT__61
10
71.164001
20
-14.181000
30
56.964001
70
192
0
VERTEX
8
OBJECT__61
10
71.164001
20
-14.179000
30
56.959000
70
192
0
VERTEX
8
OBJECT__61
10
70.684998
20
-11.075000
30
51.896999
70
192
0
VERTEX
8
OBJECT__61
10
70.656998
20
-10.898000
30
51.609001
70
192
0
VERTEX
8
OBJECT__61
10
70.332001
20
-7.445000
30
48.169998
70
192
0
VERTEX
8
OBJECT__61
10
70.683998
20
-11.073000
30
51.894001
70
192
0
VERTEX
8
OBJECT__61
10
70.332001
20
-7.443000
30
48.168999
70
192
0
VERTEX
8
OBJECT__61
10
70.237999
20
-6.453000
30
47.181999
70
192
0
VERTEX
8
OBJECT__61
10
70.122002
20
-3.742000
30
45.948002
70
192
0
VERTEX
8
OBJECT__61
10
70.051003
20
-2.113000
30
45.206001
70
192
0
VERTEX
8
OBJECT__61
10
70.053001
20
-0.003000
30
45.228001
70
192
0
VERTEX
8
OBJECT__61
10
70.056000
20
2.311000
30
45.250999
70
192
0
VERTEX
8
OBJECT__61
10
70.120003
20
3.748000
30
45.926998
70
192
0
VERTEX
8
OBJECT__61
10
70.242996
20
6.528000
30
47.235001
70
192
0
VERTEX
8
OBJECT__61
10
70.327003
20
7.496000
30
48.122002
70
192
0
VERTEX
8
OBJECT__61
10
70.519997
20
9.712000
30
50.153000
70
192
0
VERTEX
8
OBJECT__61
10
70.694000
20
10.921000
30
51.994999
70
192
0
VERTEX
8
OBJECT__61
10
70.328003
20
7.498000
30
48.124001
70
192
0
VERTEX
8
OBJECT__61
10
71.164001
20
14.179000
30
56.959000
70
192
0
VERTEX
8
OBJECT__61
10
71.164001
20
14.181000
30
56.964001
70
192
0
VERTEX
8
OBJECT__61
10
70.694000
20
10.923000
30
51.998001
70
192
0
VERTEX
8
OBJECT__61
10
0
20
0
30
0
70
128
71
1
72
2
73
3
0
VERTEX
8
OBJECT__61
10
0
20
0
30
0
70
128
71
4
72
5
73
1
0
VERTEX
8
OBJECT__61
10
0
20
0
30
0
70
128
71
3
72
4
73
1
0
VERTEX
8
OBJECT__61
10
0
20
0
30
0
70
128
71
4
72
6
73
7
0
VERTEX
8
OBJECT__61
10
0
20
0
30
0
70
128
71
7
72
8
73
4
0
VERTEX
8
OBJECT__61
10
0
20
0
30
0
70
128
71
8
72
9
73
10
0
VERTEX
8
OBJECT__61
10
0
20
0
30
0
70
128
71
8
72
11
73
9
0
VERTEX
8
OBJECT__61
10
0
20
0
30
0
70
128
71
10
72
12
73
8
0
VERTEX
8
OBJECT__61
10
0
20
0
30
0
70
128
71
12
72
13
73
14
0
VERTEX
8
OBJECT__61
10
0
20
0
30
0
70
128
71
12
72
15
73
13
0
VERTEX
8
OBJECT__61
10
0
20
0
30
0
70
128
71
14
72
16
73
12
0
VERTEX
8
OBJECT__61
10
0
20
0
30
0
70
128
71
16
72
17
73
18
0
VERTEX
8
OBJECT__61
10
0
20
0
30
0
70
128
71
18
72
19
73
16
0
VERTEX
8
OBJECT__61
10
0
20
0
30
0
70
128
71
16
72
20
73
17
0
VERTEX
8
OBJECT__61
10
0
20
0
30
0
70
128
71
21
72
19
73
22
0
VERTEX
8
OBJECT__61
10
0
20
0
30
0
70
128
71
19
72
23
73
22
0
VERTEX
8
OBJECT__61
10
0
20
0
30
0
70
128
71
21
72
24
73
25
0
VERTEX
8
OBJECT__61
10
0
20
0
30
0
70
128
71
25
72
26
73
21
0
VERTEX
8
OBJECT__61
10
0
20
0
30
0
70
128
71
21
72
27
73
24
0
VERTEX
8
OBJECT__61
10
0
20
0
30
0
70
128
71
28
72
29
73
30
0
VERTEX
8
OBJECT__61
10
0
20
0
30
0
70
128
71
26
72
31
73
28
0
VERTEX
8
OBJECT__61
10
0
20
0
30
0
70
128
71
28
72
32
73
26
0
VERTEX
8
OBJECT__61
10
0
20
0
30
0
70
128
71
32
72
33
73
34
0
VERTEX
8
OBJECT__61
10
0
20
0
30
0
70
128
71
34
72
26
73
32
0
VERTEX
8
OBJECT__61
10
0
20
0
30
0
70
128
71
34
72
35
73
26
0
VERTEX
8
OBJECT__61
10
0
20
0
30
0
70
128
71
36
72
37
73
21
0
VERTEX
8
OBJECT__61
10
0
20
0
30
0
70
128
71
26
72
35
73
38
0
VERTEX
8
OBJECT__61
10
0
20
0
30
0
70
128
71
38
72
36
73
26
0
VERTEX
8
OBJECT__61
10
0
20
0
30
0
70
128
71
19
72
39
73
40
0
VERTEX
8
OBJECT__61
10
0
20
0
30
0
70
128
71
21
72
37
73
39
0
VERTEX
8
OBJECT__61
10
0
20
0
30
0
70
128
71
39
72
19
73
21
0
VERTEX
8
OBJECT__61
10
0
20
0
30
0
70
128
71
40
72
41
73
19
0
VERTEX
8
OBJECT__61
10
0
20
0
30
0
70
128
71
16
72
41
73
42
0
VERTEX
8
OBJECT__61
10
0
20
0
30
0
70
128
71
41
72
16
73
19
0
VERTEX
8
OBJECT__61
10
0
20
0
30
0
70
128
71
42
72
43
73
16
0
VERTEX
8
OBJECT__61
10
0
20
0
30
0
70
128
71
16
72
43
73
44
0
VERTEX
8
OBJECT__61
10
0
20
0
30
0
70
128
71
44
72
12
73
16
0
VERTEX
8
OBJECT__61
10
0
20
0
30
0
70
128
71
44
72
45
73
12
0
VERTEX
8
OBJECT__61
10
0
20
0
30
0
70
128
71
12
72
45
73
46
0
VERTEX
8
OBJECT__61
10
0
20
0
30
0
70
128
71
46
72
8
73
12
0
VERTEX
8
OBJECT__61
10
0
20
0
30
0
70
128
71
46
72
47
73
8
0
VERTEX
8
OBJECT__61
10
0
20
0
30
0
70
128
71
4
72
48
73
49
0
VERTEX
8
OBJECT__61
10
0
20
0
30
0
70
128
71
8
72
50
73
48
0
VERTEX
8
OBJECT__61
10
0
20
0
30
0
70
128
71
48
72
4
73
8
0
VERTEX
8
OBJECT__61
10
0
20
0
30
0
70
128
71
51
72
5
73
4
0
VERTEX
8
OBJECT__61
10
0
20
0
30
0
70
128
71
4
72
53
73
51
0
VERTEX
8
OBJECT__61
10
0
20
0
30
0
70
128
71
52
72
5
73
51
0
VERTEX
8
OBJECT__61
10
0
20
0
30
0
70
128
71
49
72
53
73
4
0
VERTEX
8
OBJECT__61
10
0
20
0
30
0
70
128
71
47
72
50
73
8
0
VERTEX
8
OBJECT__61
10
0
20
0
30
0
70
128
71
21
72
26
73
36
0
VERTEX
8
OBJECT__61
10
0
20
0
30
0
70
128
71
30
72
32
73
28
0
VERTEX
8
OBJECT__61
10
0
20
0
30
0
70
128
71
25
72
31
73
26
0
VERTEX
8
OBJECT__61
10
0
20
0
30
0
70
128
71
22
72
27
73
21
0
VERTEX
8
OBJECT__61
10
0
20
0
30
0
70
128
71
18
72
23
73
19
0
VERTEX
8
OBJECT__61
10
0
20
0
30
0
70
128
71
14
72
20
73
16
0
VERTEX
8
OBJECT__61
10
0
20
0
30
0
70
128
71
10
72
15
73
12
0
VERTEX
8
OBJECT__61
10
0
20
0
30
0
70
128
71
7
72
11
73
8
0
VERTEX
8
OBJECT__61
10
0
20
0
30
0
70
128
71
3
72
6
73
4
0
SEQEND
8
OBJECT__61
0
POLYLINE
8
OBJECT__62
66
1
70
64
71
23
72
21
62
253
0
VERTEX
8
OBJECT__62
10
73.582001
20
1.581000
30
45.287998
70
192
0
VERTEX
8
OBJECT__62
10
75.113998
20
-7.963000
30
48.293999
70
192
0
VERTEX
8
OBJECT__62
10
74.126999
20
-4.934000
30
46.358002
70
192
0
VERTEX
8
OBJECT__62
10
73.622002
20
-2.028000
30
45.367001
70
192
0
VERTEX
8
OBJECT__62
10
73.558998
20
-1.252000
30
45.242001
70
192
0
VERTEX
8
OBJECT__62
10
75.643997
20
-9.164000
30
49.334000
70
192
0
VERTEX
8
OBJECT__62
10
78.491997
20
13.682000
30
54.923000
70
192
0
VERTEX
8
OBJECT__62
10
78.850998
20
13.963000
30
55.627998
70
192
0
VERTEX
8
OBJECT__62
10
73.634003
20
2.137000
30
45.389000
70
192
0
VERTEX
8
OBJECT__62
10
76.634003
20
11.019000
30
51.278000
70
192
0
VERTEX
8
OBJECT__62
10
74.250999
20
5.411000
30
46.599998
70
192
0
VERTEX
8
OBJECT__62
10
75.274002
20
8.347000
30
48.609001
70
192
0
VERTEX
8
OBJECT__62
10
74.132004
20
4.954000
30
46.368000
70
192
0
VERTEX
8
OBJECT__62
10
79.045998
20
14.000000
30
56.009998
70
192
0
VERTEX
8
OBJECT__62
10
79.045998
20
-14.000000
30
56.009998
70
192
0
VERTEX
8
OBJECT__62
10
78.669998
20
-13.859000
30
55.272999
70
192
0
VERTEX
8
OBJECT__62
10
77.431999
20
-12.265000
30
52.844002
70
192
0
VERTEX
8
OBJECT__62
10
78.491997
20
-13.682000
30
54.923000
70
192
0
VERTEX
8
OBJECT__62
10
81.496002
20
-14.000000
30
60.820000
70
192
0
VERTEX
8
OBJECT__62
10
81.496002
20
14.000000
30
60.820000
70
192
0
VERTEX
8
OBJECT__62
10
83.946999
20
0.000000
30
65.629997
70
192
0
VERTEX
8
OBJECT__62
10
83.946999
20
14.000000
30
65.629997
70
192
0
VERTEX
8
OBJECT__62
10
83.946999
20
-14.000000
30
65.629997
70
192
0
VERTEX
8
OBJECT__62
10
0
20
0
30
0
70
128
71
1
72
2
73
3
0
VERTEX
8
OBJECT__62
10
0
20
0
30
0
70
128
71
3
72
4
73
1
0
VERTEX
8
OBJECT__62
10
0
20
0
30
0
70
128
71
4
72
5
73
1
0
VERTEX
8
OBJECT__62
10
0
20
0
30
0
70
128
71
6
72
7
73
8
0
VERTEX
8
OBJECT__62
10
0
20
0
30
0
70
128
71
1
72
9
73
2
0
VERTEX
8
OBJECT__62
10
0
20
0
30
0
70
128
71
6
72
10
73
7
0
VERTEX
8
OBJECT__62
10
0
20
0
30
0
70
128
71
6
72
11
73
12
0
VERTEX
8
OBJECT__62
10
0
20
0
30
0
70
128
71
13
72
6
73
2
0
VERTEX
8
OBJECT__62
10
0
20
0
30
0
70
128
71
12
72
10
73
6
0
VERTEX
8
OBJECT__62
10
0
20
0
30
0
70
128
71
9
72
13
73
2
0
VERTEX
8
OBJECT__62
10
0
20
0
30
0
70
128
71
13
72
11
73
6
0
VERTEX
8
OBJECT__62
10
0
20
0
30
0
70
128
71
14
72
15
73
16
0
VERTEX
8
OBJECT__62
10
0
20
0
30
0
70
128
71
14
72
17
73
6
0
VERTEX
8
OBJECT__62
10
0
20
0
30
0
70
128
71
16
72
18
73
14
0
VERTEX
8
OBJECT__62
10
0
20
0
30
0
70
128
71
19
72
15
73
14
0
VERTEX
8
OBJECT__62
10
0
20
0
30
0
70
128
71
18
72
17
73
14
0
VERTEX
8
OBJECT__62
10
0
20
0
30
0
70
128
71
19
72
20
73
21
0
VERTEX
8
OBJECT__62
10
0
20
0
30
0
70
128
71
8
72
14
73
6
0
VERTEX
8
OBJECT__62
10
0
20
0
30
0
70
128
71
20
72
22
73
21
0
VERTEX
8
OBJECT__62
10
0
20
0
30
0
70
128
71
21
72
23
73
19
0
VERTEX
8
OBJECT__62
10
0
20
0
30
0
70
128
71
14
72
20
73
19
0
SEQEND
8
OBJECT__62
0
POLYLINE
8
OBJECT__63
66
1
70
64
71
35
72
33
62
253
0
VERTEX
8
OBJECT__63
10
77.940002
20
14.119000
30
54.930000
70
192
0
VERTEX
8
OBJECT__63
10
78.491997
20
13.682000
30
54.923000
70
192
0
VERTEX
8
OBJECT__63
10
76.634003
20
11.019000
30
51.278000
70
192
0
VERTEX
8
OBJECT__63
10
75.274002
20
8.347000
30
48.609001
70
192
0
VERTEX
8
OBJECT__63
10
74.741997
20
8.685000
30
48.478001
70
192
0
VERTEX
8
OBJECT__63
10
75.918999
20
11.076000
30
50.876999
70
192
0
VERTEX
8
OBJECT__63
10
74.250999
20
5.411000
30
46.599998
70
192
0
VERTEX
8
OBJECT__63
10
73.745003
20
5.657000
30
46.396000
70
192
0
VERTEX
8
OBJECT__63
10
74.356003
20
7.513000
30
47.672001
70
192
0
VERTEX
8
OBJECT__63
10
74.132004
20
4.954000
30
46.368000
70
192
0
VERTEX
8
OBJECT__63
10
73.634003
20
2.137000
30
45.389000
70
192
0
VERTEX
8
OBJECT__63
10
73.153000
20
2.243000
30
45.129002
70
192
0
VERTEX
8
OBJECT__63
10
73.405998
20
3.800000
30
45.672001
70
192
0
VERTEX
8
OBJECT__63
10
73.582001
20
1.581000
30
45.287998
70
192
0
VERTEX
8
OBJECT__63
10
73.558998
20
-1.252000
30
45.242001
70
192
0
VERTEX
8
OBJECT__63
10
73.091003
20
-0.002000
30
44.994999
70
192
0
VERTEX
8
OBJECT__63
10
73.082001
20
-1.315000
30
44.973999
70
192
0
VERTEX
8
OBJECT__63
10
73.141998
20
-2.129000
30
45.105000
70
192
0
VERTEX
8
OBJECT__63
10
73.622002
20
-2.028000
30
45.367001
70
192
0
VERTEX
8
OBJECT__63
10
74.126999
20
-4.934000
30
46.358002
70
192
0
VERTEX
8
OBJECT__63
10
73.408997
20
-3.799000
30
45.676998
70
192
0
VERTEX
8
OBJECT__63
10
73.625999
20
-5.162000
30
46.143002
70
192
0
VERTEX
8
OBJECT__63
10
75.113998
20
-7.963000
30
48.293999
70
192
0
VERTEX
8
OBJECT__63
10
74.349998
20
-7.525000
30
47.660999
70
192
0
VERTEX
8
OBJECT__63
10
74.584999
20
-8.291000
30
48.153000
70
192
0
VERTEX
8
OBJECT__63
10
75.106003
20
-9.523000
30
49.224998
70
192
0
VERTEX
8
OBJECT__63
10
77.431999
20
-12.265000
30
52.844002
70
192
0
VERTEX
8
OBJECT__63
10
76.880997
20
-12.682000
30
52.816002
70
192
0
VERTEX
8
OBJECT__63
10
75.942001
20
-11.012000
30
50.917000
70
192
0
VERTEX
8
OBJECT__63
10
75.643997
20
-9.164000
30
49.334000
70
192
0
VERTEX
8
OBJECT__63
10
77.940002
20
-14.119000
30
54.930000
70
192
0
VERTEX
8
OBJECT__63
10
78.491997
20
-13.682000
30
54.923000
70
192
0
VERTEX
8
OBJECT__63
10
73.103996
20
1.660000
30
45.021999
70
192
0
VERTEX
8
OBJECT__63
10
73.630997
20
5.183000
30
46.153000
70
192
0
VERTEX
8
OBJECT__63
10
76.085999
20
11.415000
30
51.217999
70
192
0
VERTEX
8
OBJECT__63
10
0
20
0
30
0
70
128
71
1
72
2
73
3
0
VERTEX
8
OBJECT__63
10
0
20
0
30
0
70
128
71
4
72
5
73
6
0
VERTEX
8
OBJECT__63
10
0
20
0
30
0
70
128
71
6
72
3
73
4
0
VERTEX
8
OBJECT__63
10
0
20
0
30
0
70
128
71
7
72
8
73
9
0
VERTEX
8
OBJECT__63
10
0
20
0
30
0
70
128
71
9
72
4
73
7
0
VERTEX
8
OBJECT__63
10
0
20
0
30
0
70
128
71
8
72
7
73
10
0
VERTEX
8
OBJECT__63
10
0
20
0
30
0
70
128
71
11
72
12
73
13
0
VERTEX
8
OBJECT__63
10
0
20
0
30
0
70
128
71
13
72
10
73
11
0
VERTEX
8
OBJECT__63
10
0
20
0
30
0
70
128
71
12
72
11
73
14
0
VERTEX
8
OBJECT__63
10
0
20
0
30
0
70
128
71
14
72
15
73
16
0
VERTEX
8
OBJECT__63
10
0
20
0
30
0
70
128
71
15
72
17
73
16
0
VERTEX
8
OBJECT__63
10
0
20
0
30
0
70
128
71
18
72
17
73
15
0
VERTEX
8
OBJECT__63
10
0
20
0
30
0
70
128
71
19
72
20
73
21
0
VERTEX
8
OBJECT__63
10
0
20
0
30
0
70
128
71
20
72
22
73
21
0
VERTEX
8
OBJECT__63
10
0
20
0
30
0
70
128
71
20
72
23
73
24
0
VERTEX
8
OBJECT__63
10
0
20
0
30
0
70
128
71
23
72
25
73
24
0
VERTEX
8
OBJECT__63
10
0
20
0
30
0
70
128
71
26
72
25
73
23
0
VERTEX
8
OBJECT__63
10
0
20
0
30
0
70
128
71
27
72
28
73
29
0
VERTEX
8
OBJECT__63
10
0
20
0
30
0
70
128
71
29
72
30
73
27
0
VERTEX
8
OBJECT__63
10
0
20
0
30
0
70
128
71
31
72
28
73
27
0
VERTEX
8
OBJECT__63
10
0
20
0
30
0
70
128
71
27
72
32
73
31
0
VERTEX
8
OBJECT__63
10
0
20
0
30
0
70
128
71
29
72
26
73
30
0
VERTEX
8
OBJECT__63
10
0
20
0
30
0
70
128
71
23
72
30
73
26
0
VERTEX
8
OBJECT__63
10
0
20
0
30
0
70
128
71
24
72
22
73
20
0
VERTEX
8
OBJECT__63
10
0
20
0
30
0
70
128
71
21
72
18
73
19
0
VERTEX
8
OBJECT__63
10
0
20
0
30
0
70
128
71
15
72
19
73
18
0
VERTEX
8
OBJECT__63
10
0
20
0
30
0
70
128
71
16
72
33
73
14
0
VERTEX
8
OBJECT__63
10
0
20
0
30
0
70
128
71
14
72
33
73
12
0
VERTEX
8
OBJECT__63
10
0
20
0
30
0
70
128
71
13
72
34
73
10
0
VERTEX
8
OBJECT__63
10
0
20
0
30
0
70
128
71
10
72
34
73
8
0
VERTEX
8
OBJECT__63
10
0
20
0
30
0
70
128
71
9
72
5
73
4
0
VERTEX
8
OBJECT__63
10
0
20
0
30
0
70
128
71
6
72
35
73
3
0
VERTEX
8
OBJECT__63
10
0
20
0
30
0
70
128
71
3
72
35
73
1
0
SEQEND
8
OBJECT__63
0
POLYLINE
8
OBJECT__64
66
1
70
64
71
73
72
126
62
253
0
VERTEX
8
OBJECT__64
10
17.650000
20
0.000000
30
95.000000
70
192
0
VERTEX
8
OBJECT__64
10
16.556000
20
6.208000
30
95.000000
70
192
0
VERTEX
8
OBJECT__64
10
13.657000
20
5.153000
30
99.753998
70
192
0
VERTEX
8
OBJECT__64
10
14.565000
20
0.000000
30
99.753998
70
192
0
VERTEX
8
OBJECT__64
10
13.404000
20
11.667000
30
95.000000
70
192
0
VERTEX
8
OBJECT__64
10
11.041000
20
9.684000
30
99.753998
70
192
0
VERTEX
8
OBJECT__64
10
8.575000
20
15.719000
30
95.000000
70
192
0
VERTEX
8
OBJECT__64
10
7.033000
20
13.047000
30
99.753998
70
192
0
VERTEX
8
OBJECT__64
10
2.652000
20
17.875000
30
95.000000
70
192
0
VERTEX
8
OBJECT__64
10
2.116000
20
14.836000
30
99.753998
70
192
0
VERTEX
8
OBJECT__64
10
-3.652000
20
17.875000
30
95.000000
70
192
0
VERTEX
8
OBJECT__64
10
-3.116000
20
14.836000
30
99.753998
70
192
0
VERTEX
8
OBJECT__64
10
-9.575000
20
15.719000
30
95.000000
70
192
0
VERTEX
8
OBJECT__64
10
-8.033000
20
13.047000
30
99.753998
70
192
0
VERTEX
8
OBJECT__64
10
-14.404000
20
11.667000
30
95.000000
70
192
0
VERTEX
8
OBJECT__64
10
-12.041000
20
9.684000
30
99.753998
70
192
0
VERTEX
8
OBJECT__64
10
-17.556000
20
6.208000
30
95.000000
70
192
0
VERTEX
8
OBJECT__64
10
-14.657000
20
5.153000
30
99.753998
70
192
0
VERTEX
8
OBJECT__64
10
-18.650000
20
0.000000
30
95.000000
70
192
0
VERTEX
8
OBJECT__64
10
-15.565000
20
0.000000
30
99.753998
70
192
0
VERTEX
8
OBJECT__64
10
-17.556000
20
-6.208000
30
95.000000
70
192
0
VERTEX
8
OBJECT__64
10
-14.657000
20
-5.153000
30
99.753998
70
192
0
VERTEX
8
OBJECT__64
10
-14.404000
20
-11.667000
30
95.000000
70
192
0
VERTEX
8
OBJECT__64
10
-12.041000
20
-9.684000
30
99.753998
70
192
0
VERTEX
8
OBJECT__64
10
-9.575000
20
-15.719000
30
95.000000
70
192
0
VERTEX
8
OBJECT__64
10
-8.033000
20
-13.047000
30
99.753998
70
192
0
VERTEX
8
OBJECT__64
10
-3.652000
20
-17.875000
30
95.000000
70
192
0
VERTEX
8
OBJECT__64
10
-3.116000
20
-14.836000
30
99.753998
70
192
0
VERTEX
8
OBJECT__64
10
2.652000
20
-17.875000
30
95.000000
70
192
0
VERTEX
8
OBJECT__64
10
2.116000
20
-14.836000
30
99.753998
70
192
0
VERTEX
8
OBJECT__64
10
8.575000
20
-15.719000
30
95.000000
70
192
0
VERTEX
8
OBJECT__64
10
7.033000
20
-13.047000
30
99.753998
70
192
0
VERTEX
8
OBJECT__64
10
13.404000
20
-11.667000
30
95.000000
70
192
0
VERTEX
8
OBJECT__64
10
11.041000
20
-9.684000
30
99.753998
70
192
0
VERTEX
8
OBJECT__64
10
16.556000
20
-6.208000
30
95.000000
70
192
0
VERTEX
8
OBJECT__64
10
13.657000
20
-5.153000
30
99.753998
70
192
0
VERTEX
8
OBJECT__64
10
9.621000
20
3.684000
30
103.452003
70
192
0
VERTEX
8
OBJECT__64
10
10.270000
20
0.000000
30
103.452003
70
192
0
VERTEX
8
OBJECT__64
10
7.751000
20
6.923000
30
103.452003
70
192
0
VERTEX
8
OBJECT__64
10
4.885000
20
9.327000
30
103.452003
70
192
0
VERTEX
8
OBJECT__64
10
1.370000
20
10.607000
30
103.452003
70
192
0
VERTEX
8
OBJECT__64
10
-2.370000
20
10.607000
30
103.452003
70
192
0
VERTEX
8
OBJECT__64
10
-5.885000
20
9.327000
30
103.452003
70
192
0
VERTEX
8
OBJECT__64
10
-8.751000
20
6.923000
30
103.452003
70
192
0
VERTEX
8
OBJECT__64
10
-10.621000
20
3.684000
30
103.452003
70
192
0
VERTEX
8
OBJECT__64
10
-11.270000
20
0.000000
30
103.452003
70
192
0
VERTEX
8
OBJECT__64
10
-10.621000
20
-3.684000
30
103.452003
70
192
0
VERTEX
8
OBJECT__64
10
-8.751000
20
-6.923000
30
103.452003
70
192
0
VERTEX
8
OBJECT__64
10
-5.885000
20
-9.327000
30
103.452003
70
192
0
VERTEX
8
OBJECT__64
10
-2.370000
20
-10.607000
30
103.452003
70
192
0
VERTEX
8
OBJECT__64
10
1.370000
20
-10.607000
30
103.452003
70
192
0
VERTEX
8
OBJECT__64
10
4.885000
20
-9.327000
30
103.452003
70
192
0
VERTEX
8
OBJECT__64
10
7.751000
20
-6.923000
30
103.452003
70
192
0
VERTEX
8
OBJECT__64
10
9.621000
20
-3.684000
30
103.452003
70
192
0
VERTEX
8
OBJECT__64
10
4.772000
20
1.919000
30
105.796997
70
192
0
VERTEX
8
OBJECT__64
10
5.110000
20
0.000000
30
105.796997
70
192
0
VERTEX
8
OBJECT__64
10
3.798000
20
3.606000
30
105.796997
70
192
0
VERTEX
8
OBJECT__64
10
2.305000
20
4.859000
30
105.796997
70
192
0
VERTEX
8
OBJECT__64
10
0.474000
20
5.525000
30
105.796997
70
192
0
VERTEX
8
OBJECT__64
10
-1.474000
20
5.525000
30
105.796997
70
192
0
VERTEX
8
OBJECT__64
10
-3.305000
20
4.859000
30
105.796997
70
192
0
VERTEX
8
OBJECT__64
10
-4.798000
20
3.606000
30
105.796997
70
192
0
VERTEX
8
OBJECT__64
10
-5.772000
20
1.919000
30
105.796997
70
192
0
VERTEX
8
OBJECT__64
10
-6.110000
20
0.000000
30
105.796997
70
192
0
VERTEX
8
OBJECT__64
10
-5.772000
20
-1.919000
30
105.796997
70
192
0
VERTEX
8
OBJECT__64
10
-4.798000
20
-3.606000
30
105.796997
70
192
0
VERTEX
8
OBJECT__64
10
-3.305000
20
-4.859000
30
105.796997
70
192
0
VERTEX
8
OBJECT__64
10
-1.474000
20
-5.525000
30
105.796997
70
192
0
VERTEX
8
OBJECT__64
10
0.474000
20
-5.525000
30
105.796997
70
192
0
VERTEX
8
OBJECT__64
10
2.305000
20
-4.859000
30
105.796997
70
192
0
VERTEX
8
OBJECT__64
10
3.798000
20
-3.606000
30
105.796997
70
192
0
VERTEX
8
OBJECT__64
10
4.772000
20
-1.919000
30
105.796997
70
192
0
VERTEX
8
OBJECT__64
10
-0.500000
20
0.000000
30
106.599998
70
192
0
VERTEX
8
OBJECT__64
10
0
20
0
30
0
70
128
71
1
72
2
73
3
0
VERTEX
8
OBJECT__64
10
0
20
0
30
0
70
128
71
1
72
3
73
4
0
VERTEX
8
OBJECT__64
10
0
20
0
30
0
70
128
71
2
72
5
73
6
0
VERTEX
8
OBJECT__64
10
0
20
0
30
0
70
128
71
2
72
6
73
3
0
VERTEX
8
OBJECT__64
10
0
20
0
30
0
70
128
71
5
72
7
73
8
0
VERTEX
8
OBJECT__64
10
0
20
0
30
0
70
128
71
5
72
8
73
6
0
VERTEX
8
OBJECT__64
10
0
20
0
30
0
70
128
71
7
72
9
73
10
0
VERTEX
8
OBJECT__64
10
0
20
0
30
0
70
128
71
7
72
10
73
8
0
VERTEX
8
OBJECT__64
10
0
20
0
30
0
70
128
71
9
72
11
73
12
0
VERTEX
8
OBJECT__64
10
0
20
0
30
0
70
128
71
9
72
12
73
10
0
VERTEX
8
OBJECT__64
10
0
20
0
30
0
70
128
71
11
72
13
73
14
0
VERTEX
8
OBJECT__64
10
0
20
0
30
0
70
128
71
11
72
14
73
12
0
VERTEX
8
OBJECT__64
10
0
20
0
30
0
70
128
71
13
72
15
73
16
0
VERTEX
8
OBJECT__64
10
0
20
0
30
0
70
128
71
13
72
16
73
14
0
VERTEX
8
OBJECT__64
10
0
20
0
30
0
70
128
71
15
72
17
73
18
0
VERTEX
8
OBJECT__64
10
0
20
0
30
0
70
128
71
15
72
18
73
16
0
VERTEX
8
OBJECT__64
10
0
20
0
30
0
70
128
71
17
72
19
73
20
0
VERTEX
8
OBJECT__64
10
0
20
0
30
0
70
128
71
17
72
20
73
18
0
VERTEX
8
OBJECT__64
10
0
20
0
30
0
70
128
71
19
72
21
73
22
0
VERTEX
8
OBJECT__64
10
0
20
0
30
0
70
128
71
19
72
22
73
20
0
VERTEX
8
OBJECT__64
10
0
20
0
30
0
70
128
71
21
72
23
73
24
0
VERTEX
8
OBJECT__64
10
0
20
0
30
0
70
128
71
21
72
24
73
22
0
VERTEX
8
OBJECT__64
10
0
20
0
30
0
70
128
71
23
72
25
73
26
0
VERTEX
8
OBJECT__64
10
0
20
0
30
0
70
128
71
23
72
26
73
24
0
VERTEX
8
OBJECT__64
10
0
20
0
30
0
70
128
71
25
72
27
73
28
0
VERTEX
8
OBJECT__64
10
0
20
0
30
0
70
128
71
25
72
28
73
26
0
VERTEX
8
OBJECT__64
10
0
20
0
30
0
70
128
71
27
72
29
73
30
0
VERTEX
8
OBJECT__64
10
0
20
0
30
0
70
128
71
27
72
30
73
28
0
VERTEX
8
OBJECT__64
10
0
20
0
30
0
70
128
71
29
72
31
73
32
0
VERTEX
8
OBJECT__64
10
0
20
0
30
0
70
128
71
29
72
32
73
30
0
VERTEX
8
OBJECT__64
10
0
20
0
30
0
70
128
71
31
72
33
73
34
0
VERTEX
8
OBJECT__64
10
0
20
0
30
0
70
128
71
31
72
34
73
32
0
VERTEX
8
OBJECT__64
10
0
20
0
30
0
70
128
71
33
72
35
73
36
0
VERTEX
8
OBJECT__64
10
0
20
0
30
0
70
128
71
33
72
36
73
34
0
VERTEX
8
OBJECT__64
10
0
20
0
30
0
70
128
71
35
72
1
73
4
0
VERTEX
8
OBJECT__64
10
0
20
0
30
0
70
128
71
35
72
4
73
36
0
VERTEX
8
OBJECT__64
10
0
20
0
30
0
70
128
71
4
72
3
73
37
0
VERTEX
8
OBJECT__64
10
0
20
0
30
0
70
128
71
4
72
37
73
38
0
VERTEX
8
OBJECT__64
10
0
20
0
30
0
70
128
71
3
72
6
73
39
0
VERTEX
8
OBJECT__64
10
0
20
0
30
0
70
128
71
3
72
39
73
37
0
VERTEX
8
OBJECT__64
10
0
20
0
30
0
70
128
71
6
72
8
73
40
0
VERTEX
8
OBJECT__64
10
0
20
0
30
0
70
128
71
6
72
40
73
39
0
VERTEX
8
OBJECT__64
10
0
20
0
30
0
70
128
71
8
72
10
73
41
0
VERTEX
8
OBJECT__64
10
0
20
0
30
0
70
128
71
8
72
41
73
40
0
VERTEX
8
OBJECT__64
10
0
20
0
30
0
70
128
71
10
72
12
73
42
0
VERTEX
8
OBJECT__64
10
0
20
0
30
0
70
128
71
10
72
42
73
41
0
VERTEX
8
OBJECT__64
10
0
20
0
30
0
70
128
71
12
72
14
73
43
0
VERTEX
8
OBJECT__64
10
0
20
0
30
0
70
128
71
12
72
43
73
42
0
VERTEX
8
OBJECT__64
10
0
20
0
30
0
70
128
71
14
72
16
73
44
0
VERTEX
8
OBJECT__64
10
0
20
0
30
0
70
128
71
14
72
44
73
43
0
VERTEX
8
OBJECT__64
10
0
20
0
30
0
70
128
71
16
72
18
73
45
0
VERTEX
8
OBJECT__64
10
0
20
0
30
0
70
128
71
16
72
45
73
44
0
VERTEX
8
OBJECT__64
10
0
20
0
30
0
70
128
71
18
72
20
73
46
0
VERTEX
8
OBJECT__64
10
0
20
0
30
0
70
128
71
18
72
46
73
45
0
VERTEX
8
OBJECT__64
10
0
20
0
30
0
70
128
71
20
72
22
73
47
0
VERTEX
8
OBJECT__64
10
0
20
0
30
0
70
128
71
20
72
47
73
46
0
VERTEX
8
OBJECT__64
10
0
20
0
30
0
70
128
71
22
72
24
73
48
0
VERTEX
8
OBJECT__64
10
0
20
0
30
0
70
128
71
22
72
48
73
47
0
VERTEX
8
OBJECT__64
10
0
20
0
30
0
70
128
71
24
72
26
73
49
0
VERTEX
8
OBJECT__64
10
0
20
0
30
0
70
128
71
24
72
49
73
48
0
VERTEX
8
OBJECT__64
10
0
20
0
30
0
70
128
71
26
72
28
73
50
0
VERTEX
8
OBJECT__64
10
0
20
0
30
0
70
128
71
26
72
50
73
49
0
VERTEX
8
OBJECT__64
10
0
20
0
30
0
70
128
71
28
72
30
73
51
0
VERTEX
8
OBJECT__64
10
0
20
0
30
0
70
128
71
28
72
51
73
50
0
VERTEX
8
OBJECT__64
10
0
20
0
30
0
70
128
71
30
72
32
73
52
0
VERTEX
8
OBJECT__64
10
0
20
0
30
0
70
128
71
30
72
52
73
51
0
VERTEX
8
OBJECT__64
10
0
20
0
30
0
70
128
71
32
72
34
73
53
0
VERTEX
8
OBJECT__64
10
0
20
0
30
0
70
128
71
32
72
53
73
52
0
VERTEX
8
OBJECT__64
10
0
20
0
30
0
70
128
71
34
72
36
73
54
0
VERTEX
8
OBJECT__64
10
0
20
0
30
0
70
128
71
34
72
54
73
53
0
VERTEX
8
OBJECT__64
10
0
20
0
30
0
70
128
71
36
72
4
73
38
0
VERTEX
8
OBJECT__64
10
0
20
0
30
0
70
128
71
36
72
38
73
54
0
VERTEX
8
OBJECT__64
10
0
20
0
30
0
70
128
71
38
72
37
73
55
0
VERTEX
8
OBJECT__64
10
0
20
0
30
0
70
128
71
38
72
55
73
56
0
VERTEX
8
OBJECT__64
10
0
20
0
30
0
70
128
71
37
72
39
73
57
0
VERTEX
8
OBJECT__64
10
0
20
0
30
0
70
128
71
37
72
57
73
55
0
VERTEX
8
OBJECT__64
10
0
20
0
30
0
70
128
71
39
72
40
73
58
0
VERTEX
8
OBJECT__64
10
0
20
0
30
0
70
128
71
39
72
58
73
57
0
VERTEX
8
OBJECT__64
10
0
20
0
30
0
70
128
71
40
72
41
73
59
0
VERTEX
8
OBJECT__64
10
0
20
0
30
0
70
128
71
40
72
59
73
58
0
VERTEX
8
OBJECT__64
10
0
20
0
30
0
70
128
71
41
72
42
73
60
0
VERTEX
8
OBJECT__64
10
0
20
0
30
0
70
128
71
41
72
60
73
59
0
VERTEX
8
OBJECT__64
10
0
20
0
30
0
70
128
71
42
72
43
73
61
0
VERTEX
8
OBJECT__64
10
0
20
0
30
0
70
128
71
42
72
61
73
60
0
VERTEX
8
OBJECT__64
10
0
20
0
30
0
70
128
71
43
72
44
73
62
0
VERTEX
8
OBJECT__64
10
0
20
0
30
0
70
128
71
43
72
62
73
61
0
VERTEX
8
OBJECT__64
10
0
20
0
30
0
70
128
71
44
72
45
73
63
0
VERTEX
8
OBJECT__64
10
0
20
0
30
0
70
128
71
44
72
63
73
62
0
VERTEX
8
OBJECT__64
10
0
20
0
30
0
70
128
71
45
72
46
73
64
0
VERTEX
8
OBJECT__64
10
0
20
0
30
0
70
128
71
45
72
64
73
63
0
VERTEX
8
OBJECT__64
10
0
20
0
30
0
70
128
71
46
72
47
73
65
0
VERTEX
8
OBJECT__64
10
0
20
0
30
0
70
128
71
46
72
65
73
64
0
VERTEX
8
OBJECT__64
10
0
20
0
30
0
70
128
71
47
72
48
73
66
0
VERTEX
8
OBJECT__64
10
0
20
0
30
0
70
128
71
47
72
66
73
65
0
VERTEX
8
OBJECT__64
10
0
20
0
30
0
70
128
71
48
72
49
73
67
0
VERTEX
8
OBJECT__64
10
0
20
0
30
0
70
128
71
48
72
67
73
66
0
VERTEX
8
OBJECT__64
10
0
20
0
30
0
70
128
71
49
72
50
73
68
0
VERTEX
8
OBJECT__64
10
0
20
0
30
0
70
128
71
49
72
68
73
67
0
VERTEX
8
OBJECT__64
10
0
20
0
30
0
70
128
71
50
72
51
73
69
0
VERTEX
8
OBJECT__64
10
0
20
0
30
0
70
128
71
50
72
69
73
68
0
VERTEX
8
OBJECT__64
10
0
20
0
30
0
70
128
71
51
72
52
73
70
0
VERTEX
8
OBJECT__64
10
0
20
0
30
0
70
128
71
51
72
70
73
69
0
VERTEX
8
OBJECT__64
10
0
20
0
30
0
70
128
71
52
72
53
73
71
0
VERTEX
8
OBJECT__64
10
0
20
0
30
0
70
128
71
52
72
71
73
70
0
VERTEX
8
OBJECT__64
10
0
20
0
30
0
70
128
71
53
72
54
73
72
0
VERTEX
8
OBJECT__64
10
0
20
0
30
0
70
128
71
53
72
72
73
71
0
VERTEX
8
OBJECT__64
10
0
20
0
30
0
70
128
71
54
72
38
73
56
0
VERTEX
8
OBJECT__64
10
0
20
0
30
0
70
128
71
54
72
56
73
72
0
VERTEX
8
OBJECT__64
10
0
20
0
30
0
70
128
71
56
72
55
73
73
0
VERTEX
8
OBJECT__64
10
0
20
0
30
0
70
128
71
55
72
57
73
73
0
VERTEX
8
OBJECT__64
10
0
20
0
30
0
70
128
71
57
72
58
73
73
0
VERTEX
8
OBJECT__64
10
0
20
0
30
0
70
128
71
58
72
59
73
73
0
VERTEX
8
OBJECT__64
10
0
20
0
30
0
70
128
71
59
72
60
73
73
0
VERTEX
8
OBJECT__64
10
0
20
0
30
0
70
128
71
60
72
61
73
73
0
VERTEX
8
OBJECT__64
10
0
20
0
30
0
70
128
71
61
72
62
73
73
0
VERTEX
8
OBJECT__64
10
0
20
0
30
0
70
128
71
62
72
63
73
73
0
VERTEX
8
OBJECT__64
10
0
20
0
30
0
70
128
71
63
72
64
73
73
0
VERTEX
8
OBJECT__64
10
0
20
0
30
0
70
128
71
64
72
65
73
73
0
VERTEX
8
OBJECT__64
10
0
20
0
30
0
70
128
71
65
72
66
73
73
0
VERTEX
8
OBJECT__64
10
0
20
0
30
0
70
128
71
66
72
67
73
73
0
VERTEX
8
OBJECT__64
10
0
20
0
30
0
70
128
71
67
72
68
73
73
0
VERTEX
8
OBJECT__64
10
0
20
0
30
0
70
128
71
68
72
69
73
73
0
VERTEX
8
OBJECT__64
10
0
20
0
30
0
70
128
71
69
72
70
73
73
0
VERTEX
8
OBJECT__64
10
0
20
0
30
0
70
128
71
70
72
71
73
73
0
VERTEX
8
OBJECT__64
10
0
20
0
30
0
70
128
71
71
72
72
73
73
0
VERTEX
8
OBJECT__64
10
0
20
0
30
0
70
128
71
72
72
56
73
73
0
SEQEND
8
OBJECT__64
0
ENDSEC
0
EOF
