999
Converted by 3D Exploration 
999
XDimension Software, LLC
999
http://www.xdsoft.com/explorer/
0
SECTION
2
HEADER
9
$ACADVER
1
AC1008
9
$UCSORG
10
0.0
20
0.0
30
0.0
9
$UCSXDIR
10
1.0
20
0.0
30
0.0
9
$TILEMODE
70
1
9
$UCSYDIR
10
0.0
20
1.0
30
0.0
9
$EXTMIN
10
0.000000
20
-79.500000
30
-79.500000
9
$EXTMAX
10
69.362000
20
79.500000
30
90.039001
0
ENDSEC
0
SECTION
2
TABLES
0
TABLE
2
LTYPE
70
1
0
LTYPE
2
CONTINUOUS
70
64
3
Solid line
72
65
73
0
40
0.0
0
ENDTAB
0
TABLE
2
LAYER
70
22
0
LAYER
2
OBJECT__0
70
0
62
253
6
CONTINUOUS
0
LAYER
2
OBJECT__1
70
0
62
253
6
CONTINUOUS
0
LAYER
2
OBJECT__3
70
0
62
253
6
CONTINUOUS
0
LAYER
2
OBJECT__4
70
0
62
253
6
CONTINUOUS
0
LAYER
2
OBJECT__5
70
0
62
253
6
CONTINUOUS
0
LAYER
2
OBJECT__6
70
0
62
253
6
CONTINUOUS
0
LAYER
2
OBJECT__7
70
0
62
253
6
CONTINUOUS
0
LAYER
2
OBJECT__8
70
0
62
253
6
CONTINUOUS
0
LAYER
2
OBJECT__10
70
0
62
253
6
CONTINUOUS
0
LAYER
2
OBJECT__11
70
0
62
253
6
CONTINUOUS
0
LAYER
2
OBJECT__12
70
0
62
253
6
CONTINUOUS
0
LAYER
2
OBJECT__13
70
0
62
253
6
CONTINUOUS
0
LAYER
2
OBJECT__15
70
0
62
253
6
CONTINUOUS
0
LAYER
2
OBJECT__16
70
0
62
253
6
CONTINUOUS
0
LAYER
2
OBJECT__17
70
0
62
253
6
CONTINUOUS
0
LAYER
2
OBJECT__18
70
0
62
253
6
CONTINUOUS
0
LAYER
2
OBJECT__19
70
0
62
253
6
CONTINUOUS
0
LAYER
2
OBJECT__20
70
0
62
253
6
CONTINUOUS
0
LAYER
2
OBJECT__21
70
0
62
253
6
CONTINUOUS
0
ENDTAB
0
TABLE
2
STYLE
70
1
0
STYLE
2
STANDARD
70
0
40
0.0
41
1.0
50
0.0
71
0
42
0.2
3
txt
4
1
0
ENDTAB
0
TABLE
2
UCS
70
0
0
ENDTAB
0
ENDSEC
0
SECTION
2
ENTITIES
0
POLYLINE
8
OBJECT__0
66
1
70
64
71
4
72
2
62
253
0
VERTEX
8
OBJECT__0
10
0.000000
20
79.500000
30
90.039001
70
192
0
VERTEX
8
OBJECT__0
10
0.000000
20
-79.500000
30
90.039001
70
192
0
VERTEX
8
OBJECT__0
10
13.300000
20
-79.500000
30
90.039001
70
192
0
VERTEX
8
OBJECT__0
10
13.300000
20
79.500000
30
90.039001
70
192
0
VERTEX
8
OBJECT__0
10
0
20
0
30
0
70
128
71
1
72
2
73
3
0
VERTEX
8
OBJECT__0
10
0
20
0
30
0
70
128
71
3
72
4
73
1
0
SEQEND
8
OBJECT__0
0
POLYLINE
8
OBJECT__1
66
1
70
64
71
4
72
2
62
253
0
VERTEX
8
OBJECT__1
10
0.000000
20
79.500000
30
-93.960999
70
192
0
VERTEX
8
OBJECT__1
10
0.000000
20
79.500000
30
90.039001
70
192
0
VERTEX
8
OBJECT__1
10
13.300000
20
79.500000
30
90.039001
70
192
0
VERTEX
8
OBJECT__1
10
13.300000
20
79.500000
30
-93.960999
70
192
0
VERTEX
8
OBJECT__1
10
0
20
0
30
0
70
128
71
1
72
2
73
3
0
VERTEX
8
OBJECT__1
10
0
20
0
30
0
70
128
71
3
72
4
73
1
0
SEQEND
8
OBJECT__1
0
POLYLINE
8
OBJECT__3
66
1
70
64
71
4
72
2
62
253
0
VERTEX
8
OBJECT__3
10
0.000000
20
79.500000
30
-93.960999
70
192
0
VERTEX
8
OBJECT__3
10
13.300000
20
79.500000
30
-93.960999
70
192
0
VERTEX
8
OBJECT__3
10
13.300000
20
-79.500000
30
-93.960999
70
192
0
VERTEX
8
OBJECT__3
10
0.000000
20
-79.500000
30
-93.960999
70
192
0
VERTEX
8
OBJECT__3
10
0
20
0
30
0
70
128
71
1
72
2
73
3
0
VERTEX
8
OBJECT__3
10
0
20
0
30
0
70
128
71
3
72
4
73
1
0
SEQEND
8
OBJECT__3
0
POLYLINE
8
OBJECT__4
66
1
70
64
71
4
72
2
62
253
0
VERTEX
8
OBJECT__4
10
0.000000
20
-79.500000
30
90.039001
70
192
0
VERTEX
8
OBJECT__4
10
0.000000
20
-79.500000
30
-93.960999
70
192
0
VERTEX
8
OBJECT__4
10
13.300000
20
-79.500000
30
-93.960999
70
192
0
VERTEX
8
OBJECT__4
10
13.300000
20
-79.500000
30
90.039001
70
192
0
VERTEX
8
OBJECT__4
10
0
20
0
30
0
70
128
71
1
72
2
73
3
0
VERTEX
8
OBJECT__4
10
0
20
0
30
0
70
128
71
3
72
4
73
1
0
SEQEND
8
OBJECT__4
0
POLYLINE
8
OBJECT__5
66
1
70
64
71
4
72
2
62
253
0
VERTEX
8
OBJECT__5
10
13.300000
20
-79.500000
30
-93.960999
70
192
0
VERTEX
8
OBJECT__5
10
13.300000
20
79.500000
30
-93.960999
70
192
0
VERTEX
8
OBJECT__5
10
13.300000
20
79.500000
30
90.039001
70
192
0
VERTEX
8
OBJECT__5
10
13.300000
20
-79.500000
30
90.039001
70
192
0
VERTEX
8
OBJECT__5
10
0
20
0
30
0
70
128
71
1
72
2
73
3
0
VERTEX
8
OBJECT__5
10
0
20
0
30
0
70
128
71
3
72
4
73
1
0
SEQEND
8
OBJECT__5
0
POLYLINE
8
OBJECT__6
66
1
70
64
71
4
72
2
62
253
0
VERTEX
8
OBJECT__6
10
0.000000
20
-79.500000
30
90.039001
70
192
0
VERTEX
8
OBJECT__6
10
0.000000
20
79.500000
30
90.039001
70
192
0
VERTEX
8
OBJECT__6
10
0.000000
20
79.500000
30
-93.960999
70
192
0
VERTEX
8
OBJECT__6
10
0.000000
20
-79.500000
30
-93.960999
70
192
0
VERTEX
8
OBJECT__6
10
0
20
0
30
0
70
128
71
1
72
2
73
3
0
VERTEX
8
OBJECT__6
10
0
20
0
30
0
70
128
71
3
72
4
73
1
0
SEQEND
8
OBJECT__6
0
POLYLINE
8
OBJECT__7
66
1
70
64
71
12
72
10
62
253
0
VERTEX
8
OBJECT__7
10
0.000000
20
-13.105000
30
-24.660000
70
192
0
VERTEX
8
OBJECT__7
10
0.000000
20
-22.698999
30
-15.066000
70
192
0
VERTEX
8
OBJECT__7
10
0.000000
20
-26.209999
30
-1.961000
70
192
0
VERTEX
8
OBJECT__7
10
0.000000
20
13.105000
30
-24.660000
70
192
0
VERTEX
8
OBJECT__7
10
0.000000
20
22.698999
30
11.144000
70
192
0
VERTEX
8
OBJECT__7
10
0.000000
20
26.209999
30
-1.961000
70
192
0
VERTEX
8
OBJECT__7
10
0.000000
20
0.000000
30
-28.171000
70
192
0
VERTEX
8
OBJECT__7
10
0.000000
20
-22.698999
30
11.144000
70
192
0
VERTEX
8
OBJECT__7
10
0.000000
20
-13.105000
30
20.738001
70
192
0
VERTEX
8
OBJECT__7
10
0.000000
20
22.698999
30
-15.066000
70
192
0
VERTEX
8
OBJECT__7
10
0.000000
20
0.000000
30
24.250000
70
192
0
VERTEX
8
OBJECT__7
10
0.000000
20
13.105000
30
20.738001
70
192
0
VERTEX
8
OBJECT__7
10
0
20
0
30
0
70
128
71
1
72
2
73
3
0
VERTEX
8
OBJECT__7
10
0
20
0
30
0
70
128
71
4
72
5
73
6
0
VERTEX
8
OBJECT__7
10
0
20
0
30
0
70
128
71
7
72
8
73
9
0
VERTEX
8
OBJECT__7
10
0
20
0
30
0
70
128
71
8
72
7
73
1
0
VERTEX
8
OBJECT__7
10
0
20
0
30
0
70
128
71
6
72
10
73
4
0
VERTEX
8
OBJECT__7
10
0
20
0
30
0
70
128
71
7
72
11
73
12
0
VERTEX
8
OBJECT__7
10
0
20
0
30
0
70
128
71
3
72
8
73
1
0
VERTEX
8
OBJECT__7
10
0
20
0
30
0
70
128
71
12
72
5
73
7
0
VERTEX
8
OBJECT__7
10
0
20
0
30
0
70
128
71
4
72
7
73
5
0
VERTEX
8
OBJECT__7
10
0
20
0
30
0
70
128
71
9
72
11
73
7
0
SEQEND
8
OBJECT__7
0
POLYLINE
8
OBJECT__8
66
1
70
64
71
24
72
24
62
253
0
VERTEX
8
OBJECT__8
10
0.000000
20
-13.105000
30
-24.660000
70
192
0
VERTEX
8
OBJECT__8
10
0.000000
20
0.000000
30
-28.171000
70
192
0
VERTEX
8
OBJECT__8
10
31.003000
20
0.000000
30
-27.900999
70
192
0
VERTEX
8
OBJECT__8
10
31.003000
20
-12.970000
30
-24.424999
70
192
0
VERTEX
8
OBJECT__8
10
31.003000
20
-22.465000
30
-14.931000
70
192
0
VERTEX
8
OBJECT__8
10
0.000000
20
-22.698999
30
-15.066000
70
192
0
VERTEX
8
OBJECT__8
10
31.003000
20
-25.940001
30
-1.961000
70
192
0
VERTEX
8
OBJECT__8
10
0.000000
20
-26.209999
30
-1.961000
70
192
0
VERTEX
8
OBJECT__8
10
31.003000
20
-22.465000
30
11.009000
70
192
0
VERTEX
8
OBJECT__8
10
0.000000
20
-22.698999
30
11.144000
70
192
0
VERTEX
8
OBJECT__8
10
31.003000
20
-12.970000
30
20.504000
70
192
0
VERTEX
8
OBJECT__8
10
0.000000
20
-13.105000
30
20.738001
70
192
0
VERTEX
8
OBJECT__8
10
31.003000
20
0.000000
30
23.979000
70
192
0
VERTEX
8
OBJECT__8
10
0.000000
20
0.000000
30
24.250000
70
192
0
VERTEX
8
OBJECT__8
10
31.003000
20
12.970000
30
20.504000
70
192
0
VERTEX
8
OBJECT__8
10
0.000000
20
22.698999
30
11.144000
70
192
0
VERTEX
8
OBJECT__8
10
0.000000
20
13.105000
30
20.738001
70
192
0
VERTEX
8
OBJECT__8
10
0.000000
20
26.209999
30
-1.961000
70
192
0
VERTEX
8
OBJECT__8
10
31.003000
20
22.465000
30
11.009000
70
192
0
VERTEX
8
OBJECT__8
10
0.000000
20
22.698999
30
-15.066000
70
192
0
VERTEX
8
OBJECT__8
10
31.003000
20
25.940001
30
-1.961000
70
192
0
VERTEX
8
OBJECT__8
10
0.000000
20
13.105000
30
-24.660000
70
192
0
VERTEX
8
OBJECT__8
10
31.003000
20
22.465000
30
-14.931000
70
192
0
VERTEX
8
OBJECT__8
10
31.003000
20
12.970000
30
-24.424999
70
192
0
VERTEX
8
OBJECT__8
10
0
20
0
30
0
70
128
71
1
72
2
73
3
0
VERTEX
8
OBJECT__8
10
0
20
0
30
0
70
128
71
1
72
4
73
5
0
VERTEX
8
OBJECT__8
10
0
20
0
30
0
70
128
71
6
72
5
73
7
0
VERTEX
8
OBJECT__8
10
0
20
0
30
0
70
128
71
8
72
7
73
9
0
VERTEX
8
OBJECT__8
10
0
20
0
30
0
70
128
71
10
72
9
73
11
0
VERTEX
8
OBJECT__8
10
0
20
0
30
0
70
128
71
12
72
11
73
13
0
VERTEX
8
OBJECT__8
10
0
20
0
30
0
70
128
71
14
72
13
73
15
0
VERTEX
8
OBJECT__8
10
0
20
0
30
0
70
128
71
16
72
17
73
15
0
VERTEX
8
OBJECT__8
10
0
20
0
30
0
70
128
71
18
72
16
73
19
0
VERTEX
8
OBJECT__8
10
0
20
0
30
0
70
128
71
20
72
18
73
21
0
VERTEX
8
OBJECT__8
10
0
20
0
30
0
70
128
71
22
72
20
73
23
0
VERTEX
8
OBJECT__8
10
0
20
0
30
0
70
128
71
2
72
22
73
24
0
VERTEX
8
OBJECT__8
10
0
20
0
30
0
70
128
71
24
72
3
73
2
0
VERTEX
8
OBJECT__8
10
0
20
0
30
0
70
128
71
23
72
24
73
22
0
VERTEX
8
OBJECT__8
10
0
20
0
30
0
70
128
71
21
72
23
73
20
0
VERTEX
8
OBJECT__8
10
0
20
0
30
0
70
128
71
19
72
21
73
18
0
VERTEX
8
OBJECT__8
10
0
20
0
30
0
70
128
71
15
72
19
73
16
0
VERTEX
8
OBJECT__8
10
0
20
0
30
0
70
128
71
15
72
17
73
14
0
VERTEX
8
OBJECT__8
10
0
20
0
30
0
70
128
71
13
72
14
73
12
0
VERTEX
8
OBJECT__8
10
0
20
0
30
0
70
128
71
11
72
12
73
10
0
VERTEX
8
OBJECT__8
10
0
20
0
30
0
70
128
71
9
72
10
73
8
0
VERTEX
8
OBJECT__8
10
0
20
0
30
0
70
128
71
7
72
8
73
6
0
VERTEX
8
OBJECT__8
10
0
20
0
30
0
70
128
71
5
72
6
73
1
0
VERTEX
8
OBJECT__8
10
0
20
0
30
0
70
128
71
3
72
4
73
1
0
SEQEND
8
OBJECT__8
0
POLYLINE
8
OBJECT__10
66
1
70
64
71
28
72
28
62
253
0
VERTEX
8
OBJECT__10
10
31.003000
20
25.940001
30
-1.961000
70
192
0
VERTEX
8
OBJECT__10
10
31.003000
20
22.465000
30
11.009000
70
192
0
VERTEX
8
OBJECT__10
10
31.003000
20
22.422001
30
7.327000
70
192
0
VERTEX
8
OBJECT__10
10
31.003000
20
12.970000
30
20.504000
70
192
0
VERTEX
8
OBJECT__10
10
31.003000
20
17.160999
30
15.200000
70
192
0
VERTEX
8
OBJECT__10
10
31.003000
20
24.268999
30
-1.961000
70
192
0
VERTEX
8
OBJECT__10
10
31.003000
20
22.422001
30
-11.248000
70
192
0
VERTEX
8
OBJECT__10
10
31.003000
20
0.000000
30
23.979000
70
192
0
VERTEX
8
OBJECT__10
10
31.003000
20
0.000000
30
22.309000
70
192
0
VERTEX
8
OBJECT__10
10
31.003000
20
9.287000
30
20.461000
70
192
0
VERTEX
8
OBJECT__10
10
31.003000
20
-12.970000
30
20.504000
70
192
0
VERTEX
8
OBJECT__10
10
31.003000
20
-9.287000
30
20.461000
70
192
0
VERTEX
8
OBJECT__10
10
31.003000
20
0.000000
30
-27.900999
70
192
0
VERTEX
8
OBJECT__10
10
31.003000
20
12.970000
30
-24.424999
70
192
0
VERTEX
8
OBJECT__10
10
31.003000
20
9.287000
30
-24.382999
70
192
0
VERTEX
8
OBJECT__10
10
31.003000
20
22.465000
30
-14.931000
70
192
0
VERTEX
8
OBJECT__10
10
31.003000
20
17.160999
30
-19.122000
70
192
0
VERTEX
8
OBJECT__10
10
31.003000
20
-17.160999
30
15.200000
70
192
0
VERTEX
8
OBJECT__10
10
31.003000
20
-22.465000
30
11.009000
70
192
0
VERTEX
8
OBJECT__10
10
31.003000
20
-22.422001
30
7.327000
70
192
0
VERTEX
8
OBJECT__10
10
31.003000
20
-25.940001
30
-1.961000
70
192
0
VERTEX
8
OBJECT__10
10
31.003000
20
-24.268999
30
-1.961000
70
192
0
VERTEX
8
OBJECT__10
10
31.003000
20
-22.465000
30
-14.931000
70
192
0
VERTEX
8
OBJECT__10
10
31.003000
20
-22.422001
30
-11.248000
70
192
0
VERTEX
8
OBJECT__10
10
31.003000
20
-12.970000
30
-24.424999
70
192
0
VERTEX
8
OBJECT__10
10
31.003000
20
-9.287000
30
-24.382999
70
192
0
VERTEX
8
OBJECT__10
10
31.003000
20
-17.160999
30
-19.122000
70
192
0
VERTEX
8
OBJECT__10
10
31.003000
20
0.000000
30
-26.230000
70
192
0
VERTEX
8
OBJECT__10
10
0
20
0
30
0
70
128
71
1
72
2
73
3
0
VERTEX
8
OBJECT__10
10
0
20
0
30
0
70
128
71
2
72
4
73
5
0
VERTEX
8
OBJECT__10
10
0
20
0
30
0
70
128
71
1
72
6
73
7
0
VERTEX
8
OBJECT__10
10
0
20
0
30
0
70
128
71
5
72
3
73
2
0
VERTEX
8
OBJECT__10
10
0
20
0
30
0
70
128
71
8
72
9
73
10
0
VERTEX
8
OBJECT__10
10
0
20
0
30
0
70
128
71
8
72
11
73
12
0
VERTEX
8
OBJECT__10
10
0
20
0
30
0
70
128
71
3
72
6
73
1
0
VERTEX
8
OBJECT__10
10
0
20
0
30
0
70
128
71
12
72
9
73
8
0
VERTEX
8
OBJECT__10
10
0
20
0
30
0
70
128
71
13
72
14
73
15
0
VERTEX
8
OBJECT__10
10
0
20
0
30
0
70
128
71
14
72
16
73
17
0
VERTEX
8
OBJECT__10
10
0
20
0
30
0
70
128
71
4
72
10
73
5
0
VERTEX
8
OBJECT__10
10
0
20
0
30
0
70
128
71
11
72
18
73
12
0
VERTEX
8
OBJECT__10
10
0
20
0
30
0
70
128
71
17
72
15
73
14
0
VERTEX
8
OBJECT__10
10
0
20
0
30
0
70
128
71
10
72
4
73
8
0
VERTEX
8
OBJECT__10
10
0
20
0
30
0
70
128
71
19
72
20
73
18
0
VERTEX
8
OBJECT__10
10
0
20
0
30
0
70
128
71
16
72
7
73
17
0
VERTEX
8
OBJECT__10
10
0
20
0
30
0
70
128
71
18
72
11
73
19
0
VERTEX
8
OBJECT__10
10
0
20
0
30
0
70
128
71
21
72
22
73
20
0
VERTEX
8
OBJECT__10
10
0
20
0
30
0
70
128
71
21
72
23
73
24
0
VERTEX
8
OBJECT__10
10
0
20
0
30
0
70
128
71
7
72
16
73
1
0
VERTEX
8
OBJECT__10
10
0
20
0
30
0
70
128
71
24
72
22
73
21
0
VERTEX
8
OBJECT__10
10
0
20
0
30
0
70
128
71
20
72
19
73
21
0
VERTEX
8
OBJECT__10
10
0
20
0
30
0
70
128
71
25
72
26
73
27
0
VERTEX
8
OBJECT__10
10
0
20
0
30
0
70
128
71
13
72
28
73
26
0
VERTEX
8
OBJECT__10
10
0
20
0
30
0
70
128
71
23
72
27
73
24
0
VERTEX
8
OBJECT__10
10
0
20
0
30
0
70
128
71
26
72
25
73
13
0
VERTEX
8
OBJECT__10
10
0
20
0
30
0
70
128
71
27
72
23
73
25
0
VERTEX
8
OBJECT__10
10
0
20
0
30
0
70
128
71
15
72
28
73
13
0
SEQEND
8
OBJECT__10
0
POLYLINE
8
OBJECT__11
66
1
70
64
71
48
72
64
62
253
0
VERTEX
8
OBJECT__11
10
38.805000
20
0.000000
30
-22.806000
70
192
0
VERTEX
8
OBJECT__11
10
45.002998
20
0.000000
30
-16.961000
70
192
0
VERTEX
8
OBJECT__11
10
45.002998
20
-5.740000
30
-15.819000
70
192
0
VERTEX
8
OBJECT__11
10
38.805000
20
-14.740000
30
-16.700001
70
192
0
VERTEX
8
OBJECT__11
10
38.805000
20
-7.977000
30
-21.219000
70
192
0
VERTEX
8
OBJECT__11
10
45.002998
20
-10.607000
30
-12.567000
70
192
0
VERTEX
8
OBJECT__11
10
45.002998
20
-13.858000
30
-7.701000
70
192
0
VERTEX
8
OBJECT__11
10
38.805000
20
-19.257999
30
-9.938000
70
192
0
VERTEX
8
OBJECT__11
10
45.002998
20
-15.000000
30
-1.961000
70
192
0
VERTEX
8
OBJECT__11
10
38.805000
20
-20.844999
30
-1.961000
70
192
0
VERTEX
8
OBJECT__11
10
45.002998
20
-13.858000
30
3.780000
70
192
0
VERTEX
8
OBJECT__11
10
38.805000
20
-19.257999
30
6.016000
70
192
0
VERTEX
8
OBJECT__11
10
45.002998
20
-10.607000
30
8.646000
70
192
0
VERTEX
8
OBJECT__11
10
38.805000
20
-7.977000
30
17.298000
70
192
0
VERTEX
8
OBJECT__11
10
38.805000
20
-14.740000
30
12.779000
70
192
0
VERTEX
8
OBJECT__11
10
45.002998
20
-5.740000
30
11.897000
70
192
0
VERTEX
8
OBJECT__11
10
45.002998
20
0.000000
30
13.039000
70
192
0
VERTEX
8
OBJECT__11
10
38.805000
20
7.977000
30
17.298000
70
192
0
VERTEX
8
OBJECT__11
10
38.805000
20
0.000000
30
18.884001
70
192
0
VERTEX
8
OBJECT__11
10
38.805000
20
14.740000
30
12.779000
70
192
0
VERTEX
8
OBJECT__11
10
45.002998
20
5.740000
30
11.897000
70
192
0
VERTEX
8
OBJECT__11
10
38.805000
20
19.257999
30
6.016000
70
192
0
VERTEX
8
OBJECT__11
10
45.002998
20
10.607000
30
8.646000
70
192
0
VERTEX
8
OBJECT__11
10
38.805000
20
20.844999
30
-1.961000
70
192
0
VERTEX
8
OBJECT__11
10
45.002998
20
13.858000
30
3.780000
70
192
0
VERTEX
8
OBJECT__11
10
38.805000
20
19.257999
30
-9.938000
70
192
0
VERTEX
8
OBJECT__11
10
45.002998
20
15.000000
30
-1.961000
70
192
0
VERTEX
8
OBJECT__11
10
38.805000
20
14.740000
30
-16.700001
70
192
0
VERTEX
8
OBJECT__11
10
45.002998
20
13.858000
30
-7.701000
70
192
0
VERTEX
8
OBJECT__11
10
38.805000
20
7.977000
30
-21.219000
70
192
0
VERTEX
8
OBJECT__11
10
45.002998
20
10.607000
30
-12.567000
70
192
0
VERTEX
8
OBJECT__11
10
45.002998
20
5.740000
30
-15.819000
70
192
0
VERTEX
8
OBJECT__11
10
31.003000
20
-9.287000
30
-24.382999
70
192
0
VERTEX
8
OBJECT__11
10
31.003000
20
0.000000
30
-26.230000
70
192
0
VERTEX
8
OBJECT__11
10
31.003000
20
-22.422001
30
-11.248000
70
192
0
VERTEX
8
OBJECT__11
10
31.003000
20
-17.160999
30
-19.122000
70
192
0
VERTEX
8
OBJECT__11
10
31.003000
20
-24.268999
30
-1.961000
70
192
0
VERTEX
8
OBJECT__11
10
31.003000
20
-17.160999
30
15.200000
70
192
0
VERTEX
8
OBJECT__11
10
31.003000
20
-22.422001
30
7.327000
70
192
0
VERTEX
8
OBJECT__11
10
31.003000
20
-9.287000
30
20.461000
70
192
0
VERTEX
8
OBJECT__11
10
31.003000
20
0.000000
30
22.309000
70
192
0
VERTEX
8
OBJECT__11
10
31.003000
20
17.160999
30
15.200000
70
192
0
VERTEX
8
OBJECT__11
10
31.003000
20
9.287000
30
20.461000
70
192
0
VERTEX
8
OBJECT__11
10
31.003000
20
24.268999
30
-1.961000
70
192
0
VERTEX
8
OBJECT__11
10
31.003000
20
22.422001
30
7.327000
70
192
0
VERTEX
8
OBJECT__11
10
31.003000
20
22.422001
30
-11.248000
70
192
0
VERTEX
8
OBJECT__11
10
31.003000
20
9.287000
30
-24.382999
70
192
0
VERTEX
8
OBJECT__11
10
31.003000
20
17.160999
30
-19.122000
70
192
0
VERTEX
8
OBJECT__11
10
0
20
0
30
0
70
128
71
1
72
2
73
3
0
VERTEX
8
OBJECT__11
10
0
20
0
30
0
70
128
71
4
72
5
73
3
0
VERTEX
8
OBJECT__11
10
0
20
0
30
0
70
128
71
4
72
6
73
7
0
VERTEX
8
OBJECT__11
10
0
20
0
30
0
70
128
71
8
72
7
73
9
0
VERTEX
8
OBJECT__11
10
0
20
0
30
0
70
128
71
10
72
9
73
11
0
VERTEX
8
OBJECT__11
10
0
20
0
30
0
70
128
71
12
72
11
73
13
0
VERTEX
8
OBJECT__11
10
0
20
0
30
0
70
128
71
14
72
15
73
13
0
VERTEX
8
OBJECT__11
10
0
20
0
30
0
70
128
71
14
72
16
73
17
0
VERTEX
8
OBJECT__11
10
0
20
0
30
0
70
128
71
18
72
19
73
17
0
VERTEX
8
OBJECT__11
10
0
20
0
30
0
70
128
71
20
72
18
73
21
0
VERTEX
8
OBJECT__11
10
0
20
0
30
0
70
128
71
22
72
20
73
23
0
VERTEX
8
OBJECT__11
10
0
20
0
30
0
70
128
71
24
72
22
73
25
0
VERTEX
8
OBJECT__11
10
0
20
0
30
0
70
128
71
26
72
24
73
27
0
VERTEX
8
OBJECT__11
10
0
20
0
30
0
70
128
71
28
72
26
73
29
0
VERTEX
8
OBJECT__11
10
0
20
0
30
0
70
128
71
30
72
28
73
31
0
VERTEX
8
OBJECT__11
10
0
20
0
30
0
70
128
71
30
72
32
73
2
0
VERTEX
8
OBJECT__11
10
0
20
0
30
0
70
128
71
33
72
34
73
1
0
VERTEX
8
OBJECT__11
10
0
20
0
30
0
70
128
71
33
72
5
73
4
0
VERTEX
8
OBJECT__11
10
0
20
0
30
0
70
128
71
35
72
36
73
4
0
VERTEX
8
OBJECT__11
10
0
20
0
30
0
70
128
71
35
72
8
73
10
0
VERTEX
8
OBJECT__11
10
0
20
0
30
0
70
128
71
37
72
10
73
12
0
VERTEX
8
OBJECT__11
10
0
20
0
30
0
70
128
71
38
72
39
73
12
0
VERTEX
8
OBJECT__11
10
0
20
0
30
0
70
128
71
38
72
15
73
14
0
VERTEX
8
OBJECT__11
10
0
20
0
30
0
70
128
71
40
72
14
73
19
0
VERTEX
8
OBJECT__11
10
0
20
0
30
0
70
128
71
41
72
19
73
18
0
VERTEX
8
OBJECT__11
10
0
20
0
30
0
70
128
71
42
72
43
73
18
0
VERTEX
8
OBJECT__11
10
0
20
0
30
0
70
128
71
42
72
20
73
22
0
VERTEX
8
OBJECT__11
10
0
20
0
30
0
70
128
71
44
72
45
73
22
0
VERTEX
8
OBJECT__11
10
0
20
0
30
0
70
128
71
46
72
44
73
24
0
VERTEX
8
OBJECT__11
10
0
20
0
30
0
70
128
71
46
72
26
73
28
0
VERTEX
8
OBJECT__11
10
0
20
0
30
0
70
128
71
47
72
48
73
28
0
VERTEX
8
OBJECT__11
10
0
20
0
30
0
70
128
71
34
72
47
73
30
0
VERTEX
8
OBJECT__11
10
0
20
0
30
0
70
128
71
30
72
1
73
34
0
VERTEX
8
OBJECT__11
10
0
20
0
30
0
70
128
71
28
72
30
73
47
0
VERTEX
8
OBJECT__11
10
0
20
0
30
0
70
128
71
28
72
48
73
46
0
VERTEX
8
OBJECT__11
10
0
20
0
30
0
70
128
71
24
72
26
73
46
0
VERTEX
8
OBJECT__11
10
0
20
0
30
0
70
128
71
22
72
24
73
44
0
VERTEX
8
OBJECT__11
10
0
20
0
30
0
70
128
71
22
72
45
73
42
0
VERTEX
8
OBJECT__11
10
0
20
0
30
0
70
128
71
18
72
20
73
42
0
VERTEX
8
OBJECT__11
10
0
20
0
30
0
70
128
71
18
72
43
73
41
0
VERTEX
8
OBJECT__11
10
0
20
0
30
0
70
128
71
19
72
41
73
40
0
VERTEX
8
OBJECT__11
10
0
20
0
30
0
70
128
71
14
72
40
73
38
0
VERTEX
8
OBJECT__11
10
0
20
0
30
0
70
128
71
12
72
15
73
38
0
VERTEX
8
OBJECT__11
10
0
20
0
30
0
70
128
71
12
72
39
73
37
0
VERTEX
8
OBJECT__11
10
0
20
0
30
0
70
128
71
10
72
37
73
35
0
VERTEX
8
OBJECT__11
10
0
20
0
30
0
70
128
71
4
72
8
73
35
0
VERTEX
8
OBJECT__11
10
0
20
0
30
0
70
128
71
4
72
36
73
33
0
VERTEX
8
OBJECT__11
10
0
20
0
30
0
70
128
71
1
72
5
73
33
0
VERTEX
8
OBJECT__11
10
0
20
0
30
0
70
128
71
2
72
1
73
30
0
VERTEX
8
OBJECT__11
10
0
20
0
30
0
70
128
71
31
72
32
73
30
0
VERTEX
8
OBJECT__11
10
0
20
0
30
0
70
128
71
29
72
31
73
28
0
VERTEX
8
OBJECT__11
10
0
20
0
30
0
70
128
71
27
72
29
73
26
0
VERTEX
8
OBJECT__11
10
0
20
0
30
0
70
128
71
25
72
27
73
24
0
VERTEX
8
OBJECT__11
10
0
20
0
30
0
70
128
71
23
72
25
73
22
0
VERTEX
8
OBJECT__11
10
0
20
0
30
0
70
128
71
21
72
23
73
20
0
VERTEX
8
OBJECT__11
10
0
20
0
30
0
70
128
71
17
72
21
73
18
0
VERTEX
8
OBJECT__11
10
0
20
0
30
0
70
128
71
17
72
19
73
14
0
VERTEX
8
OBJECT__11
10
0
20
0
30
0
70
128
71
13
72
16
73
14
0
VERTEX
8
OBJECT__11
10
0
20
0
30
0
70
128
71
13
72
15
73
12
0
VERTEX
8
OBJECT__11
10
0
20
0
30
0
70
128
71
11
72
12
73
10
0
VERTEX
8
OBJECT__11
10
0
20
0
30
0
70
128
71
9
72
10
73
8
0
VERTEX
8
OBJECT__11
10
0
20
0
30
0
70
128
71
7
72
8
73
4
0
VERTEX
8
OBJECT__11
10
0
20
0
30
0
70
128
71
3
72
6
73
4
0
VERTEX
8
OBJECT__11
10
0
20
0
30
0
70
128
71
3
72
5
73
1
0
SEQEND
8
OBJECT__11
0
POLYLINE
8
OBJECT__12
66
1
70
64
71
12
72
10
62
253
0
VERTEX
8
OBJECT__12
10
68.681999
20
26.000000
30
-0.858000
70
192
0
VERTEX
8
OBJECT__12
10
69.362000
20
0.000000
30
-26.850000
70
192
0
VERTEX
8
OBJECT__12
10
69.271004
20
13.000000
30
-23.367001
70
192
0
VERTEX
8
OBJECT__12
10
69.022003
20
-22.517000
30
-13.854000
70
192
0
VERTEX
8
OBJECT__12
10
69.271004
20
-13.000000
30
-23.367001
70
192
0
VERTEX
8
OBJECT__12
10
68.681999
20
-26.000000
30
-0.858000
70
192
0
VERTEX
8
OBJECT__12
10
68.000999
20
0.000000
30
25.132999
70
192
0
VERTEX
8
OBJECT__12
10
68.092003
20
-13.000000
30
21.650000
70
192
0
VERTEX
8
OBJECT__12
10
68.342003
20
22.517000
30
12.137000
70
192
0
VERTEX
8
OBJECT__12
10
68.092003
20
13.000000
30
21.650000
70
192
0
VERTEX
8
OBJECT__12
10
68.342003
20
-22.517000
30
12.137000
70
192
0
VERTEX
8
OBJECT__12
10
69.022003
20
22.517000
30
-13.854000
70
192
0
VERTEX
8
OBJECT__12
10
0
20
0
30
0
70
128
71
1
72
2
73
3
0
VERTEX
8
OBJECT__12
10
0
20
0
30
0
70
128
71
1
72
4
73
5
0
VERTEX
8
OBJECT__12
10
0
20
0
30
0
70
128
71
6
72
7
73
8
0
VERTEX
8
OBJECT__12
10
0
20
0
30
0
70
128
71
6
72
9
73
10
0
VERTEX
8
OBJECT__12
10
0
20
0
30
0
70
128
71
5
72
2
73
1
0
VERTEX
8
OBJECT__12
10
0
20
0
30
0
70
128
71
10
72
7
73
6
0
VERTEX
8
OBJECT__12
10
0
20
0
30
0
70
128
71
1
72
6
73
4
0
VERTEX
8
OBJECT__12
10
0
20
0
30
0
70
128
71
6
72
1
73
9
0
VERTEX
8
OBJECT__12
10
0
20
0
30
0
70
128
71
8
72
11
73
6
0
VERTEX
8
OBJECT__12
10
0
20
0
30
0
70
128
71
3
72
12
73
1
0
SEQEND
8
OBJECT__12
0
POLYLINE
8
OBJECT__13
66
1
70
64
71
37
72
39
62
253
0
VERTEX
8
OBJECT__13
10
69.022003
20
22.517000
30
-13.854000
70
192
0
VERTEX
8
OBJECT__13
10
34.034000
20
22.517000
30
-14.770000
70
192
0
VERTEX
8
OBJECT__13
10
33.694000
20
26.000000
30
-1.775000
70
192
0
VERTEX
8
OBJECT__13
10
69.271004
20
13.000000
30
-23.367001
70
192
0
VERTEX
8
OBJECT__13
10
34.283001
20
13.000000
30
-24.284000
70
192
0
VERTEX
8
OBJECT__13
10
69.022003
20
-22.517000
30
-13.854000
70
192
0
VERTEX
8
OBJECT__13
10
34.034000
20
-22.517000
30
-14.770000
70
192
0
VERTEX
8
OBJECT__13
10
34.283001
20
-13.000000
30
-24.284000
70
192
0
VERTEX
8
OBJECT__13
10
68.681999
20
-26.000000
30
-0.858000
70
192
0
VERTEX
8
OBJECT__13
10
33.694000
20
-26.000000
30
-1.775000
70
192
0
VERTEX
8
OBJECT__13
10
34.374001
20
0.000000
30
-27.766001
70
192
0
VERTEX
8
OBJECT__13
10
56.817001
20
9.800000
30
-25.260000
70
192
0
VERTEX
8
OBJECT__13
10
64.314003
20
9.800000
30
-25.063000
70
192
0
VERTEX
8
OBJECT__13
10
69.362000
20
0.000000
30
-26.850000
70
192
0
VERTEX
8
OBJECT__13
10
64.363998
20
0.000000
30
-26.980000
70
192
0
VERTEX
8
OBJECT__13
10
69.271004
20
-13.000000
30
-23.367001
70
192
0
VERTEX
8
OBJECT__13
10
64.314003
20
-9.800000
30
-25.063000
70
192
0
VERTEX
8
OBJECT__13
10
56.817001
20
-9.800000
30
-25.260000
70
192
0
VERTEX
8
OBJECT__13
10
56.867001
20
0.000000
30
-27.177000
70
192
0
VERTEX
8
OBJECT__13
10
68.681999
20
26.000000
30
-0.858000
70
192
0
VERTEX
8
OBJECT__13
10
40.074001
20
23.714001
30
9.057000
70
192
0
VERTEX
8
OBJECT__13
10
41.327000
20
22.176001
30
11.183000
70
192
0
VERTEX
8
OBJECT__13
10
68.342003
20
22.517000
30
12.137000
70
192
0
VERTEX
8
OBJECT__13
10
45.332001
20
17.257000
30
17.983999
70
192
0
VERTEX
8
OBJECT__13
10
46.868999
20
12.716000
30
20.591999
70
192
0
VERTEX
8
OBJECT__13
10
68.000999
20
0.000000
30
25.132999
70
192
0
VERTEX
8
OBJECT__13
10
68.092003
20
13.000000
30
21.650000
70
192
0
VERTEX
8
OBJECT__13
10
48.543999
20
7.766000
30
23.436001
70
192
0
VERTEX
8
OBJECT__13
10
68.092003
20
-13.000000
30
21.650000
70
192
0
VERTEX
8
OBJECT__13
10
49.144001
20
-3.091000
30
24.454000
70
192
0
VERTEX
8
OBJECT__13
10
48.974998
20
-0.043000
30
24.167999
70
192
0
VERTEX
8
OBJECT__13
10
68.342003
20
-22.517000
30
12.137000
70
192
0
VERTEX
8
OBJECT__13
10
47.027000
20
-13.405000
30
20.860001
70
192
0
VERTEX
8
OBJECT__13
10
42.564999
20
-21.361000
30
13.286000
70
192
0
VERTEX
8
OBJECT__13
10
47.116001
20
-12.969000
30
21.011999
70
192
0
VERTEX
8
OBJECT__13
10
41.388000
20
-22.181999
30
11.287000
70
192
0
VERTEX
8
OBJECT__13
10
36.542999
20
-25.559999
30
3.063000
70
192
0
VERTEX
8
OBJECT__13
10
0
20
0
30
0
70
128
71
1
72
2
73
3
0
VERTEX
8
OBJECT__13
10
0
20
0
30
0
70
128
71
4
72
5
73
2
0
VERTEX
8
OBJECT__13
10
0
20
0
30
0
70
128
71
6
72
7
73
8
0
VERTEX
8
OBJECT__13
10
0
20
0
30
0
70
128
71
9
72
10
73
7
0
VERTEX
8
OBJECT__13
10
0
20
0
30
0
70
128
71
11
72
5
73
12
0
VERTEX
8
OBJECT__13
10
0
20
0
30
0
70
128
71
4
72
13
73
12
0
VERTEX
8
OBJECT__13
10
0
20
0
30
0
70
128
71
14
72
15
73
13
0
VERTEX
8
OBJECT__13
10
0
20
0
30
0
70
128
71
13
72
4
73
14
0
VERTEX
8
OBJECT__13
10
0
20
0
30
0
70
128
71
12
72
5
73
4
0
VERTEX
8
OBJECT__13
10
0
20
0
30
0
70
128
71
14
72
16
73
17
0
VERTEX
8
OBJECT__13
10
0
20
0
30
0
70
128
71
16
72
8
73
18
0
VERTEX
8
OBJECT__13
10
0
20
0
30
0
70
128
71
11
72
19
73
18
0
VERTEX
8
OBJECT__13
10
0
20
0
30
0
70
128
71
18
72
8
73
11
0
VERTEX
8
OBJECT__13
10
0
20
0
30
0
70
128
71
18
72
17
73
16
0
VERTEX
8
OBJECT__13
10
0
20
0
30
0
70
128
71
20
72
21
73
22
0
VERTEX
8
OBJECT__13
10
0
20
0
30
0
70
128
71
20
72
3
73
21
0
VERTEX
8
OBJECT__13
10
0
20
0
30
0
70
128
71
23
72
24
73
25
0
VERTEX
8
OBJECT__13
10
0
20
0
30
0
70
128
71
23
72
22
73
24
0
VERTEX
8
OBJECT__13
10
0
20
0
30
0
70
128
71
26
72
27
73
28
0
VERTEX
8
OBJECT__13
10
0
20
0
30
0
70
128
71
27
72
25
73
28
0
VERTEX
8
OBJECT__13
10
0
20
0
30
0
70
128
71
29
72
26
73
30
0
VERTEX
8
OBJECT__13
10
0
20
0
30
0
70
128
71
26
72
31
73
30
0
VERTEX
8
OBJECT__13
10
0
20
0
30
0
70
128
71
32
72
33
73
34
0
VERTEX
8
OBJECT__13
10
0
20
0
30
0
70
128
71
29
72
35
73
33
0
VERTEX
8
OBJECT__13
10
0
20
0
30
0
70
128
71
33
72
32
73
29
0
VERTEX
8
OBJECT__13
10
0
20
0
30
0
70
128
71
9
72
32
73
36
0
VERTEX
8
OBJECT__13
10
0
20
0
30
0
70
128
71
36
72
37
73
9
0
VERTEX
8
OBJECT__13
10
0
20
0
30
0
70
128
71
37
72
10
73
9
0
VERTEX
8
OBJECT__13
10
0
20
0
30
0
70
128
71
34
72
36
73
32
0
VERTEX
8
OBJECT__13
10
0
20
0
30
0
70
128
71
30
72
35
73
29
0
VERTEX
8
OBJECT__13
10
0
20
0
30
0
70
128
71
28
72
31
73
26
0
VERTEX
8
OBJECT__13
10
0
20
0
30
0
70
128
71
25
72
27
73
23
0
VERTEX
8
OBJECT__13
10
0
20
0
30
0
70
128
71
22
72
23
73
20
0
VERTEX
8
OBJECT__13
10
0
20
0
30
0
70
128
71
17
72
15
73
14
0
VERTEX
8
OBJECT__13
10
0
20
0
30
0
70
128
71
12
72
19
73
11
0
VERTEX
8
OBJECT__13
10
0
20
0
30
0
70
128
71
7
72
6
73
9
0
VERTEX
8
OBJECT__13
10
0
20
0
30
0
70
128
71
8
72
16
73
6
0
VERTEX
8
OBJECT__13
10
0
20
0
30
0
70
128
71
2
72
1
73
4
0
VERTEX
8
OBJECT__13
10
0
20
0
30
0
70
128
71
3
72
20
73
1
0
SEQEND
8
OBJECT__13
0
POLYLINE
8
OBJECT__15
66
1
70
64
71
7
72
5
62
253
0
VERTEX
8
OBJECT__15
10
33.694000
20
-26.000000
30
-1.775000
70
192
0
VERTEX
8
OBJECT__15
10
34.374001
20
0.000000
30
-27.766001
70
192
0
VERTEX
8
OBJECT__15
10
34.283001
20
-13.000000
30
-24.284000
70
192
0
VERTEX
8
OBJECT__15
10
34.034000
20
22.517000
30
-14.770000
70
192
0
VERTEX
8
OBJECT__15
10
34.283001
20
13.000000
30
-24.284000
70
192
0
VERTEX
8
OBJECT__15
10
33.694000
20
26.000000
30
-1.775000
70
192
0
VERTEX
8
OBJECT__15
10
34.034000
20
-22.517000
30
-14.770000
70
192
0
VERTEX
8
OBJECT__15
10
0
20
0
30
0
70
128
71
1
72
2
73
3
0
VERTEX
8
OBJECT__15
10
0
20
0
30
0
70
128
71
1
72
4
73
5
0
VERTEX
8
OBJECT__15
10
0
20
0
30
0
70
128
71
5
72
2
73
1
0
VERTEX
8
OBJECT__15
10
0
20
0
30
0
70
128
71
1
72
6
73
4
0
VERTEX
8
OBJECT__15
10
0
20
0
30
0
70
128
71
3
72
7
73
1
0
SEQEND
8
OBJECT__15
0
POLYLINE
8
OBJECT__16
66
1
70
64
71
14
72
12
62
253
0
VERTEX
8
OBJECT__16
10
33.694000
20
-26.000000
30
-1.775000
70
192
0
VERTEX
8
OBJECT__16
10
48.974998
20
-0.043000
30
24.167999
70
192
0
VERTEX
8
OBJECT__16
10
48.543999
20
7.766000
30
23.436001
70
192
0
VERTEX
8
OBJECT__16
10
47.116001
20
-12.969000
30
21.011999
70
192
0
VERTEX
8
OBJECT__16
10
49.144001
20
-3.091000
30
24.454000
70
192
0
VERTEX
8
OBJECT__16
10
41.388000
20
-22.181999
30
11.287000
70
192
0
VERTEX
8
OBJECT__16
10
42.564999
20
-21.361000
30
13.286000
70
192
0
VERTEX
8
OBJECT__16
10
36.542999
20
-25.559999
30
3.063000
70
192
0
VERTEX
8
OBJECT__16
10
46.868999
20
12.716000
30
20.591999
70
192
0
VERTEX
8
OBJECT__16
10
45.332001
20
17.257000
30
17.983999
70
192
0
VERTEX
8
OBJECT__16
10
47.027000
20
-13.405000
30
20.860001
70
192
0
VERTEX
8
OBJECT__16
10
41.327000
20
22.176001
30
11.183000
70
192
0
VERTEX
8
OBJECT__16
10
40.074001
20
23.714001
30
9.057000
70
192
0
VERTEX
8
OBJECT__16
10
33.694000
20
26.000000
30
-1.775000
70
192
0
VERTEX
8
OBJECT__16
10
0
20
0
30
0
70
128
71
1
72
2
73
3
0
VERTEX
8
OBJECT__16
10
0
20
0
30
0
70
128
71
1
72
4
73
5
0
VERTEX
8
OBJECT__16
10
0
20
0
30
0
70
128
71
4
72
6
73
7
0
VERTEX
8
OBJECT__16
10
0
20
0
30
0
70
128
71
4
72
1
73
8
0
VERTEX
8
OBJECT__16
10
0
20
0
30
0
70
128
71
5
72
2
73
1
0
VERTEX
8
OBJECT__16
10
0
20
0
30
0
70
128
71
8
72
6
73
4
0
VERTEX
8
OBJECT__16
10
0
20
0
30
0
70
128
71
1
72
9
73
10
0
VERTEX
8
OBJECT__16
10
0
20
0
30
0
70
128
71
7
72
11
73
4
0
VERTEX
8
OBJECT__16
10
0
20
0
30
0
70
128
71
1
72
12
73
13
0
VERTEX
8
OBJECT__16
10
0
20
0
30
0
70
128
71
3
72
9
73
1
0
VERTEX
8
OBJECT__16
10
0
20
0
30
0
70
128
71
10
72
12
73
1
0
VERTEX
8
OBJECT__16
10
0
20
0
30
0
70
128
71
13
72
14
73
1
0
SEQEND
8
OBJECT__16
0
POLYLINE
8
OBJECT__17
66
1
70
64
71
4
72
2
62
253
0
VERTEX
8
OBJECT__17
10
56.817001
20
-9.800000
30
-25.260000
70
192
0
VERTEX
8
OBJECT__17
10
58.515999
20
-9.800000
30
-90.154999
70
192
0
VERTEX
8
OBJECT__17
10
66.013000
20
-9.800000
30
-89.959000
70
192
0
VERTEX
8
OBJECT__17
10
64.314003
20
-9.800000
30
-25.063000
70
192
0
VERTEX
8
OBJECT__17
10
0
20
0
30
0
70
128
71
1
72
2
73
3
0
VERTEX
8
OBJECT__17
10
0
20
0
30
0
70
128
71
3
72
4
73
1
0
SEQEND
8
OBJECT__17
0
POLYLINE
8
OBJECT__18
66
1
70
64
71
4
72
2
62
253
0
VERTEX
8
OBJECT__18
10
58.515999
20
9.800000
30
-90.154999
70
192
0
VERTEX
8
OBJECT__18
10
66.013000
20
9.800000
30
-89.959000
70
192
0
VERTEX
8
OBJECT__18
10
66.013000
20
-9.800000
30
-89.959000
70
192
0
VERTEX
8
OBJECT__18
10
58.515999
20
-9.800000
30
-90.154999
70
192
0
VERTEX
8
OBJECT__18
10
0
20
0
30
0
70
128
71
1
72
2
73
3
0
VERTEX
8
OBJECT__18
10
0
20
0
30
0
70
128
71
3
72
4
73
1
0
SEQEND
8
OBJECT__18
0
POLYLINE
8
OBJECT__19
66
1
70
64
71
4
72
2
62
253
0
VERTEX
8
OBJECT__19
10
58.515999
20
9.800000
30
-90.154999
70
192
0
VERTEX
8
OBJECT__19
10
56.817001
20
9.800000
30
-25.260000
70
192
0
VERTEX
8
OBJECT__19
10
64.314003
20
9.800000
30
-25.063000
70
192
0
VERTEX
8
OBJECT__19
10
66.013000
20
9.800000
30
-89.959000
70
192
0
VERTEX
8
OBJECT__19
10
0
20
0
30
0
70
128
71
1
72
2
73
3
0
VERTEX
8
OBJECT__19
10
0
20
0
30
0
70
128
71
3
72
4
73
1
0
SEQEND
8
OBJECT__19
0
POLYLINE
8
OBJECT__20
66
1
70
64
71
5
72
3
62
253
0
VERTEX
8
OBJECT__20
10
58.515999
20
9.800000
30
-90.154999
70
192
0
VERTEX
8
OBJECT__20
10
58.515999
20
-9.800000
30
-90.154999
70
192
0
VERTEX
8
OBJECT__20
10
56.867001
20
0.000000
30
-27.177000
70
192
0
VERTEX
8
OBJECT__20
10
56.817001
20
-9.800000
30
-25.260000
70
192
0
VERTEX
8
OBJECT__20
10
56.817001
20
9.800000
30
-25.260000
70
192
0
VERTEX
8
OBJECT__20
10
0
20
0
30
0
70
128
71
1
72
2
73
3
0
VERTEX
8
OBJECT__20
10
0
20
0
30
0
70
128
71
2
72
4
73
3
0
VERTEX
8
OBJECT__20
10
0
20
0
30
0
70
128
71
3
72
5
73
1
0
SEQEND
8
OBJECT__20
0
POLYLINE
8
OBJECT__21
66
1
70
64
71
5
72
3
62
253
0
VERTEX
8
OBJECT__21
10
66.013000
20
9.800000
30
-89.959000
70
192
0
VERTEX
8
OBJECT__21
10
64.314003
20
9.800000
30
-25.063000
70
192
0
VERTEX
8
OBJECT__21
10
64.363998
20
0.000000
30
-26.980000
70
192
0
VERTEX
8
OBJECT__21
10
66.013000
20
-9.800000
30
-89.959000
70
192
0
VERTEX
8
OBJECT__21
10
64.314003
20
-9.800000
30
-25.063000
70
192
0
VERTEX
8
OBJECT__21
10
0
20
0
30
0
70
128
71
1
72
2
73
3
0
VERTEX
8
OBJECT__21
10
0
20
0
30
0
70
128
71
3
72
4
73
1
0
VERTEX
8
OBJECT__21
10
0
20
0
30
0
70
128
71
3
72
5
73
4
0
SEQEND
8
OBJECT__21
0
ENDSEC
0
EOF
