999
Converted by 3D Exploration 
999
XDimension Software, LLC
999
http://www.xdsoft.com/explorer/
0
SECTION
2
HEADER
9
$ACADVER
1
AC1008
9
$UCSORG
10
0.0
20
0.0
30
0.0
9
$UCSXDIR
10
1.0
20
0.0
30
0.0
9
$TILEMODE
70
1
9
$UCSYDIR
10
0.0
20
1.0
30
0.0
9
$EXTMIN
10
-57.708000
20
-219.944000
30
-219.944000
9
$EXTMAX
10
162.197998
20
219.944000
30
184.011993
0
ENDSEC
0
SECTION
2
TABLES
0
TABLE
2
LTYPE
70
1
0
LTYPE
2
CONTINUOUS
70
64
3
Solid line
72
65
73
0
40
0.0
0
ENDTAB
0
TABLE
2
LAYER
70
121
0
LAYER
2
OBJECT__0
70
0
62
253
6
CONTINUOUS
0
LAYER
2
OBJECT__1
70
0
62
253
6
CONTINUOUS
0
LAYER
2
OBJECT__3
70
0
62
253
6
CONTINUOUS
0
LAYER
2
OBJECT__4
70
0
62
253
6
CONTINUOUS
0
LAYER
2
OBJECT__5
70
0
62
253
6
CONTINUOUS
0
LAYER
2
OBJECT__6
70
0
62
253
6
CONTINUOUS
0
LAYER
2
OBJECT__7
70
0
62
253
6
CONTINUOUS
0
LAYER
2
OBJECT__8
70
0
62
253
6
CONTINUOUS
0
LAYER
2
OBJECT__9
70
0
62
253
6
CONTINUOUS
0
LAYER
2
OBJECT__10
70
0
62
253
6
CONTINUOUS
0
LAYER
2
OBJECT__11
70
0
62
253
6
CONTINUOUS
0
LAYER
2
OBJECT__12
70
0
62
253
6
CONTINUOUS
0
LAYER
2
OBJECT__13
70
0
62
253
6
CONTINUOUS
0
LAYER
2
OBJECT__14
70
0
62
253
6
CONTINUOUS
0
LAYER
2
OBJECT__15
70
0
62
253
6
CONTINUOUS
0
LAYER
2
OBJECT__17
70
0
62
253
6
CONTINUOUS
0
LAYER
2
OBJECT__18
70
0
62
253
6
CONTINUOUS
0
LAYER
2
OBJECT__19
70
0
62
253
6
CONTINUOUS
0
LAYER
2
OBJECT__20
70
0
62
253
6
CONTINUOUS
0
LAYER
2
OBJECT__21
70
0
62
253
6
CONTINUOUS
0
LAYER
2
OBJECT__22
70
0
62
253
6
CONTINUOUS
0
LAYER
2
OBJECT__23
70
0
62
253
6
CONTINUOUS
0
LAYER
2
OBJECT__24
70
0
62
253
6
CONTINUOUS
0
LAYER
2
OBJECT__25
70
0
62
253
6
CONTINUOUS
0
LAYER
2
OBJECT__26
70
0
62
253
6
CONTINUOUS
0
LAYER
2
OBJECT__27
70
0
62
253
6
CONTINUOUS
0
LAYER
2
OBJECT__28
70
0
62
253
6
CONTINUOUS
0
LAYER
2
OBJECT__29
70
0
62
253
6
CONTINUOUS
0
LAYER
2
OBJECT__30
70
0
62
253
6
CONTINUOUS
0
LAYER
2
OBJECT__31
70
0
62
253
6
CONTINUOUS
0
LAYER
2
OBJECT__32
70
0
62
253
6
CONTINUOUS
0
LAYER
2
OBJECT__33
70
0
62
253
6
CONTINUOUS
0
LAYER
2
OBJECT__34
70
0
62
253
6
CONTINUOUS
0
LAYER
2
OBJECT__35
70
0
62
253
6
CONTINUOUS
0
LAYER
2
OBJECT__36
70
0
62
253
6
CONTINUOUS
0
LAYER
2
OBJECT__37
70
0
62
253
6
CONTINUOUS
0
LAYER
2
OBJECT__38
70
0
62
253
6
CONTINUOUS
0
LAYER
2
OBJECT__39
70
0
62
253
6
CONTINUOUS
0
LAYER
2
OBJECT__40
70
0
62
253
6
CONTINUOUS
0
LAYER
2
OBJECT__41
70
0
62
253
6
CONTINUOUS
0
LAYER
2
OBJECT__42
70
0
62
253
6
CONTINUOUS
0
LAYER
2
OBJECT__43
70
0
62
253
6
CONTINUOUS
0
LAYER
2
OBJECT__44
70
0
62
253
6
CONTINUOUS
0
LAYER
2
OBJECT__45
70
0
62
253
6
CONTINUOUS
0
LAYER
2
OBJECT__46
70
0
62
253
6
CONTINUOUS
0
LAYER
2
OBJECT__47
70
0
62
253
6
CONTINUOUS
0
LAYER
2
OBJECT__48
70
0
62
253
6
CONTINUOUS
0
LAYER
2
OBJECT__49
70
0
62
253
6
CONTINUOUS
0
LAYER
2
OBJECT__50
70
0
62
253
6
CONTINUOUS
0
LAYER
2
OBJECT__51
70
0
62
253
6
CONTINUOUS
0
LAYER
2
OBJECT__52
70
0
62
253
6
CONTINUOUS
0
LAYER
2
OBJECT__53
70
0
62
253
6
CONTINUOUS
0
LAYER
2
OBJECT__54
70
0
62
253
6
CONTINUOUS
0
LAYER
2
OBJECT__55
70
0
62
253
6
CONTINUOUS
0
LAYER
2
OBJECT__56
70
0
62
253
6
CONTINUOUS
0
LAYER
2
OBJECT__57
70
0
62
253
6
CONTINUOUS
0
LAYER
2
OBJECT__58
70
0
62
253
6
CONTINUOUS
0
LAYER
2
OBJECT__59
70
0
62
253
6
CONTINUOUS
0
LAYER
2
OBJECT__60
70
0
62
253
6
CONTINUOUS
0
LAYER
2
OBJECT__61
70
0
62
253
6
CONTINUOUS
0
LAYER
2
OBJECT__62
70
0
62
253
6
CONTINUOUS
0
LAYER
2
OBJECT__63
70
0
62
253
6
CONTINUOUS
0
LAYER
2
OBJECT__64
70
0
62
253
6
CONTINUOUS
0
LAYER
2
OBJECT__65
70
0
62
253
6
CONTINUOUS
0
LAYER
2
OBJECT__66
70
0
62
253
6
CONTINUOUS
0
LAYER
2
OBJECT__67
70
0
62
253
6
CONTINUOUS
0
LAYER
2
OBJECT__68
70
0
62
253
6
CONTINUOUS
0
LAYER
2
OBJECT__69
70
0
62
253
6
CONTINUOUS
0
LAYER
2
OBJECT__70
70
0
62
253
6
CONTINUOUS
0
LAYER
2
OBJECT__71
70
0
62
253
6
CONTINUOUS
0
LAYER
2
OBJECT__72
70
0
62
253
6
CONTINUOUS
0
LAYER
2
OBJECT__73
70
0
62
253
6
CONTINUOUS
0
LAYER
2
OBJECT__74
70
0
62
253
6
CONTINUOUS
0
LAYER
2
OBJECT__75
70
0
62
253
6
CONTINUOUS
0
LAYER
2
OBJECT__76
70
0
62
253
6
CONTINUOUS
0
LAYER
2
OBJECT__77
70
0
62
253
6
CONTINUOUS
0
LAYER
2
OBJECT__78
70
0
62
253
6
CONTINUOUS
0
LAYER
2
OBJECT__79
70
0
62
253
6
CONTINUOUS
0
LAYER
2
OBJECT__80
70
0
62
253
6
CONTINUOUS
0
LAYER
2
OBJECT__81
70
0
62
253
6
CONTINUOUS
0
LAYER
2
OBJECT__82
70
0
62
253
6
CONTINUOUS
0
LAYER
2
OBJECT__83
70
0
62
253
6
CONTINUOUS
0
LAYER
2
OBJECT__84
70
0
62
253
6
CONTINUOUS
0
LAYER
2
OBJECT__85
70
0
62
253
6
CONTINUOUS
0
LAYER
2
OBJECT__86
70
0
62
253
6
CONTINUOUS
0
LAYER
2
OBJECT__87
70
0
62
253
6
CONTINUOUS
0
LAYER
2
OBJECT__88
70
0
62
253
6
CONTINUOUS
0
LAYER
2
OBJECT__89
70
0
62
253
6
CONTINUOUS
0
LAYER
2
OBJECT__90
70
0
62
253
6
CONTINUOUS
0
LAYER
2
OBJECT__91
70
0
62
253
6
CONTINUOUS
0
LAYER
2
OBJECT__92
70
0
62
253
6
CONTINUOUS
0
LAYER
2
OBJECT__93
70
0
62
253
6
CONTINUOUS
0
LAYER
2
OBJECT__94
70
0
62
253
6
CONTINUOUS
0
LAYER
2
OBJECT__95
70
0
62
253
6
CONTINUOUS
0
LAYER
2
OBJECT__96
70
0
62
253
6
CONTINUOUS
0
LAYER
2
OBJECT__97
70
0
62
253
6
CONTINUOUS
0
LAYER
2
OBJECT__98
70
0
62
253
6
CONTINUOUS
0
LAYER
2
OBJECT__99
70
0
62
253
6
CONTINUOUS
0
LAYER
2
OBJECT__100
70
0
62
253
6
CONTINUOUS
0
LAYER
2
OBJECT__101
70
0
62
253
6
CONTINUOUS
0
LAYER
2
OBJECT__102
70
0
62
253
6
CONTINUOUS
0
LAYER
2
OBJECT__103
70
0
62
253
6
CONTINUOUS
0
LAYER
2
OBJECT__104
70
0
62
253
6
CONTINUOUS
0
LAYER
2
OBJECT__105
70
0
62
253
6
CONTINUOUS
0
LAYER
2
OBJECT__106
70
0
62
253
6
CONTINUOUS
0
LAYER
2
OBJECT__107
70
0
62
253
6
CONTINUOUS
0
LAYER
2
OBJECT__108
70
0
62
253
6
CONTINUOUS
0
LAYER
2
OBJECT__109
70
0
62
253
6
CONTINUOUS
0
LAYER
2
OBJECT__110
70
0
62
253
6
CONTINUOUS
0
LAYER
2
OBJECT__111
70
0
62
253
6
CONTINUOUS
0
LAYER
2
OBJECT__112
70
0
62
253
6
CONTINUOUS
0
LAYER
2
OBJECT__113
70
0
62
253
6
CONTINUOUS
0
LAYER
2
OBJECT__114
70
0
62
253
6
CONTINUOUS
0
LAYER
2
OBJECT__115
70
0
62
253
6
CONTINUOUS
0
LAYER
2
OBJECT__116
70
0
62
253
6
CONTINUOUS
0
LAYER
2
OBJECT__117
70
0
62
253
6
CONTINUOUS
0
LAYER
2
OBJECT__118
70
0
62
253
6
CONTINUOUS
0
LAYER
2
OBJECT__119
70
0
62
253
6
CONTINUOUS
0
LAYER
2
OBJECT__120
70
0
62
253
6
CONTINUOUS
0
ENDTAB
0
TABLE
2
STYLE
70
1
0
STYLE
2
STANDARD
70
0
40
0.0
41
1.0
50
0.0
71
0
42
0.2
3
txt
4
1
0
ENDTAB
0
TABLE
2
UCS
70
0
0
ENDTAB
0
ENDSEC
0
SECTION
2
ENTITIES
0
POLYLINE
8
OBJECT__0
66
1
70
64
71
4
72
2
62
253
0
VERTEX
8
OBJECT__0
10
59.198002
20
-80.000000
30
6.012000
70
192
0
VERTEX
8
OBJECT__0
10
59.198002
20
-89.000000
30
15.012000
70
192
0
VERTEX
8
OBJECT__0
10
58.198002
20
-89.000000
30
15.012000
70
192
0
VERTEX
8
OBJECT__0
10
58.198002
20
-80.000000
30
6.012000
70
192
0
VERTEX
8
OBJECT__0
10
0
20
0
30
0
70
128
71
1
72
2
73
3
0
VERTEX
8
OBJECT__0
10
0
20
0
30
0
70
128
71
3
72
4
73
1
0
SEQEND
8
OBJECT__0
0
POLYLINE
8
OBJECT__1
66
1
70
64
71
4
72
2
62
253
0
VERTEX
8
OBJECT__1
10
58.198002
20
-89.000000
30
176.011993
70
192
0
VERTEX
8
OBJECT__1
10
58.198002
20
-89.000000
30
15.012000
70
192
0
VERTEX
8
OBJECT__1
10
59.198002
20
-89.000000
30
15.012000
70
192
0
VERTEX
8
OBJECT__1
10
59.198002
20
-89.000000
30
176.011993
70
192
0
VERTEX
8
OBJECT__1
10
0
20
0
30
0
70
128
71
1
72
2
73
3
0
VERTEX
8
OBJECT__1
10
0
20
0
30
0
70
128
71
3
72
4
73
1
0
SEQEND
8
OBJECT__1
0
POLYLINE
8
OBJECT__3
66
1
70
64
71
6
72
4
62
253
0
VERTEX
8
OBJECT__3
10
59.198002
20
-86.656998
30
181.669006
70
192
0
VERTEX
8
OBJECT__3
10
58.198002
20
-86.656998
30
181.669006
70
192
0
VERTEX
8
OBJECT__3
10
58.198002
20
-89.000000
30
176.011993
70
192
0
VERTEX
8
OBJECT__3
10
59.198002
20
-81.000000
30
184.011993
70
192
0
VERTEX
8
OBJECT__3
10
58.198002
20
-81.000000
30
184.011993
70
192
0
VERTEX
8
OBJECT__3
10
59.198002
20
-89.000000
30
176.011993
70
192
0
VERTEX
8
OBJECT__3
10
0
20
0
30
0
70
128
71
1
72
2
73
3
0
VERTEX
8
OBJECT__3
10
0
20
0
30
0
70
128
71
4
72
5
73
2
0
VERTEX
8
OBJECT__3
10
0
20
0
30
0
70
128
71
2
72
1
73
4
0
VERTEX
8
OBJECT__3
10
0
20
0
30
0
70
128
71
3
72
6
73
1
0
SEQEND
8
OBJECT__3
0
POLYLINE
8
OBJECT__4
66
1
70
64
71
7
72
5
62
253
0
VERTEX
8
OBJECT__4
10
59.198002
20
-68.000000
30
6.012000
70
192
0
VERTEX
8
OBJECT__4
10
59.198002
20
-81.000000
30
184.011993
70
192
0
VERTEX
8
OBJECT__4
10
59.198002
20
-89.000000
30
176.011993
70
192
0
VERTEX
8
OBJECT__4
10
59.198002
20
-89.000000
30
15.012000
70
192
0
VERTEX
8
OBJECT__4
10
59.198002
20
-86.656998
30
181.669006
70
192
0
VERTEX
8
OBJECT__4
10
59.198002
20
-68.000000
30
184.011993
70
192
0
VERTEX
8
OBJECT__4
10
59.198002
20
-80.000000
30
6.012000
70
192
0
VERTEX
8
OBJECT__4
10
0
20
0
30
0
70
128
71
1
72
2
73
3
0
VERTEX
8
OBJECT__4
10
0
20
0
30
0
70
128
71
3
72
4
73
1
0
VERTEX
8
OBJECT__4
10
0
20
0
30
0
70
128
71
2
72
5
73
3
0
VERTEX
8
OBJECT__4
10
0
20
0
30
0
70
128
71
1
72
6
73
2
0
VERTEX
8
OBJECT__4
10
0
20
0
30
0
70
128
71
4
72
7
73
1
0
SEQEND
8
OBJECT__4
0
POLYLINE
8
OBJECT__5
66
1
70
64
71
4
72
2
62
253
0
VERTEX
8
OBJECT__5
10
59.198002
20
-68.000000
30
184.011993
70
192
0
VERTEX
8
OBJECT__5
10
59.198002
20
-68.000000
30
6.012000
70
192
0
VERTEX
8
OBJECT__5
10
162.197998
20
-68.000000
30
6.012000
70
192
0
VERTEX
8
OBJECT__5
10
162.197998
20
-68.000000
30
184.011993
70
192
0
VERTEX
8
OBJECT__5
10
0
20
0
30
0
70
128
71
1
72
2
73
3
0
VERTEX
8
OBJECT__5
10
0
20
0
30
0
70
128
71
3
72
4
73
1
0
SEQEND
8
OBJECT__5
0
POLYLINE
8
OBJECT__6
66
1
70
64
71
4
72
2
62
253
0
VERTEX
8
OBJECT__6
10
162.197998
20
-68.000000
30
184.011993
70
192
0
VERTEX
8
OBJECT__6
10
162.197998
20
-68.000000
30
6.012000
70
192
0
VERTEX
8
OBJECT__6
10
162.197998
20
68.000000
30
6.012000
70
192
0
VERTEX
8
OBJECT__6
10
162.197998
20
68.000000
30
184.011993
70
192
0
VERTEX
8
OBJECT__6
10
0
20
0
30
0
70
128
71
1
72
2
73
3
0
VERTEX
8
OBJECT__6
10
0
20
0
30
0
70
128
71
3
72
4
73
1
0
SEQEND
8
OBJECT__6
0
POLYLINE
8
OBJECT__7
66
1
70
64
71
4
72
2
62
253
0
VERTEX
8
OBJECT__7
10
59.198002
20
68.000000
30
6.012000
70
192
0
VERTEX
8
OBJECT__7
10
59.198002
20
68.000000
30
184.011993
70
192
0
VERTEX
8
OBJECT__7
10
162.197998
20
68.000000
30
184.011993
70
192
0
VERTEX
8
OBJECT__7
10
162.197998
20
68.000000
30
6.012000
70
192
0
VERTEX
8
OBJECT__7
10
0
20
0
30
0
70
128
71
1
72
2
73
3
0
VERTEX
8
OBJECT__7
10
0
20
0
30
0
70
128
71
3
72
4
73
1
0
SEQEND
8
OBJECT__7
0
POLYLINE
8
OBJECT__8
66
1
70
64
71
8
72
6
62
253
0
VERTEX
8
OBJECT__8
10
162.197998
20
68.000000
30
184.011993
70
192
0
VERTEX
8
OBJECT__8
10
59.198002
20
68.000000
30
184.011993
70
192
0
VERTEX
8
OBJECT__8
10
59.198002
20
-68.000000
30
184.011993
70
192
0
VERTEX
8
OBJECT__8
10
58.198002
20
-81.000000
30
184.011993
70
192
0
VERTEX
8
OBJECT__8
10
59.198002
20
-81.000000
30
184.011993
70
192
0
VERTEX
8
OBJECT__8
10
58.198002
20
81.000000
30
184.011993
70
192
0
VERTEX
8
OBJECT__8
10
162.197998
20
-68.000000
30
184.011993
70
192
0
VERTEX
8
OBJECT__8
10
59.198002
20
81.000000
30
184.011993
70
192
0
VERTEX
8
OBJECT__8
10
0
20
0
30
0
70
128
71
1
72
2
73
3
0
VERTEX
8
OBJECT__8
10
0
20
0
30
0
70
128
71
4
72
5
73
3
0
VERTEX
8
OBJECT__8
10
0
20
0
30
0
70
128
71
6
72
4
73
2
0
VERTEX
8
OBJECT__8
10
0
20
0
30
0
70
128
71
3
72
2
73
4
0
VERTEX
8
OBJECT__8
10
0
20
0
30
0
70
128
71
3
72
7
73
1
0
VERTEX
8
OBJECT__8
10
0
20
0
30
0
70
128
71
2
72
8
73
6
0
SEQEND
8
OBJECT__8
0
POLYLINE
8
OBJECT__9
66
1
70
64
71
8
72
6
62
253
0
VERTEX
8
OBJECT__9
10
58.198002
20
-80.000000
30
6.012000
70
192
0
VERTEX
8
OBJECT__9
10
59.198002
20
68.000000
30
6.012000
70
192
0
VERTEX
8
OBJECT__9
10
59.198002
20
-68.000000
30
6.012000
70
192
0
VERTEX
8
OBJECT__9
10
162.197998
20
-68.000000
30
6.012000
70
192
0
VERTEX
8
OBJECT__9
10
162.197998
20
68.000000
30
6.012000
70
192
0
VERTEX
8
OBJECT__9
10
58.198002
20
80.000000
30
6.012000
70
192
0
VERTEX
8
OBJECT__9
10
59.198002
20
80.000000
30
6.012000
70
192
0
VERTEX
8
OBJECT__9
10
59.198002
20
-80.000000
30
6.012000
70
192
0
VERTEX
8
OBJECT__9
10
0
20
0
30
0
70
128
71
1
72
2
73
3
0
VERTEX
8
OBJECT__9
10
0
20
0
30
0
70
128
71
4
72
3
73
2
0
VERTEX
8
OBJECT__9
10
0
20
0
30
0
70
128
71
2
72
5
73
4
0
VERTEX
8
OBJECT__9
10
0
20
0
30
0
70
128
71
6
72
7
73
2
0
VERTEX
8
OBJECT__9
10
0
20
0
30
0
70
128
71
2
72
1
73
6
0
VERTEX
8
OBJECT__9
10
0
20
0
30
0
70
128
71
3
72
8
73
1
0
SEQEND
8
OBJECT__9
0
POLYLINE
8
OBJECT__10
66
1
70
64
71
7
72
5
62
253
0
VERTEX
8
OBJECT__10
10
59.198002
20
68.000000
30
6.012000
70
192
0
VERTEX
8
OBJECT__10
10
59.198002
20
89.000000
30
15.012000
70
192
0
VERTEX
8
OBJECT__10
10
59.198002
20
89.000000
30
176.011993
70
192
0
VERTEX
8
OBJECT__10
10
59.198002
20
80.000000
30
6.012000
70
192
0
VERTEX
8
OBJECT__10
10
59.198002
20
81.000000
30
184.011993
70
192
0
VERTEX
8
OBJECT__10
10
59.198002
20
86.656998
30
181.669006
70
192
0
VERTEX
8
OBJECT__10
10
59.198002
20
68.000000
30
184.011993
70
192
0
VERTEX
8
OBJECT__10
10
0
20
0
30
0
70
128
71
1
72
2
73
3
0
VERTEX
8
OBJECT__10
10
0
20
0
30
0
70
128
71
1
72
4
73
2
0
VERTEX
8
OBJECT__10
10
0
20
0
30
0
70
128
71
3
72
5
73
1
0
VERTEX
8
OBJECT__10
10
0
20
0
30
0
70
128
71
3
72
6
73
5
0
VERTEX
8
OBJECT__10
10
0
20
0
30
0
70
128
71
5
72
7
73
1
0
SEQEND
8
OBJECT__10
0
POLYLINE
8
OBJECT__11
66
1
70
64
71
4
72
2
62
253
0
VERTEX
8
OBJECT__11
10
59.198002
20
80.000000
30
6.012000
70
192
0
VERTEX
8
OBJECT__11
10
58.198002
20
80.000000
30
6.012000
70
192
0
VERTEX
8
OBJECT__11
10
58.198002
20
89.000000
30
15.012000
70
192
0
VERTEX
8
OBJECT__11
10
59.198002
20
89.000000
30
15.012000
70
192
0
VERTEX
8
OBJECT__11
10
0
20
0
30
0
70
128
71
1
72
2
73
3
0
VERTEX
8
OBJECT__11
10
0
20
0
30
0
70
128
71
3
72
4
73
1
0
SEQEND
8
OBJECT__11
0
POLYLINE
8
OBJECT__12
66
1
70
64
71
6
72
4
62
253
0
VERTEX
8
OBJECT__12
10
59.198002
20
86.656998
30
181.669006
70
192
0
VERTEX
8
OBJECT__12
10
58.198002
20
86.656998
30
181.669006
70
192
0
VERTEX
8
OBJECT__12
10
58.198002
20
81.000000
30
184.011993
70
192
0
VERTEX
8
OBJECT__12
10
59.198002
20
89.000000
30
176.011993
70
192
0
VERTEX
8
OBJECT__12
10
58.198002
20
89.000000
30
176.011993
70
192
0
VERTEX
8
OBJECT__12
10
59.198002
20
81.000000
30
184.011993
70
192
0
VERTEX
8
OBJECT__12
10
0
20
0
30
0
70
128
71
1
72
2
73
3
0
VERTEX
8
OBJECT__12
10
0
20
0
30
0
70
128
71
4
72
5
73
2
0
VERTEX
8
OBJECT__12
10
0
20
0
30
0
70
128
71
2
72
1
73
4
0
VERTEX
8
OBJECT__12
10
0
20
0
30
0
70
128
71
3
72
6
73
1
0
SEQEND
8
OBJECT__12
0
POLYLINE
8
OBJECT__13
66
1
70
64
71
4
72
2
62
253
0
VERTEX
8
OBJECT__13
10
58.198002
20
89.000000
30
176.011993
70
192
0
VERTEX
8
OBJECT__13
10
59.198002
20
89.000000
30
176.011993
70
192
0
VERTEX
8
OBJECT__13
10
59.198002
20
89.000000
30
15.012000
70
192
0
VERTEX
8
OBJECT__13
10
58.198002
20
89.000000
30
15.012000
70
192
0
VERTEX
8
OBJECT__13
10
0
20
0
30
0
70
128
71
1
72
2
73
3
0
VERTEX
8
OBJECT__13
10
0
20
0
30
0
70
128
71
3
72
4
73
1
0
SEQEND
8
OBJECT__13
0
POLYLINE
8
OBJECT__14
66
1
70
64
71
8
72
6
62
253
0
VERTEX
8
OBJECT__14
10
43.500000
20
0.000000
30
-700.000000
70
192
0
VERTEX
8
OBJECT__14
10
-30.759001
20
30.759001
30
-700.000000
70
192
0
VERTEX
8
OBJECT__14
10
0.000000
20
43.500000
30
-700.000000
70
192
0
VERTEX
8
OBJECT__14
10
-43.500000
20
0.000000
30
-700.000000
70
192
0
VERTEX
8
OBJECT__14
10
30.759001
20
-30.759001
30
-700.000000
70
192
0
VERTEX
8
OBJECT__14
10
0.000000
20
-43.500000
30
-700.000000
70
192
0
VERTEX
8
OBJECT__14
10
-30.759001
20
-30.759001
30
-700.000000
70
192
0
VERTEX
8
OBJECT__14
10
30.759001
20
30.759001
30
-700.000000
70
192
0
VERTEX
8
OBJECT__14
10
0
20
0
30
0
70
128
71
1
72
2
73
3
0
VERTEX
8
OBJECT__14
10
0
20
0
30
0
70
128
71
4
72
5
73
6
0
VERTEX
8
OBJECT__14
10
0
20
0
30
0
70
128
71
1
72
4
73
2
0
VERTEX
8
OBJECT__14
10
0
20
0
30
0
70
128
71
4
72
1
73
5
0
VERTEX
8
OBJECT__14
10
0
20
0
30
0
70
128
71
6
72
7
73
4
0
VERTEX
8
OBJECT__14
10
0
20
0
30
0
70
128
71
3
72
8
73
1
0
SEQEND
8
OBJECT__14
0
POLYLINE
8
OBJECT__15
66
1
70
64
71
38
72
40
62
253
0
VERTEX
8
OBJECT__15
10
-30.759001
20
30.759001
30
-360.000000
70
192
0
VERTEX
8
OBJECT__15
10
0.000000
20
43.500000
30
-360.000000
70
192
0
VERTEX
8
OBJECT__15
10
0.000000
20
43.500000
30
-640.000000
70
192
0
VERTEX
8
OBJECT__15
10
-30.759001
20
30.759001
30
-700.000000
70
192
0
VERTEX
8
OBJECT__15
10
-43.500000
20
0.000000
30
-700.000000
70
192
0
VERTEX
8
OBJECT__15
10
-43.500000
20
0.000000
30
-360.000000
70
192
0
VERTEX
8
OBJECT__15
10
-34.488998
20
26.509001
30
-360.000000
70
192
0
VERTEX
8
OBJECT__15
10
-30.759001
20
-30.759001
30
-700.000000
70
192
0
VERTEX
8
OBJECT__15
10
-34.488998
20
-26.509001
30
-360.000000
70
192
0
VERTEX
8
OBJECT__15
10
-30.759001
20
-30.759001
30
-360.000000
70
192
0
VERTEX
8
OBJECT__15
10
0.000000
20
-43.500000
30
-640.000000
70
192
0
VERTEX
8
OBJECT__15
10
0.000000
20
-43.500000
30
-700.000000
70
192
0
VERTEX
8
OBJECT__15
10
0.000000
20
-43.500000
30
-360.000000
70
192
0
VERTEX
8
OBJECT__15
10
14.919000
20
-40.862000
30
-625.080994
70
192
0
VERTEX
8
OBJECT__15
10
30.059999
20
-29.840000
30
-609.940002
70
192
0
VERTEX
8
OBJECT__15
10
43.500000
20
0.000000
30
-360.000000
70
192
0
VERTEX
8
OBJECT__15
10
34.488998
20
-26.509001
30
-360.000000
70
192
0
VERTEX
8
OBJECT__15
10
43.264000
20
-4.521000
30
-596.736023
70
192
0
VERTEX
8
OBJECT__15
10
30.759001
20
-30.759001
30
-360.000000
70
192
0
VERTEX
8
OBJECT__15
10
34.299999
20
-26.754000
30
-605.700012
70
192
0
VERTEX
8
OBJECT__15
10
34.488998
20
26.509001
30
-360.000000
70
192
0
VERTEX
8
OBJECT__15
10
42.495998
20
-0.176000
30
-597.504028
70
192
0
VERTEX
8
OBJECT__15
10
39.090000
20
19.084999
30
-600.909973
70
192
0
VERTEX
8
OBJECT__15
10
30.759001
20
30.759001
30
-360.000000
70
192
0
VERTEX
8
OBJECT__15
10
29.558001
20
29.665001
30
-610.442017
70
192
0
VERTEX
8
OBJECT__15
10
23.044001
20
36.895000
30
-616.955994
70
192
0
VERTEX
8
OBJECT__15
10
0.000000
20
43.500000
30
-700.000000
70
192
0
VERTEX
8
OBJECT__15
10
14.919000
20
40.862000
30
-654.919006
70
192
0
VERTEX
8
OBJECT__15
10
30.059999
20
29.840000
30
-670.059998
70
192
0
VERTEX
8
OBJECT__15
10
30.759001
20
30.759001
30
-700.000000
70
192
0
VERTEX
8
OBJECT__15
10
34.299999
20
26.754000
30
-674.299988
70
192
0
VERTEX
8
OBJECT__15
10
43.264000
20
4.521000
30
-683.263977
70
192
0
VERTEX
8
OBJECT__15
10
43.500000
20
0.000000
30
-700.000000
70
192
0
VERTEX
8
OBJECT__15
10
42.495998
20
0.176000
30
-682.495972
70
192
0
VERTEX
8
OBJECT__15
10
39.090000
20
-19.084999
30
-679.090027
70
192
0
VERTEX
8
OBJECT__15
10
30.759001
20
-30.759001
30
-700.000000
70
192
0
VERTEX
8
OBJECT__15
10
29.558001
20
-29.665001
30
-669.557983
70
192
0
VERTEX
8
OBJECT__15
10
23.044001
20
-36.895000
30
-663.044006
70
192
0
VERTEX
8
OBJECT__15
10
0
20
0
30
0
70
128
71
1
72
2
73
3
0
VERTEX
8
OBJECT__15
10
0
20
0
30
0
70
128
71
3
72
4
73
1
0
VERTEX
8
OBJECT__15
10
0
20
0
30
0
70
128
71
5
72
6
73
7
0
VERTEX
8
OBJECT__15
10
0
20
0
30
0
70
128
71
7
72
4
73
5
0
VERTEX
8
OBJECT__15
10
0
20
0
30
0
70
128
71
5
72
8
73
9
0
VERTEX
8
OBJECT__15
10
0
20
0
30
0
70
128
71
8
72
10
73
9
0
VERTEX
8
OBJECT__15
10
0
20
0
30
0
70
128
71
10
72
8
73
11
0
VERTEX
8
OBJECT__15
10
0
20
0
30
0
70
128
71
8
72
12
73
11
0
VERTEX
8
OBJECT__15
10
0
20
0
30
0
70
128
71
13
72
14
73
15
0
VERTEX
8
OBJECT__15
10
0
20
0
30
0
70
128
71
13
72
11
73
14
0
VERTEX
8
OBJECT__15
10
0
20
0
30
0
70
128
71
16
72
17
73
18
0
VERTEX
8
OBJECT__15
10
0
20
0
30
0
70
128
71
19
72
20
73
18
0
VERTEX
8
OBJECT__15
10
0
20
0
30
0
70
128
71
19
72
15
73
20
0
VERTEX
8
OBJECT__15
10
0
20
0
30
0
70
128
71
18
72
17
73
19
0
VERTEX
8
OBJECT__15
10
0
20
0
30
0
70
128
71
21
72
16
73
22
0
VERTEX
8
OBJECT__15
10
0
20
0
30
0
70
128
71
23
72
24
73
21
0
VERTEX
8
OBJECT__15
10
0
20
0
30
0
70
128
71
22
72
23
73
21
0
VERTEX
8
OBJECT__15
10
0
20
0
30
0
70
128
71
2
72
24
73
25
0
VERTEX
8
OBJECT__15
10
0
20
0
30
0
70
128
71
25
72
26
73
2
0
VERTEX
8
OBJECT__15
10
0
20
0
30
0
70
128
71
27
72
28
73
29
0
VERTEX
8
OBJECT__15
10
0
20
0
30
0
70
128
71
27
72
3
73
28
0
VERTEX
8
OBJECT__15
10
0
20
0
30
0
70
128
71
30
72
31
73
32
0
VERTEX
8
OBJECT__15
10
0
20
0
30
0
70
128
71
30
72
29
73
31
0
VERTEX
8
OBJECT__15
10
0
20
0
30
0
70
128
71
32
72
33
73
30
0
VERTEX
8
OBJECT__15
10
0
20
0
30
0
70
128
71
33
72
34
73
35
0
VERTEX
8
OBJECT__15
10
0
20
0
30
0
70
128
71
35
72
36
73
33
0
VERTEX
8
OBJECT__15
10
0
20
0
30
0
70
128
71
12
72
36
73
37
0
VERTEX
8
OBJECT__15
10
0
20
0
30
0
70
128
71
37
72
38
73
12
0
VERTEX
8
OBJECT__15
10
0
20
0
30
0
70
128
71
38
72
11
73
12
0
VERTEX
8
OBJECT__15
10
0
20
0
30
0
70
128
71
35
72
37
73
36
0
VERTEX
8
OBJECT__15
10
0
20
0
30
0
70
128
71
32
72
34
73
33
0
VERTEX
8
OBJECT__15
10
0
20
0
30
0
70
128
71
29
72
30
73
27
0
VERTEX
8
OBJECT__15
10
0
20
0
30
0
70
128
71
26
72
3
73
2
0
VERTEX
8
OBJECT__15
10
0
20
0
30
0
70
128
71
23
72
25
73
24
0
VERTEX
8
OBJECT__15
10
0
20
0
30
0
70
128
71
18
72
22
73
16
0
VERTEX
8
OBJECT__15
10
0
20
0
30
0
70
128
71
15
72
19
73
13
0
VERTEX
8
OBJECT__15
10
0
20
0
30
0
70
128
71
11
72
13
73
10
0
VERTEX
8
OBJECT__15
10
0
20
0
30
0
70
128
71
9
72
6
73
5
0
VERTEX
8
OBJECT__15
10
0
20
0
30
0
70
128
71
7
72
1
73
4
0
VERTEX
8
OBJECT__15
10
0
20
0
30
0
70
128
71
3
72
27
73
4
0
SEQEND
8
OBJECT__15
0
POLYLINE
8
OBJECT__17
66
1
70
64
71
3
72
1
62
253
0
VERTEX
8
OBJECT__17
10
-34.488998
20
-26.509001
30
-360.000000
70
192
0
VERTEX
8
OBJECT__17
10
-34.488998
20
26.509001
30
-360.000000
70
192
0
VERTEX
8
OBJECT__17
10
-43.500000
20
0.000000
30
-360.000000
70
192
0
VERTEX
8
OBJECT__17
10
0
20
0
30
0
70
128
71
1
72
2
73
3
0
SEQEND
8
OBJECT__17
0
POLYLINE
8
OBJECT__18
66
1
70
64
71
3
72
1
62
253
0
VERTEX
8
OBJECT__18
10
34.488998
20
26.509001
30
-360.000000
70
192
0
VERTEX
8
OBJECT__18
10
34.488998
20
-26.509001
30
-360.000000
70
192
0
VERTEX
8
OBJECT__18
10
43.500000
20
0.000000
30
-360.000000
70
192
0
VERTEX
8
OBJECT__18
10
0
20
0
30
0
70
128
71
1
72
2
73
3
0
SEQEND
8
OBJECT__18
0
POLYLINE
8
OBJECT__19
66
1
70
64
71
7
72
5
62
253
0
VERTEX
8
OBJECT__19
10
34.488998
20
46.213001
30
-360.000000
70
192
0
VERTEX
8
OBJECT__19
10
30.759001
20
30.759001
30
-360.000000
70
192
0
VERTEX
8
OBJECT__19
10
0.000000
20
43.500000
30
-360.000000
70
192
0
VERTEX
8
OBJECT__19
10
-34.488998
20
46.213001
30
-360.000000
70
192
0
VERTEX
8
OBJECT__19
10
-30.759001
20
30.759001
30
-360.000000
70
192
0
VERTEX
8
OBJECT__19
10
34.488998
20
26.509001
30
-360.000000
70
192
0
VERTEX
8
OBJECT__19
10
-34.488998
20
26.509001
30
-360.000000
70
192
0
VERTEX
8
OBJECT__19
10
0
20
0
30
0
70
128
71
1
72
2
73
3
0
VERTEX
8
OBJECT__19
10
0
20
0
30
0
70
128
71
4
72
3
73
5
0
VERTEX
8
OBJECT__19
10
0
20
0
30
0
70
128
71
1
72
6
73
2
0
VERTEX
8
OBJECT__19
10
0
20
0
30
0
70
128
71
3
72
4
73
1
0
VERTEX
8
OBJECT__19
10
0
20
0
30
0
70
128
71
5
72
7
73
4
0
SEQEND
8
OBJECT__19
0
POLYLINE
8
OBJECT__20
66
1
70
64
71
7
72
5
62
253
0
VERTEX
8
OBJECT__20
10
-34.488998
20
-46.213001
30
-360.000000
70
192
0
VERTEX
8
OBJECT__20
10
-30.759001
20
-30.759001
30
-360.000000
70
192
0
VERTEX
8
OBJECT__20
10
0.000000
20
-43.500000
30
-360.000000
70
192
0
VERTEX
8
OBJECT__20
10
34.488998
20
-46.213001
30
-360.000000
70
192
0
VERTEX
8
OBJECT__20
10
30.759001
20
-30.759001
30
-360.000000
70
192
0
VERTEX
8
OBJECT__20
10
-34.488998
20
-26.509001
30
-360.000000
70
192
0
VERTEX
8
OBJECT__20
10
34.488998
20
-26.509001
30
-360.000000
70
192
0
VERTEX
8
OBJECT__20
10
0
20
0
30
0
70
128
71
1
72
2
73
3
0
VERTEX
8
OBJECT__20
10
0
20
0
30
0
70
128
71
4
72
3
73
5
0
VERTEX
8
OBJECT__20
10
0
20
0
30
0
70
128
71
1
72
6
73
2
0
VERTEX
8
OBJECT__20
10
0
20
0
30
0
70
128
71
3
72
4
73
1
0
VERTEX
8
OBJECT__20
10
0
20
0
30
0
70
128
71
5
72
7
73
4
0
SEQEND
8
OBJECT__20
0
POLYLINE
8
OBJECT__21
66
1
70
64
71
26
72
26
62
253
0
VERTEX
8
OBJECT__21
10
62.000000
20
-43.500000
30
-640.000000
70
192
0
VERTEX
8
OBJECT__21
10
23.044001
20
-36.895000
30
-663.044006
70
192
0
VERTEX
8
OBJECT__21
10
29.558001
20
-29.665001
30
-669.557983
70
192
0
VERTEX
8
OBJECT__21
10
0.000000
20
-43.500000
30
-640.000000
70
192
0
VERTEX
8
OBJECT__21
10
62.000000
20
0.000000
30
-683.500000
70
192
0
VERTEX
8
OBJECT__21
10
62.000000
20
-30.759001
30
-670.758972
70
192
0
VERTEX
8
OBJECT__21
10
39.090000
20
-19.084999
30
-679.090027
70
192
0
VERTEX
8
OBJECT__21
10
62.000000
20
30.759001
30
-670.758972
70
192
0
VERTEX
8
OBJECT__21
10
43.264000
20
4.521000
30
-683.263977
70
192
0
VERTEX
8
OBJECT__21
10
34.299999
20
26.754000
30
-674.299988
70
192
0
VERTEX
8
OBJECT__21
10
42.495998
20
0.176000
30
-682.495972
70
192
0
VERTEX
8
OBJECT__21
10
62.000000
20
43.500000
30
-640.000000
70
192
0
VERTEX
8
OBJECT__21
10
30.059999
20
29.840000
30
-670.059998
70
192
0
VERTEX
8
OBJECT__21
10
14.919000
20
40.862000
30
-654.919006
70
192
0
VERTEX
8
OBJECT__21
10
23.044001
20
36.895000
30
-616.955994
70
192
0
VERTEX
8
OBJECT__21
10
29.558001
20
29.665001
30
-610.442017
70
192
0
VERTEX
8
OBJECT__21
10
0.000000
20
43.500000
30
-640.000000
70
192
0
VERTEX
8
OBJECT__21
10
62.000000
20
0.000000
30
-596.500000
70
192
0
VERTEX
8
OBJECT__21
10
62.000000
20
30.759001
30
-609.241028
70
192
0
VERTEX
8
OBJECT__21
10
39.090000
20
19.084999
30
-600.909973
70
192
0
VERTEX
8
OBJECT__21
10
62.000000
20
-30.759001
30
-609.241028
70
192
0
VERTEX
8
OBJECT__21
10
43.264000
20
-4.521000
30
-596.736023
70
192
0
VERTEX
8
OBJECT__21
10
34.299999
20
-26.754000
30
-605.700012
70
192
0
VERTEX
8
OBJECT__21
10
42.495998
20
-0.176000
30
-597.504028
70
192
0
VERTEX
8
OBJECT__21
10
30.059999
20
-29.840000
30
-609.940002
70
192
0
VERTEX
8
OBJECT__21
10
14.919000
20
-40.862000
30
-625.080994
70
192
0
VERTEX
8
OBJECT__21
10
0
20
0
30
0
70
128
71
1
72
2
73
3
0
VERTEX
8
OBJECT__21
10
0
20
0
30
0
70
128
71
1
72
4
73
2
0
VERTEX
8
OBJECT__21
10
0
20
0
30
0
70
128
71
5
72
6
73
7
0
VERTEX
8
OBJECT__21
10
0
20
0
30
0
70
128
71
6
72
3
73
7
0
VERTEX
8
OBJECT__21
10
0
20
0
30
0
70
128
71
8
72
5
73
9
0
VERTEX
8
OBJECT__21
10
0
20
0
30
0
70
128
71
9
72
10
73
8
0
VERTEX
8
OBJECT__21
10
0
20
0
30
0
70
128
71
5
72
11
73
9
0
VERTEX
8
OBJECT__21
10
0
20
0
30
0
70
128
71
12
72
8
73
13
0
VERTEX
8
OBJECT__21
10
0
20
0
30
0
70
128
71
13
72
14
73
12
0
VERTEX
8
OBJECT__21
10
0
20
0
30
0
70
128
71
12
72
15
73
16
0
VERTEX
8
OBJECT__21
10
0
20
0
30
0
70
128
71
12
72
17
73
15
0
VERTEX
8
OBJECT__21
10
0
20
0
30
0
70
128
71
18
72
19
73
20
0
VERTEX
8
OBJECT__21
10
0
20
0
30
0
70
128
71
19
72
16
73
20
0
VERTEX
8
OBJECT__21
10
0
20
0
30
0
70
128
71
21
72
18
73
22
0
VERTEX
8
OBJECT__21
10
0
20
0
30
0
70
128
71
22
72
23
73
21
0
VERTEX
8
OBJECT__21
10
0
20
0
30
0
70
128
71
18
72
24
73
22
0
VERTEX
8
OBJECT__21
10
0
20
0
30
0
70
128
71
1
72
21
73
25
0
VERTEX
8
OBJECT__21
10
0
20
0
30
0
70
128
71
25
72
26
73
1
0
VERTEX
8
OBJECT__21
10
0
20
0
30
0
70
128
71
26
72
4
73
1
0
VERTEX
8
OBJECT__21
10
0
20
0
30
0
70
128
71
23
72
25
73
21
0
VERTEX
8
OBJECT__21
10
0
20
0
30
0
70
128
71
20
72
24
73
18
0
VERTEX
8
OBJECT__21
10
0
20
0
30
0
70
128
71
16
72
19
73
12
0
VERTEX
8
OBJECT__21
10
0
20
0
30
0
70
128
71
14
72
17
73
12
0
VERTEX
8
OBJECT__21
10
0
20
0
30
0
70
128
71
10
72
13
73
8
0
VERTEX
8
OBJECT__21
10
0
20
0
30
0
70
128
71
7
72
11
73
5
0
VERTEX
8
OBJECT__21
10
0
20
0
30
0
70
128
71
3
72
6
73
1
0
SEQEND
8
OBJECT__21
0
POLYLINE
8
OBJECT__22
66
1
70
64
71
18
72
18
62
253
0
VERTEX
8
OBJECT__22
10
62.000000
20
30.759001
30
-609.241028
70
192
0
VERTEX
8
OBJECT__22
10
62.000000
20
0.000000
30
-596.500000
70
192
0
VERTEX
8
OBJECT__22
10
62.000000
20
8.807000
30
-612.893005
70
192
0
VERTEX
8
OBJECT__22
10
62.000000
20
-8.807000
30
-612.893005
70
192
0
VERTEX
8
OBJECT__22
10
62.000000
20
-30.759001
30
-609.241028
70
192
0
VERTEX
8
OBJECT__22
10
62.000000
20
-23.056999
30
-623.245972
70
192
0
VERTEX
8
OBJECT__22
10
62.000000
20
43.500000
30
-640.000000
70
192
0
VERTEX
8
OBJECT__22
10
62.000000
20
23.056999
30
-623.245972
70
192
0
VERTEX
8
OBJECT__22
10
62.000000
20
-43.500000
30
-640.000000
70
192
0
VERTEX
8
OBJECT__22
10
62.000000
20
-28.500000
30
-639.997986
70
192
0
VERTEX
8
OBJECT__22
10
62.000000
20
-30.759001
30
-670.758972
70
192
0
VERTEX
8
OBJECT__22
10
62.000000
20
-23.056999
30
-656.750000
70
192
0
VERTEX
8
OBJECT__22
10
62.000000
20
0.000000
30
-683.500000
70
192
0
VERTEX
8
OBJECT__22
10
62.000000
20
-8.807000
30
-667.103027
70
192
0
VERTEX
8
OBJECT__22
10
62.000000
20
8.807000
30
-667.103027
70
192
0
VERTEX
8
OBJECT__22
10
62.000000
20
30.759001
30
-670.758972
70
192
0
VERTEX
8
OBJECT__22
10
62.000000
20
23.056999
30
-656.750000
70
192
0
VERTEX
8
OBJECT__22
10
62.000000
20
28.500000
30
-639.997986
70
192
0
VERTEX
8
OBJECT__22
10
0
20
0
30
0
70
128
71
1
72
2
73
3
0
VERTEX
8
OBJECT__22
10
0
20
0
30
0
70
128
71
2
72
4
73
3
0
VERTEX
8
OBJECT__22
10
0
20
0
30
0
70
128
71
5
72
6
73
4
0
VERTEX
8
OBJECT__22
10
0
20
0
30
0
70
128
71
7
72
1
73
8
0
VERTEX
8
OBJECT__22
10
0
20
0
30
0
70
128
71
4
72
2
73
5
0
VERTEX
8
OBJECT__22
10
0
20
0
30
0
70
128
71
9
72
10
73
6
0
VERTEX
8
OBJECT__22
10
0
20
0
30
0
70
128
71
9
72
11
73
12
0
VERTEX
8
OBJECT__22
10
0
20
0
30
0
70
128
71
11
72
13
73
14
0
VERTEX
8
OBJECT__22
10
0
20
0
30
0
70
128
71
3
72
8
73
1
0
VERTEX
8
OBJECT__22
10
0
20
0
30
0
70
128
71
12
72
10
73
9
0
VERTEX
8
OBJECT__22
10
0
20
0
30
0
70
128
71
13
72
15
73
14
0
VERTEX
8
OBJECT__22
10
0
20
0
30
0
70
128
71
16
72
17
73
15
0
VERTEX
8
OBJECT__22
10
0
20
0
30
0
70
128
71
6
72
5
73
9
0
VERTEX
8
OBJECT__22
10
0
20
0
30
0
70
128
71
15
72
13
73
16
0
VERTEX
8
OBJECT__22
10
0
20
0
30
0
70
128
71
14
72
12
73
11
0
VERTEX
8
OBJECT__22
10
0
20
0
30
0
70
128
71
7
72
18
73
17
0
VERTEX
8
OBJECT__22
10
0
20
0
30
0
70
128
71
17
72
16
73
7
0
VERTEX
8
OBJECT__22
10
0
20
0
30
0
70
128
71
8
72
18
73
7
0
SEQEND
8
OBJECT__22
0
POLYLINE
8
OBJECT__23
66
1
70
64
71
26
72
26
62
253
0
VERTEX
8
OBJECT__23
10
65.000000
20
-25.483999
30
-621.481995
70
192
0
VERTEX
8
OBJECT__23
10
62.000000
20
-23.056999
30
-623.245972
70
192
0
VERTEX
8
OBJECT__23
10
62.000000
20
-28.500000
30
-639.997986
70
192
0
VERTEX
8
OBJECT__23
10
62.000000
20
-8.807000
30
-612.893005
70
192
0
VERTEX
8
OBJECT__23
10
65.000000
20
-18.752001
30
-616.591980
70
192
0
VERTEX
8
OBJECT__23
10
65.000000
20
-9.734000
30
-610.039001
70
192
0
VERTEX
8
OBJECT__23
10
65.000000
20
7.009000
30
-610.039001
70
192
0
VERTEX
8
OBJECT__23
10
62.000000
20
8.807000
30
-612.893005
70
192
0
VERTEX
8
OBJECT__23
10
65.000000
20
9.734000
30
-610.039001
70
192
0
VERTEX
8
OBJECT__23
10
65.000000
20
25.483999
30
-621.481995
70
192
0
VERTEX
8
OBJECT__23
10
62.000000
20
23.056999
30
-623.245972
70
192
0
VERTEX
8
OBJECT__23
10
62.000000
20
28.500000
30
-639.997986
70
192
0
VERTEX
8
OBJECT__23
10
65.000000
20
27.184999
30
-626.718994
70
192
0
VERTEX
8
OBJECT__23
10
65.000000
20
31.500000
30
-639.997986
70
192
0
VERTEX
8
OBJECT__23
10
65.000000
20
27.184999
30
-653.276978
70
192
0
VERTEX
8
OBJECT__23
10
62.000000
20
23.056999
30
-656.750000
70
192
0
VERTEX
8
OBJECT__23
10
65.000000
20
9.734000
30
-669.955994
70
192
0
VERTEX
8
OBJECT__23
10
62.000000
20
8.807000
30
-667.103027
70
192
0
VERTEX
8
OBJECT__23
10
62.000000
20
-8.807000
30
-667.103027
70
192
0
VERTEX
8
OBJECT__23
10
65.000000
20
7.009000
30
-669.955994
70
192
0
VERTEX
8
OBJECT__23
10
65.000000
20
-9.734000
30
-669.955994
70
192
0
VERTEX
8
OBJECT__23
10
65.000000
20
-18.752001
30
-663.403992
70
192
0
VERTEX
8
OBJECT__23
10
62.000000
20
-23.056999
30
-656.750000
70
192
0
VERTEX
8
OBJECT__23
10
65.000000
20
-25.483999
30
-658.513000
70
192
0
VERTEX
8
OBJECT__23
10
65.000000
20
-31.500000
30
-639.997986
70
192
0
VERTEX
8
OBJECT__23
10
65.000000
20
25.483999
30
-658.513000
70
192
0
VERTEX
8
OBJECT__23
10
0
20
0
30
0
70
128
71
1
72
2
73
3
0
VERTEX
8
OBJECT__23
10
0
20
0
30
0
70
128
71
4
72
2
73
5
0
VERTEX
8
OBJECT__23
10
0
20
0
30
0
70
128
71
2
72
1
73
5
0
VERTEX
8
OBJECT__23
10
0
20
0
30
0
70
128
71
4
72
6
73
7
0
VERTEX
8
OBJECT__23
10
0
20
0
30
0
70
128
71
7
72
8
73
4
0
VERTEX
8
OBJECT__23
10
0
20
0
30
0
70
128
71
9
72
10
73
11
0
VERTEX
8
OBJECT__23
10
0
20
0
30
0
70
128
71
12
72
11
73
13
0
VERTEX
8
OBJECT__23
10
0
20
0
30
0
70
128
71
11
72
10
73
13
0
VERTEX
8
OBJECT__23
10
0
20
0
30
0
70
128
71
12
72
14
73
15
0
VERTEX
8
OBJECT__23
10
0
20
0
30
0
70
128
71
15
72
16
73
12
0
VERTEX
8
OBJECT__23
10
0
20
0
30
0
70
128
71
17
72
18
73
16
0
VERTEX
8
OBJECT__23
10
0
20
0
30
0
70
128
71
19
72
18
73
20
0
VERTEX
8
OBJECT__23
10
0
20
0
30
0
70
128
71
18
72
17
73
20
0
VERTEX
8
OBJECT__23
10
0
20
0
30
0
70
128
71
19
72
21
73
22
0
VERTEX
8
OBJECT__23
10
0
20
0
30
0
70
128
71
22
72
23
73
19
0
VERTEX
8
OBJECT__23
10
0
20
0
30
0
70
128
71
24
72
25
73
3
0
VERTEX
8
OBJECT__23
10
0
20
0
30
0
70
128
71
3
72
23
73
24
0
VERTEX
8
OBJECT__23
10
0
20
0
30
0
70
128
71
22
72
24
73
23
0
VERTEX
8
OBJECT__23
10
0
20
0
30
0
70
128
71
20
72
21
73
19
0
VERTEX
8
OBJECT__23
10
0
20
0
30
0
70
128
71
16
72
26
73
17
0
VERTEX
8
OBJECT__23
10
0
20
0
30
0
70
128
71
15
72
26
73
16
0
VERTEX
8
OBJECT__23
10
0
20
0
30
0
70
128
71
13
72
14
73
12
0
VERTEX
8
OBJECT__23
10
0
20
0
30
0
70
128
71
11
72
8
73
9
0
VERTEX
8
OBJECT__23
10
0
20
0
30
0
70
128
71
7
72
9
73
8
0
VERTEX
8
OBJECT__23
10
0
20
0
30
0
70
128
71
5
72
6
73
4
0
VERTEX
8
OBJECT__23
10
0
20
0
30
0
70
128
71
3
72
25
73
1
0
SEQEND
8
OBJECT__23
0
POLYLINE
8
OBJECT__24
66
1
70
64
71
32
72
32
62
253
0
VERTEX
8
OBJECT__24
10
65.000000
20
-25.483999
30
-621.481995
70
192
0
VERTEX
8
OBJECT__24
10
71.098000
20
-25.483999
30
-621.481995
70
192
0
VERTEX
8
OBJECT__24
10
71.098000
20
-18.752001
30
-616.591980
70
192
0
VERTEX
8
OBJECT__24
10
65.000000
20
-31.500000
30
-639.997986
70
192
0
VERTEX
8
OBJECT__24
10
71.098000
20
-31.500000
30
-639.997986
70
192
0
VERTEX
8
OBJECT__24
10
71.098000
20
7.009000
30
-610.039001
70
192
0
VERTEX
8
OBJECT__24
10
65.000000
20
7.009000
30
-610.039001
70
192
0
VERTEX
8
OBJECT__24
10
65.000000
20
-9.734000
30
-610.039001
70
192
0
VERTEX
8
OBJECT__24
10
65.000000
20
-18.752001
30
-616.591980
70
192
0
VERTEX
8
OBJECT__24
10
71.098000
20
-9.734000
30
-610.039001
70
192
0
VERTEX
8
OBJECT__24
10
71.098000
20
9.734000
30
-610.039001
70
192
0
VERTEX
8
OBJECT__24
10
65.000000
20
9.734000
30
-610.039001
70
192
0
VERTEX
8
OBJECT__24
10
71.098000
20
25.483999
30
-621.481995
70
192
0
VERTEX
8
OBJECT__24
10
65.000000
20
25.483999
30
-621.481995
70
192
0
VERTEX
8
OBJECT__24
10
71.098000
20
27.184999
30
-626.718994
70
192
0
VERTEX
8
OBJECT__24
10
65.000000
20
27.184999
30
-626.718994
70
192
0
VERTEX
8
OBJECT__24
10
65.000000
20
27.184999
30
-653.276978
70
192
0
VERTEX
8
OBJECT__24
10
65.000000
20
31.500000
30
-639.997986
70
192
0
VERTEX
8
OBJECT__24
10
71.098000
20
31.500000
30
-639.997986
70
192
0
VERTEX
8
OBJECT__24
10
71.098000
20
27.184999
30
-653.276978
70
192
0
VERTEX
8
OBJECT__24
10
71.098000
20
25.483999
30
-658.513000
70
192
0
VERTEX
8
OBJECT__24
10
65.000000
20
25.483999
30
-658.513000
70
192
0
VERTEX
8
OBJECT__24
10
65.000000
20
9.734000
30
-669.955994
70
192
0
VERTEX
8
OBJECT__24
10
71.098000
20
9.734000
30
-669.955994
70
192
0
VERTEX
8
OBJECT__24
10
71.098000
20
7.009000
30
-669.955994
70
192
0
VERTEX
8
OBJECT__24
10
65.000000
20
7.009000
30
-669.955994
70
192
0
VERTEX
8
OBJECT__24
10
65.000000
20
-18.752001
30
-663.403992
70
192
0
VERTEX
8
OBJECT__24
10
65.000000
20
-9.734000
30
-669.955994
70
192
0
VERTEX
8
OBJECT__24
10
71.098000
20
-9.734000
30
-669.955994
70
192
0
VERTEX
8
OBJECT__24
10
65.000000
20
-25.483999
30
-658.513000
70
192
0
VERTEX
8
OBJECT__24
10
71.098000
20
-25.483999
30
-658.513000
70
192
0
VERTEX
8
OBJECT__24
10
71.098000
20
-18.752001
30
-663.403992
70
192
0
VERTEX
8
OBJECT__24
10
0
20
0
30
0
70
128
71
1
72
2
73
3
0
VERTEX
8
OBJECT__24
10
0
20
0
30
0
70
128
71
2
72
1
73
4
0
VERTEX
8
OBJECT__24
10
0
20
0
30
0
70
128
71
4
72
5
73
2
0
VERTEX
8
OBJECT__24
10
0
20
0
30
0
70
128
71
6
72
7
73
8
0
VERTEX
8
OBJECT__24
10
0
20
0
30
0
70
128
71
9
72
3
73
10
0
VERTEX
8
OBJECT__24
10
0
20
0
30
0
70
128
71
10
72
8
73
9
0
VERTEX
8
OBJECT__24
10
0
20
0
30
0
70
128
71
6
72
11
73
12
0
VERTEX
8
OBJECT__24
10
0
20
0
30
0
70
128
71
12
72
11
73
13
0
VERTEX
8
OBJECT__24
10
0
20
0
30
0
70
128
71
13
72
14
73
12
0
VERTEX
8
OBJECT__24
10
0
20
0
30
0
70
128
71
15
72
16
73
14
0
VERTEX
8
OBJECT__24
10
0
20
0
30
0
70
128
71
14
72
13
73
15
0
VERTEX
8
OBJECT__24
10
0
20
0
30
0
70
128
71
17
72
18
73
19
0
VERTEX
8
OBJECT__24
10
0
20
0
30
0
70
128
71
19
72
18
73
16
0
VERTEX
8
OBJECT__24
10
0
20
0
30
0
70
128
71
16
72
15
73
19
0
VERTEX
8
OBJECT__24
10
0
20
0
30
0
70
128
71
20
72
21
73
22
0
VERTEX
8
OBJECT__24
10
0
20
0
30
0
70
128
71
23
72
22
73
21
0
VERTEX
8
OBJECT__24
10
0
20
0
30
0
70
128
71
21
72
24
73
23
0
VERTEX
8
OBJECT__24
10
0
20
0
30
0
70
128
71
23
72
24
73
25
0
VERTEX
8
OBJECT__24
10
0
20
0
30
0
70
128
71
25
72
26
73
23
0
VERTEX
8
OBJECT__24
10
0
20
0
30
0
70
128
71
27
72
28
73
29
0
VERTEX
8
OBJECT__24
10
0
20
0
30
0
70
128
71
25
72
29
73
28
0
VERTEX
8
OBJECT__24
10
0
20
0
30
0
70
128
71
28
72
26
73
25
0
VERTEX
8
OBJECT__24
10
0
20
0
30
0
70
128
71
4
72
30
73
31
0
VERTEX
8
OBJECT__24
10
0
20
0
30
0
70
128
71
30
72
27
73
32
0
VERTEX
8
OBJECT__24
10
0
20
0
30
0
70
128
71
32
72
31
73
30
0
VERTEX
8
OBJECT__24
10
0
20
0
30
0
70
128
71
31
72
5
73
4
0
VERTEX
8
OBJECT__24
10
0
20
0
30
0
70
128
71
29
72
32
73
27
0
VERTEX
8
OBJECT__24
10
0
20
0
30
0
70
128
71
22
72
17
73
20
0
VERTEX
8
OBJECT__24
10
0
20
0
30
0
70
128
71
19
72
20
73
17
0
VERTEX
8
OBJECT__24
10
0
20
0
30
0
70
128
71
12
72
7
73
6
0
VERTEX
8
OBJECT__24
10
0
20
0
30
0
70
128
71
8
72
10
73
6
0
VERTEX
8
OBJECT__24
10
0
20
0
30
0
70
128
71
3
72
9
73
1
0
SEQEND
8
OBJECT__24
0
POLYLINE
8
OBJECT__25
66
1
70
64
71
32
72
32
62
253
0
VERTEX
8
OBJECT__25
10
71.098000
20
-25.483999
30
-621.481995
70
192
0
VERTEX
8
OBJECT__25
10
71.098000
20
-31.500000
30
-639.997986
70
192
0
VERTEX
8
OBJECT__25
10
75.867996
20
-28.000000
30
-639.997986
70
192
0
VERTEX
8
OBJECT__25
10
71.098000
20
-18.752001
30
-616.591980
70
192
0
VERTEX
8
OBJECT__25
10
75.867996
20
-22.653000
30
-623.539978
70
192
0
VERTEX
8
OBJECT__25
10
75.867996
20
-16.669001
30
-619.192017
70
192
0
VERTEX
8
OBJECT__25
10
75.867996
20
-8.653000
30
-613.367981
70
192
0
VERTEX
8
OBJECT__25
10
71.098000
20
-9.734000
30
-610.039001
70
192
0
VERTEX
8
OBJECT__25
10
71.098000
20
7.009000
30
-610.039001
70
192
0
VERTEX
8
OBJECT__25
10
75.867996
20
6.231000
30
-613.367981
70
192
0
VERTEX
8
OBJECT__25
10
75.867996
20
8.653000
30
-613.367981
70
192
0
VERTEX
8
OBJECT__25
10
71.098000
20
9.734000
30
-610.039001
70
192
0
VERTEX
8
OBJECT__25
10
75.867996
20
22.653000
30
-623.539978
70
192
0
VERTEX
8
OBJECT__25
10
71.098000
20
27.184999
30
-626.718994
70
192
0
VERTEX
8
OBJECT__25
10
75.867996
20
24.165001
30
-628.193970
70
192
0
VERTEX
8
OBJECT__25
10
75.867996
20
28.000000
30
-639.997986
70
192
0
VERTEX
8
OBJECT__25
10
71.098000
20
25.483999
30
-621.481995
70
192
0
VERTEX
8
OBJECT__25
10
71.098000
20
27.184999
30
-653.276978
70
192
0
VERTEX
8
OBJECT__25
10
75.867996
20
24.165001
30
-651.801025
70
192
0
VERTEX
8
OBJECT__25
10
75.867996
20
22.653000
30
-656.455994
70
192
0
VERTEX
8
OBJECT__25
10
71.098000
20
31.500000
30
-639.997986
70
192
0
VERTEX
8
OBJECT__25
10
71.098000
20
9.734000
30
-669.955994
70
192
0
VERTEX
8
OBJECT__25
10
71.098000
20
25.483999
30
-658.513000
70
192
0
VERTEX
8
OBJECT__25
10
71.098000
20
7.009000
30
-669.955994
70
192
0
VERTEX
8
OBJECT__25
10
75.867996
20
6.231000
30
-666.627014
70
192
0
VERTEX
8
OBJECT__25
10
75.867996
20
-8.653000
30
-666.627014
70
192
0
VERTEX
8
OBJECT__25
10
75.867996
20
8.653000
30
-666.627014
70
192
0
VERTEX
8
OBJECT__25
10
71.098000
20
-18.752001
30
-663.403992
70
192
0
VERTEX
8
OBJECT__25
10
71.098000
20
-9.734000
30
-669.955994
70
192
0
VERTEX
8
OBJECT__25
10
75.867996
20
-16.669001
30
-660.802979
70
192
0
VERTEX
8
OBJECT__25
10
75.867996
20
-22.653000
30
-656.455994
70
192
0
VERTEX
8
OBJECT__25
10
71.098000
20
-25.483999
30
-658.513000
70
192
0
VERTEX
8
OBJECT__25
10
0
20
0
30
0
70
128
71
1
72
2
73
3
0
VERTEX
8
OBJECT__25
10
0
20
0
30
0
70
128
71
4
72
1
73
5
0
VERTEX
8
OBJECT__25
10
0
20
0
30
0
70
128
71
4
72
6
73
7
0
VERTEX
8
OBJECT__25
10
0
20
0
30
0
70
128
71
7
72
8
73
4
0
VERTEX
8
OBJECT__25
10
0
20
0
30
0
70
128
71
9
72
10
73
11
0
VERTEX
8
OBJECT__25
10
0
20
0
30
0
70
128
71
9
72
8
73
7
0
VERTEX
8
OBJECT__25
10
0
20
0
30
0
70
128
71
7
72
10
73
9
0
VERTEX
8
OBJECT__25
10
0
20
0
30
0
70
128
71
12
72
11
73
13
0
VERTEX
8
OBJECT__25
10
0
20
0
30
0
70
128
71
14
72
15
73
16
0
VERTEX
8
OBJECT__25
10
0
20
0
30
0
70
128
71
14
72
17
73
13
0
VERTEX
8
OBJECT__25
10
0
20
0
30
0
70
128
71
13
72
15
73
14
0
VERTEX
8
OBJECT__25
10
0
20
0
30
0
70
128
71
18
72
19
73
20
0
VERTEX
8
OBJECT__25
10
0
20
0
30
0
70
128
71
18
72
21
73
16
0
VERTEX
8
OBJECT__25
10
0
20
0
30
0
70
128
71
16
72
19
73
18
0
VERTEX
8
OBJECT__25
10
0
20
0
30
0
70
128
71
22
72
23
73
20
0
VERTEX
8
OBJECT__25
10
0
20
0
30
0
70
128
71
24
72
25
73
26
0
VERTEX
8
OBJECT__25
10
0
20
0
30
0
70
128
71
24
72
22
73
27
0
VERTEX
8
OBJECT__25
10
0
20
0
30
0
70
128
71
27
72
25
73
24
0
VERTEX
8
OBJECT__25
10
0
20
0
30
0
70
128
71
28
72
29
73
26
0
VERTEX
8
OBJECT__25
10
0
20
0
30
0
70
128
71
28
72
30
73
31
0
VERTEX
8
OBJECT__25
10
0
20
0
30
0
70
128
71
31
72
32
73
28
0
VERTEX
8
OBJECT__25
10
0
20
0
30
0
70
128
71
32
72
31
73
3
0
VERTEX
8
OBJECT__25
10
0
20
0
30
0
70
128
71
3
72
2
73
32
0
VERTEX
8
OBJECT__25
10
0
20
0
30
0
70
128
71
26
72
30
73
28
0
VERTEX
8
OBJECT__25
10
0
20
0
30
0
70
128
71
26
72
29
73
24
0
VERTEX
8
OBJECT__25
10
0
20
0
30
0
70
128
71
20
72
27
73
22
0
VERTEX
8
OBJECT__25
10
0
20
0
30
0
70
128
71
20
72
23
73
18
0
VERTEX
8
OBJECT__25
10
0
20
0
30
0
70
128
71
16
72
21
73
14
0
VERTEX
8
OBJECT__25
10
0
20
0
30
0
70
128
71
13
72
17
73
12
0
VERTEX
8
OBJECT__25
10
0
20
0
30
0
70
128
71
11
72
12
73
9
0
VERTEX
8
OBJECT__25
10
0
20
0
30
0
70
128
71
5
72
6
73
4
0
VERTEX
8
OBJECT__25
10
0
20
0
30
0
70
128
71
3
72
5
73
1
0
SEQEND
8
OBJECT__25
0
POLYLINE
8
OBJECT__26
66
1
70
64
71
17
72
16
62
253
0
VERTEX
8
OBJECT__26
10
75.870003
20
0.000000
30
-639.997986
70
192
0
VERTEX
8
OBJECT__26
10
75.867996
20
-16.669001
30
-619.192017
70
192
0
VERTEX
8
OBJECT__26
10
75.867996
20
-22.653000
30
-623.539978
70
192
0
VERTEX
8
OBJECT__26
10
75.867996
20
6.231000
30
-613.367981
70
192
0
VERTEX
8
OBJECT__26
10
75.867996
20
-8.653000
30
-613.367981
70
192
0
VERTEX
8
OBJECT__26
10
75.867996
20
22.653000
30
-623.539978
70
192
0
VERTEX
8
OBJECT__26
10
75.867996
20
8.653000
30
-613.367981
70
192
0
VERTEX
8
OBJECT__26
10
75.867996
20
24.165001
30
-628.193970
70
192
0
VERTEX
8
OBJECT__26
10
75.867996
20
24.165001
30
-651.801025
70
192
0
VERTEX
8
OBJECT__26
10
75.867996
20
28.000000
30
-639.997986
70
192
0
VERTEX
8
OBJECT__26
10
75.867996
20
6.231000
30
-666.627014
70
192
0
VERTEX
8
OBJECT__26
10
75.867996
20
8.653000
30
-666.627014
70
192
0
VERTEX
8
OBJECT__26
10
75.867996
20
22.653000
30
-656.455994
70
192
0
VERTEX
8
OBJECT__26
10
75.867996
20
-16.669001
30
-660.802979
70
192
0
VERTEX
8
OBJECT__26
10
75.867996
20
-8.653000
30
-666.627014
70
192
0
VERTEX
8
OBJECT__26
10
75.867996
20
-28.000000
30
-639.997986
70
192
0
VERTEX
8
OBJECT__26
10
75.867996
20
-22.653000
30
-656.455994
70
192
0
VERTEX
8
OBJECT__26
10
0
20
0
30
0
70
128
71
1
72
2
73
3
0
VERTEX
8
OBJECT__26
10
0
20
0
30
0
70
128
71
1
72
4
73
5
0
VERTEX
8
OBJECT__26
10
0
20
0
30
0
70
128
71
1
72
6
73
7
0
VERTEX
8
OBJECT__26
10
0
20
0
30
0
70
128
71
1
72
8
73
6
0
VERTEX
8
OBJECT__26
10
0
20
0
30
0
70
128
71
1
72
9
73
10
0
VERTEX
8
OBJECT__26
10
0
20
0
30
0
70
128
71
1
72
11
73
12
0
VERTEX
8
OBJECT__26
10
0
20
0
30
0
70
128
71
12
72
13
73
1
0
VERTEX
8
OBJECT__26
10
0
20
0
30
0
70
128
71
1
72
14
73
15
0
VERTEX
8
OBJECT__26
10
0
20
0
30
0
70
128
71
1
72
16
73
17
0
VERTEX
8
OBJECT__26
10
0
20
0
30
0
70
128
71
17
72
14
73
1
0
VERTEX
8
OBJECT__26
10
0
20
0
30
0
70
128
71
15
72
11
73
1
0
VERTEX
8
OBJECT__26
10
0
20
0
30
0
70
128
71
13
72
9
73
1
0
VERTEX
8
OBJECT__26
10
0
20
0
30
0
70
128
71
10
72
8
73
1
0
VERTEX
8
OBJECT__26
10
0
20
0
30
0
70
128
71
7
72
4
73
1
0
VERTEX
8
OBJECT__26
10
0
20
0
30
0
70
128
71
5
72
2
73
1
0
VERTEX
8
OBJECT__26
10
0
20
0
30
0
70
128
71
3
72
16
73
1
0
SEQEND
8
OBJECT__26
0
POLYLINE
8
OBJECT__27
66
1
70
64
71
10
72
8
62
253
0
VERTEX
8
OBJECT__27
10
45.792000
20
-46.213001
30
-355.286987
70
192
0
VERTEX
8
OBJECT__27
10
45.792000
20
46.213001
30
-355.286987
70
192
0
VERTEX
8
OBJECT__27
10
45.855999
20
46.213001
30
-355.260010
70
192
0
VERTEX
8
OBJECT__27
10
45.855999
20
-46.213001
30
-355.260010
70
192
0
VERTEX
8
OBJECT__27
10
50.488998
20
46.213001
30
-344.000000
70
192
0
VERTEX
8
OBJECT__27
10
50.488998
20
-46.213001
30
-344.000000
70
192
0
VERTEX
8
OBJECT__27
10
34.488998
20
-26.509001
30
-360.000000
70
192
0
VERTEX
8
OBJECT__27
10
34.488998
20
26.509001
30
-360.000000
70
192
0
VERTEX
8
OBJECT__27
10
34.488998
20
-46.213001
30
-360.000000
70
192
0
VERTEX
8
OBJECT__27
10
34.488998
20
46.213001
30
-360.000000
70
192
0
VERTEX
8
OBJECT__27
10
0
20
0
30
0
70
128
71
1
72
2
73
3
0
VERTEX
8
OBJECT__27
10
0
20
0
30
0
70
128
71
4
72
3
73
5
0
VERTEX
8
OBJECT__27
10
0
20
0
30
0
70
128
71
5
72
6
73
4
0
VERTEX
8
OBJECT__27
10
0
20
0
30
0
70
128
71
2
72
1
73
7
0
VERTEX
8
OBJECT__27
10
0
20
0
30
0
70
128
71
7
72
8
73
2
0
VERTEX
8
OBJECT__27
10
0
20
0
30
0
70
128
71
1
72
9
73
7
0
VERTEX
8
OBJECT__27
10
0
20
0
30
0
70
128
71
8
72
10
73
2
0
VERTEX
8
OBJECT__27
10
0
20
0
30
0
70
128
71
3
72
4
73
1
0
SEQEND
8
OBJECT__27
0
POLYLINE
8
OBJECT__28
66
1
70
64
71
8
72
6
62
253
0
VERTEX
8
OBJECT__28
10
42.216000
20
-52.612000
30
-355.084991
70
192
0
VERTEX
8
OBJECT__28
10
34.488998
20
-46.213001
30
-360.000000
70
192
0
VERTEX
8
OBJECT__28
10
45.792000
20
-46.213001
30
-355.286987
70
192
0
VERTEX
8
OBJECT__28
10
45.855999
20
-46.213001
30
-355.260010
70
192
0
VERTEX
8
OBJECT__28
10
50.488998
20
-46.213001
30
-344.000000
70
192
0
VERTEX
8
OBJECT__28
10
45.803001
20
-51.869999
30
-353.798004
70
192
0
VERTEX
8
OBJECT__28
10
41.928001
20
-52.672001
30
-355.187988
70
192
0
VERTEX
8
OBJECT__28
10
34.488998
20
-54.213001
30
-357.855988
70
192
0
VERTEX
8
OBJECT__28
10
0
20
0
30
0
70
128
71
1
72
2
73
3
0
VERTEX
8
OBJECT__28
10
0
20
0
30
0
70
128
71
4
72
5
73
6
0
VERTEX
8
OBJECT__28
10
0
20
0
30
0
70
128
71
2
72
1
73
7
0
VERTEX
8
OBJECT__28
10
0
20
0
30
0
70
128
71
7
72
8
73
2
0
VERTEX
8
OBJECT__28
10
0
20
0
30
0
70
128
71
6
72
1
73
4
0
VERTEX
8
OBJECT__28
10
0
20
0
30
0
70
128
71
3
72
4
73
1
0
SEQEND
8
OBJECT__28
0
POLYLINE
8
OBJECT__29
66
1
70
64
71
8
72
6
62
253
0
VERTEX
8
OBJECT__29
10
42.216000
20
52.612000
30
-355.084991
70
192
0
VERTEX
8
OBJECT__29
10
45.855999
20
46.213001
30
-355.260010
70
192
0
VERTEX
8
OBJECT__29
10
45.792000
20
46.213001
30
-355.286987
70
192
0
VERTEX
8
OBJECT__29
10
34.488998
20
46.213001
30
-360.000000
70
192
0
VERTEX
8
OBJECT__29
10
34.488998
20
54.213001
30
-357.855988
70
192
0
VERTEX
8
OBJECT__29
10
41.928001
20
52.672001
30
-355.187988
70
192
0
VERTEX
8
OBJECT__29
10
45.803001
20
51.869999
30
-353.798004
70
192
0
VERTEX
8
OBJECT__29
10
50.488998
20
46.213001
30
-344.000000
70
192
0
VERTEX
8
OBJECT__29
10
0
20
0
30
0
70
128
71
1
72
2
73
3
0
VERTEX
8
OBJECT__29
10
0
20
0
30
0
70
128
71
4
72
5
73
6
0
VERTEX
8
OBJECT__29
10
0
20
0
30
0
70
128
71
2
72
1
73
7
0
VERTEX
8
OBJECT__29
10
0
20
0
30
0
70
128
71
7
72
8
73
2
0
VERTEX
8
OBJECT__29
10
0
20
0
30
0
70
128
71
6
72
1
73
4
0
VERTEX
8
OBJECT__29
10
0
20
0
30
0
70
128
71
3
72
4
73
1
0
SEQEND
8
OBJECT__29
0
POLYLINE
8
OBJECT__30
66
1
70
64
71
9
72
7
62
253
0
VERTEX
8
OBJECT__30
10
50.488998
20
-46.213001
30
-344.000000
70
192
0
VERTEX
8
OBJECT__30
10
48.644001
20
-100.172997
30
-321.459991
70
192
0
VERTEX
8
OBJECT__30
10
44.854000
20
-100.786003
30
-323.747009
70
192
0
VERTEX
8
OBJECT__30
10
50.488998
20
-98.174004
30
-314.000000
70
192
0
VERTEX
8
OBJECT__30
10
41.928001
20
-52.672001
30
-355.187988
70
192
0
VERTEX
8
OBJECT__30
10
34.488998
20
-102.461998
30
-330.000000
70
192
0
VERTEX
8
OBJECT__30
10
34.488998
20
-54.213001
30
-357.855988
70
192
0
VERTEX
8
OBJECT__30
10
42.216000
20
-52.612000
30
-355.084991
70
192
0
VERTEX
8
OBJECT__30
10
45.803001
20
-51.869999
30
-353.798004
70
192
0
VERTEX
8
OBJECT__30
10
0
20
0
30
0
70
128
71
1
72
2
73
3
0
VERTEX
8
OBJECT__30
10
0
20
0
30
0
70
128
71
1
72
4
73
2
0
VERTEX
8
OBJECT__30
10
0
20
0
30
0
70
128
71
5
72
3
73
6
0
VERTEX
8
OBJECT__30
10
0
20
0
30
0
70
128
71
6
72
7
73
5
0
VERTEX
8
OBJECT__30
10
0
20
0
30
0
70
128
71
5
72
8
73
3
0
VERTEX
8
OBJECT__30
10
0
20
0
30
0
70
128
71
8
72
9
73
3
0
VERTEX
8
OBJECT__30
10
0
20
0
30
0
70
128
71
3
72
9
73
1
0
SEQEND
8
OBJECT__30
0
POLYLINE
8
OBJECT__31
66
1
70
64
71
4
72
2
62
253
0
VERTEX
8
OBJECT__31
10
34.488998
20
-54.213001
30
-357.855988
70
192
0
VERTEX
8
OBJECT__31
10
-34.488998
20
-54.213001
30
-357.855988
70
192
0
VERTEX
8
OBJECT__31
10
-34.488998
20
-46.213001
30
-360.000000
70
192
0
VERTEX
8
OBJECT__31
10
34.488998
20
-46.213001
30
-360.000000
70
192
0
VERTEX
8
OBJECT__31
10
0
20
0
30
0
70
128
71
1
72
2
73
3
0
VERTEX
8
OBJECT__31
10
0
20
0
30
0
70
128
71
3
72
4
73
1
0
SEQEND
8
OBJECT__31
0
POLYLINE
8
OBJECT__32
66
1
70
64
71
8
72
6
62
253
0
VERTEX
8
OBJECT__32
10
-42.216000
20
-52.612000
30
-355.084991
70
192
0
VERTEX
8
OBJECT__32
10
-45.855999
20
-46.213001
30
-355.260010
70
192
0
VERTEX
8
OBJECT__32
10
-45.792000
20
-46.213001
30
-355.286987
70
192
0
VERTEX
8
OBJECT__32
10
-34.488998
20
-46.213001
30
-360.000000
70
192
0
VERTEX
8
OBJECT__32
10
-34.488998
20
-54.213001
30
-357.855988
70
192
0
VERTEX
8
OBJECT__32
10
-41.928001
20
-52.672001
30
-355.187988
70
192
0
VERTEX
8
OBJECT__32
10
-45.803001
20
-51.869999
30
-353.798004
70
192
0
VERTEX
8
OBJECT__32
10
-50.488998
20
-46.213001
30
-344.000000
70
192
0
VERTEX
8
OBJECT__32
10
0
20
0
30
0
70
128
71
1
72
2
73
3
0
VERTEX
8
OBJECT__32
10
0
20
0
30
0
70
128
71
4
72
5
73
6
0
VERTEX
8
OBJECT__32
10
0
20
0
30
0
70
128
71
2
72
1
73
7
0
VERTEX
8
OBJECT__32
10
0
20
0
30
0
70
128
71
7
72
8
73
2
0
VERTEX
8
OBJECT__32
10
0
20
0
30
0
70
128
71
6
72
1
73
4
0
VERTEX
8
OBJECT__32
10
0
20
0
30
0
70
128
71
3
72
4
73
1
0
SEQEND
8
OBJECT__32
0
POLYLINE
8
OBJECT__33
66
1
70
64
71
4
72
2
62
253
0
VERTEX
8
OBJECT__33
10
34.488998
20
-54.213001
30
-357.855988
70
192
0
VERTEX
8
OBJECT__33
10
34.488998
20
-102.461998
30
-330.000000
70
192
0
VERTEX
8
OBJECT__33
10
-34.488998
20
-102.461998
30
-330.000000
70
192
0
VERTEX
8
OBJECT__33
10
-34.488998
20
-54.213001
30
-357.855988
70
192
0
VERTEX
8
OBJECT__33
10
0
20
0
30
0
70
128
71
1
72
2
73
3
0
VERTEX
8
OBJECT__33
10
0
20
0
30
0
70
128
71
3
72
4
73
1
0
SEQEND
8
OBJECT__33
0
POLYLINE
8
OBJECT__34
66
1
70
64
71
8
72
6
62
253
0
VERTEX
8
OBJECT__34
10
45.792000
20
-186.335999
30
-325.286987
70
192
0
VERTEX
8
OBJECT__34
10
34.488998
20
-186.335999
30
-330.000000
70
192
0
VERTEX
8
OBJECT__34
10
34.488998
20
-102.461998
30
-330.000000
70
192
0
VERTEX
8
OBJECT__34
10
50.488998
20
-186.335999
30
-314.000000
70
192
0
VERTEX
8
OBJECT__34
10
45.855999
20
-186.335999
30
-325.260010
70
192
0
VERTEX
8
OBJECT__34
10
44.854000
20
-100.786003
30
-323.747009
70
192
0
VERTEX
8
OBJECT__34
10
48.644001
20
-100.172997
30
-321.459991
70
192
0
VERTEX
8
OBJECT__34
10
50.488998
20
-98.174004
30
-314.000000
70
192
0
VERTEX
8
OBJECT__34
10
0
20
0
30
0
70
128
71
1
72
2
73
3
0
VERTEX
8
OBJECT__34
10
0
20
0
30
0
70
128
71
4
72
5
73
6
0
VERTEX
8
OBJECT__34
10
0
20
0
30
0
70
128
71
6
72
7
73
4
0
VERTEX
8
OBJECT__34
10
0
20
0
30
0
70
128
71
5
72
1
73
6
0
VERTEX
8
OBJECT__34
10
0
20
0
30
0
70
128
71
7
72
8
73
4
0
VERTEX
8
OBJECT__34
10
0
20
0
30
0
70
128
71
3
72
6
73
1
0
SEQEND
8
OBJECT__34
0
POLYLINE
8
OBJECT__35
66
1
70
64
71
10
72
8
62
253
0
VERTEX
8
OBJECT__35
10
-45.792000
20
-46.213001
30
-355.286987
70
192
0
VERTEX
8
OBJECT__35
10
-45.792000
20
46.213001
30
-355.286987
70
192
0
VERTEX
8
OBJECT__35
10
-34.488998
20
26.509001
30
-360.000000
70
192
0
VERTEX
8
OBJECT__35
10
-34.488998
20
-26.509001
30
-360.000000
70
192
0
VERTEX
8
OBJECT__35
10
-34.488998
20
46.213001
30
-360.000000
70
192
0
VERTEX
8
OBJECT__35
10
-45.855999
20
46.213001
30
-355.260010
70
192
0
VERTEX
8
OBJECT__35
10
-45.855999
20
-46.213001
30
-355.260010
70
192
0
VERTEX
8
OBJECT__35
10
-50.488998
20
-46.213001
30
-344.000000
70
192
0
VERTEX
8
OBJECT__35
10
-50.488998
20
46.213001
30
-344.000000
70
192
0
VERTEX
8
OBJECT__35
10
-34.488998
20
-46.213001
30
-360.000000
70
192
0
VERTEX
8
OBJECT__35
10
0
20
0
30
0
70
128
71
1
72
2
73
3
0
VERTEX
8
OBJECT__35
10
0
20
0
30
0
70
128
71
3
72
4
73
1
0
VERTEX
8
OBJECT__35
10
0
20
0
30
0
70
128
71
2
72
5
73
3
0
VERTEX
8
OBJECT__35
10
0
20
0
30
0
70
128
71
6
72
7
73
8
0
VERTEX
8
OBJECT__35
10
0
20
0
30
0
70
128
71
7
72
6
73
2
0
VERTEX
8
OBJECT__35
10
0
20
0
30
0
70
128
71
2
72
1
73
7
0
VERTEX
8
OBJECT__35
10
0
20
0
30
0
70
128
71
8
72
9
73
6
0
VERTEX
8
OBJECT__35
10
0
20
0
30
0
70
128
71
4
72
10
73
1
0
SEQEND
8
OBJECT__35
0
POLYLINE
8
OBJECT__36
66
1
70
64
71
9
72
7
62
253
0
VERTEX
8
OBJECT__36
10
-41.928001
20
-52.672001
30
-355.187988
70
192
0
VERTEX
8
OBJECT__36
10
-34.488998
20
-54.213001
30
-357.855988
70
192
0
VERTEX
8
OBJECT__36
10
-34.488998
20
-102.461998
30
-330.000000
70
192
0
VERTEX
8
OBJECT__36
10
-41.950001
20
-101.967003
30
-328.153992
70
192
0
VERTEX
8
OBJECT__36
10
-42.216000
20
-52.612000
30
-355.084991
70
192
0
VERTEX
8
OBJECT__36
10
-45.803001
20
-51.869999
30
-353.798004
70
192
0
VERTEX
8
OBJECT__36
10
-50.488998
20
-46.213001
30
-344.000000
70
192
0
VERTEX
8
OBJECT__36
10
-44.237999
20
-100.950996
30
-324.360992
70
192
0
VERTEX
8
OBJECT__36
10
-50.488998
20
-98.174004
30
-314.000000
70
192
0
VERTEX
8
OBJECT__36
10
0
20
0
30
0
70
128
71
1
72
2
73
3
0
VERTEX
8
OBJECT__36
10
0
20
0
30
0
70
128
71
4
72
5
73
1
0
VERTEX
8
OBJECT__36
10
0
20
0
30
0
70
128
71
4
72
6
73
5
0
VERTEX
8
OBJECT__36
10
0
20
0
30
0
70
128
71
3
72
4
73
1
0
VERTEX
8
OBJECT__36
10
0
20
0
30
0
70
128
71
7
72
6
73
8
0
VERTEX
8
OBJECT__36
10
0
20
0
30
0
70
128
71
8
72
9
73
7
0
VERTEX
8
OBJECT__36
10
0
20
0
30
0
70
128
71
4
72
8
73
6
0
SEQEND
8
OBJECT__36
0
POLYLINE
8
OBJECT__37
66
1
70
64
71
4
72
2
62
253
0
VERTEX
8
OBJECT__37
10
34.488998
20
-102.461998
30
-330.000000
70
192
0
VERTEX
8
OBJECT__37
10
34.488998
20
-186.335999
30
-330.000000
70
192
0
VERTEX
8
OBJECT__37
10
-34.488998
20
-186.335999
30
-330.000000
70
192
0
VERTEX
8
OBJECT__37
10
-34.488998
20
-102.461998
30
-330.000000
70
192
0
VERTEX
8
OBJECT__37
10
0
20
0
30
0
70
128
71
1
72
2
73
3
0
VERTEX
8
OBJECT__37
10
0
20
0
30
0
70
128
71
3
72
4
73
1
0
SEQEND
8
OBJECT__37
0
POLYLINE
8
OBJECT__38
66
1
70
64
71
8
72
6
62
253
0
VERTEX
8
OBJECT__38
10
-45.855999
20
-186.335999
30
-325.260010
70
192
0
VERTEX
8
OBJECT__38
10
-50.488998
20
-98.174004
30
-314.000000
70
192
0
VERTEX
8
OBJECT__38
10
-44.237999
20
-100.950996
30
-324.360992
70
192
0
VERTEX
8
OBJECT__38
10
-45.792000
20
-186.335999
30
-325.286987
70
192
0
VERTEX
8
OBJECT__38
10
-50.488998
20
-186.335999
30
-314.000000
70
192
0
VERTEX
8
OBJECT__38
10
-41.950001
20
-101.967003
30
-328.153992
70
192
0
VERTEX
8
OBJECT__38
10
-34.488998
20
-102.461998
30
-330.000000
70
192
0
VERTEX
8
OBJECT__38
10
-34.488998
20
-186.335999
30
-330.000000
70
192
0
VERTEX
8
OBJECT__38
10
0
20
0
30
0
70
128
71
1
72
2
73
3
0
VERTEX
8
OBJECT__38
10
0
20
0
30
0
70
128
71
3
72
4
73
1
0
VERTEX
8
OBJECT__38
10
0
20
0
30
0
70
128
71
1
72
5
73
2
0
VERTEX
8
OBJECT__38
10
0
20
0
30
0
70
128
71
4
72
6
73
7
0
VERTEX
8
OBJECT__38
10
0
20
0
30
0
70
128
71
4
72
3
73
6
0
VERTEX
8
OBJECT__38
10
0
20
0
30
0
70
128
71
7
72
8
73
4
0
SEQEND
8
OBJECT__38
0
POLYLINE
8
OBJECT__39
66
1
70
64
71
8
72
6
62
253
0
VERTEX
8
OBJECT__39
10
-34.488998
20
-197.395996
30
-325.388000
70
192
0
VERTEX
8
OBJECT__39
10
-34.488998
20
-186.335999
30
-330.000000
70
192
0
VERTEX
8
OBJECT__39
10
34.488998
20
-186.335999
30
-330.000000
70
192
0
VERTEX
8
OBJECT__39
10
-34.488998
20
-202.326004
30
-314.565002
70
192
0
VERTEX
8
OBJECT__39
10
-34.488998
20
-197.703003
30
-325.260010
70
192
0
VERTEX
8
OBJECT__39
10
34.488998
20
-197.703003
30
-325.260010
70
192
0
VERTEX
8
OBJECT__39
10
34.488998
20
-197.395996
30
-325.388000
70
192
0
VERTEX
8
OBJECT__39
10
34.488998
20
-202.326004
30
-314.565002
70
192
0
VERTEX
8
OBJECT__39
10
0
20
0
30
0
70
128
71
1
72
2
73
3
0
VERTEX
8
OBJECT__39
10
0
20
0
30
0
70
128
71
4
72
5
73
6
0
VERTEX
8
OBJECT__39
10
0
20
0
30
0
70
128
71
7
72
6
73
5
0
VERTEX
8
OBJECT__39
10
0
20
0
30
0
70
128
71
5
72
1
73
7
0
VERTEX
8
OBJECT__39
10
0
20
0
30
0
70
128
71
6
72
8
73
4
0
VERTEX
8
OBJECT__39
10
0
20
0
30
0
70
128
71
3
72
7
73
1
0
SEQEND
8
OBJECT__39
0
POLYLINE
8
OBJECT__40
66
1
70
64
71
4
72
2
62
253
0
VERTEX
8
OBJECT__40
10
34.488998
20
46.213001
30
-360.000000
70
192
0
VERTEX
8
OBJECT__40
10
-34.488998
20
46.213001
30
-360.000000
70
192
0
VERTEX
8
OBJECT__40
10
-34.488998
20
54.213001
30
-357.855988
70
192
0
VERTEX
8
OBJECT__40
10
34.488998
20
54.213001
30
-357.855988
70
192
0
VERTEX
8
OBJECT__40
10
0
20
0
30
0
70
128
71
1
72
2
73
3
0
VERTEX
8
OBJECT__40
10
0
20
0
30
0
70
128
71
3
72
4
73
1
0
SEQEND
8
OBJECT__40
0
POLYLINE
8
OBJECT__41
66
1
70
64
71
9
72
7
62
253
0
VERTEX
8
OBJECT__41
10
41.928001
20
52.672001
30
-355.187988
70
192
0
VERTEX
8
OBJECT__41
10
34.488998
20
54.213001
30
-357.855988
70
192
0
VERTEX
8
OBJECT__41
10
34.488998
20
102.461998
30
-330.000000
70
192
0
VERTEX
8
OBJECT__41
10
41.950001
20
101.967003
30
-328.153992
70
192
0
VERTEX
8
OBJECT__41
10
45.803001
20
51.869999
30
-353.798004
70
192
0
VERTEX
8
OBJECT__41
10
42.216000
20
52.612000
30
-355.084991
70
192
0
VERTEX
8
OBJECT__41
10
50.488998
20
46.213001
30
-344.000000
70
192
0
VERTEX
8
OBJECT__41
10
44.237999
20
100.950996
30
-324.360992
70
192
0
VERTEX
8
OBJECT__41
10
50.488998
20
98.174004
30
-314.000000
70
192
0
VERTEX
8
OBJECT__41
10
0
20
0
30
0
70
128
71
1
72
2
73
3
0
VERTEX
8
OBJECT__41
10
0
20
0
30
0
70
128
71
4
72
5
73
6
0
VERTEX
8
OBJECT__41
10
0
20
0
30
0
70
128
71
6
72
1
73
4
0
VERTEX
8
OBJECT__41
10
0
20
0
30
0
70
128
71
3
72
4
73
1
0
VERTEX
8
OBJECT__41
10
0
20
0
30
0
70
128
71
7
72
5
73
8
0
VERTEX
8
OBJECT__41
10
0
20
0
30
0
70
128
71
8
72
9
73
7
0
VERTEX
8
OBJECT__41
10
0
20
0
30
0
70
128
71
4
72
8
73
5
0
SEQEND
8
OBJECT__41
0
POLYLINE
8
OBJECT__42
66
1
70
64
71
10
72
9
62
253
0
VERTEX
8
OBJECT__42
10
-42.527000
20
-194.373001
30
-325.260010
70
192
0
VERTEX
8
OBJECT__42
10
-34.488998
20
-186.335999
30
-330.000000
70
192
0
VERTEX
8
OBJECT__42
10
-34.488998
20
-197.395996
30
-325.388000
70
192
0
VERTEX
8
OBJECT__42
10
-45.855999
20
-186.335999
30
-325.260010
70
192
0
VERTEX
8
OBJECT__42
10
-45.792000
20
-186.335999
30
-325.286987
70
192
0
VERTEX
8
OBJECT__42
10
-45.799000
20
-197.643997
30
-314.399994
70
192
0
VERTEX
8
OBJECT__42
10
-34.488998
20
-197.703003
30
-325.260010
70
192
0
VERTEX
8
OBJECT__42
10
-45.803001
20
-197.641998
30
-314.399994
70
192
0
VERTEX
8
OBJECT__42
10
-50.488998
20
-186.335999
30
-314.000000
70
192
0
VERTEX
8
OBJECT__42
10
-34.488998
20
-202.326004
30
-314.565002
70
192
0
VERTEX
8
OBJECT__42
10
0
20
0
30
0
70
128
71
1
72
2
73
3
0
VERTEX
8
OBJECT__42
10
0
20
0
30
0
70
128
71
1
72
4
73
5
0
VERTEX
8
OBJECT__42
10
0
20
0
30
0
70
128
71
6
72
1
73
7
0
VERTEX
8
OBJECT__42
10
0
20
0
30
0
70
128
71
8
72
9
73
4
0
VERTEX
8
OBJECT__42
10
0
20
0
30
0
70
128
71
1
72
6
73
8
0
VERTEX
8
OBJECT__42
10
0
20
0
30
0
70
128
71
4
72
1
73
8
0
VERTEX
8
OBJECT__42
10
0
20
0
30
0
70
128
71
7
72
10
73
6
0
VERTEX
8
OBJECT__42
10
0
20
0
30
0
70
128
71
5
72
2
73
1
0
VERTEX
8
OBJECT__42
10
0
20
0
30
0
70
128
71
3
72
7
73
1
0
SEQEND
8
OBJECT__42
0
POLYLINE
8
OBJECT__43
66
1
70
64
71
10
72
9
62
253
0
VERTEX
8
OBJECT__43
10
42.527000
20
-194.373001
30
-325.260010
70
192
0
VERTEX
8
OBJECT__43
10
34.488998
20
-186.335999
30
-330.000000
70
192
0
VERTEX
8
OBJECT__43
10
45.792000
20
-186.335999
30
-325.286987
70
192
0
VERTEX
8
OBJECT__43
10
34.488998
20
-197.703003
30
-325.260010
70
192
0
VERTEX
8
OBJECT__43
10
34.488998
20
-197.395996
30
-325.388000
70
192
0
VERTEX
8
OBJECT__43
10
50.488998
20
-186.335999
30
-314.000000
70
192
0
VERTEX
8
OBJECT__43
10
45.803001
20
-197.641998
30
-314.399994
70
192
0
VERTEX
8
OBJECT__43
10
45.855999
20
-186.335999
30
-325.260010
70
192
0
VERTEX
8
OBJECT__43
10
45.799000
20
-197.643997
30
-314.399994
70
192
0
VERTEX
8
OBJECT__43
10
34.488998
20
-202.326004
30
-314.565002
70
192
0
VERTEX
8
OBJECT__43
10
0
20
0
30
0
70
128
71
1
72
2
73
3
0
VERTEX
8
OBJECT__43
10
0
20
0
30
0
70
128
71
1
72
4
73
5
0
VERTEX
8
OBJECT__43
10
0
20
0
30
0
70
128
71
6
72
7
73
1
0
VERTEX
8
OBJECT__43
10
0
20
0
30
0
70
128
71
1
72
8
73
6
0
VERTEX
8
OBJECT__43
10
0
20
0
30
0
70
128
71
9
72
10
73
4
0
VERTEX
8
OBJECT__43
10
0
20
0
30
0
70
128
71
4
72
1
73
9
0
VERTEX
8
OBJECT__43
10
0
20
0
30
0
70
128
71
7
72
9
73
1
0
VERTEX
8
OBJECT__43
10
0
20
0
30
0
70
128
71
5
72
2
73
1
0
VERTEX
8
OBJECT__43
10
0
20
0
30
0
70
128
71
3
72
8
73
1
0
SEQEND
8
OBJECT__43
0
POLYLINE
8
OBJECT__44
66
1
70
64
71
5
72
3
62
253
0
VERTEX
8
OBJECT__44
10
34.488998
20
-212.016006
30
-40.495998
70
192
0
VERTEX
8
OBJECT__44
10
-34.488998
20
-212.016006
30
-40.495998
70
192
0
VERTEX
8
OBJECT__44
10
-34.488998
20
-207.171005
30
-177.529999
70
192
0
VERTEX
8
OBJECT__44
10
34.488998
20
-202.326004
30
-314.565002
70
192
0
VERTEX
8
OBJECT__44
10
-34.488998
20
-202.326004
30
-314.565002
70
192
0
VERTEX
8
OBJECT__44
10
0
20
0
30
0
70
128
71
1
72
2
73
3
0
VERTEX
8
OBJECT__44
10
0
20
0
30
0
70
128
71
3
72
4
73
1
0
VERTEX
8
OBJECT__44
10
0
20
0
30
0
70
128
71
3
72
5
73
4
0
SEQEND
8
OBJECT__44
0
POLYLINE
8
OBJECT__45
66
1
70
64
71
13
72
11
62
253
0
VERTEX
8
OBJECT__45
10
-45.803001
20
-197.641998
30
-314.399994
70
192
0
VERTEX
8
OBJECT__45
10
-45.799000
20
-197.643997
30
-314.399994
70
192
0
VERTEX
8
OBJECT__45
10
-34.488998
20
-207.171005
30
-177.529999
70
192
0
VERTEX
8
OBJECT__45
10
-41.708000
20
-210.294006
30
-40.495998
70
192
0
VERTEX
8
OBJECT__45
10
-34.488998
20
-212.016006
30
-40.495998
70
192
0
VERTEX
8
OBJECT__45
10
-38.200001
20
-211.578995
30
-40.495998
70
192
0
VERTEX
8
OBJECT__45
10
-34.488998
20
-202.326004
30
-314.565002
70
192
0
VERTEX
8
OBJECT__45
10
-45.765999
20
-207.382004
30
-39.972000
70
192
0
VERTEX
8
OBJECT__45
10
-50.488998
20
-186.335999
30
-314.000000
70
192
0
VERTEX
8
OBJECT__45
10
-48.675999
20
-203.464996
30
-38.897999
70
192
0
VERTEX
8
OBJECT__45
10
-50.339001
20
-198.285004
30
-37.967999
70
192
0
VERTEX
8
OBJECT__45
10
-45.797001
20
-207.341003
30
-39.960999
70
192
0
VERTEX
8
OBJECT__45
10
-50.488998
20
-196.098007
30
-37.869999
70
192
0
VERTEX
8
OBJECT__45
10
0
20
0
30
0
70
128
71
1
72
2
73
3
0
VERTEX
8
OBJECT__45
10
0
20
0
30
0
70
128
71
3
72
4
73
1
0
VERTEX
8
OBJECT__45
10
0
20
0
30
0
70
128
71
3
72
5
73
6
0
VERTEX
8
OBJECT__45
10
0
20
0
30
0
70
128
71
3
72
6
73
4
0
VERTEX
8
OBJECT__45
10
0
20
0
30
0
70
128
71
2
72
7
73
3
0
VERTEX
8
OBJECT__45
10
0
20
0
30
0
70
128
71
4
72
8
73
1
0
VERTEX
8
OBJECT__45
10
0
20
0
30
0
70
128
71
9
72
10
73
11
0
VERTEX
8
OBJECT__45
10
0
20
0
30
0
70
128
71
9
72
1
73
12
0
VERTEX
8
OBJECT__45
10
0
20
0
30
0
70
128
71
12
72
10
73
9
0
VERTEX
8
OBJECT__45
10
0
20
0
30
0
70
128
71
11
72
13
73
9
0
VERTEX
8
OBJECT__45
10
0
20
0
30
0
70
128
71
8
72
12
73
1
0
SEQEND
8
OBJECT__45
0
POLYLINE
8
OBJECT__46
66
1
70
64
71
12
72
10
62
253
0
VERTEX
8
OBJECT__46
10
50.488998
20
-186.335999
30
-314.000000
70
192
0
VERTEX
8
OBJECT__46
10
47.553001
20
-205.289001
30
-39.389999
70
192
0
VERTEX
8
OBJECT__46
10
45.641998
20
-207.186996
30
-39.880001
70
192
0
VERTEX
8
OBJECT__46
10
50.488998
20
-196.098007
30
-37.869999
70
192
0
VERTEX
8
OBJECT__46
10
49.723000
20
-200.977997
30
-38.342999
70
192
0
VERTEX
8
OBJECT__46
10
34.488998
20
-202.326004
30
-314.565002
70
192
0
VERTEX
8
OBJECT__46
10
45.799000
20
-197.643997
30
-314.399994
70
192
0
VERTEX
8
OBJECT__46
10
41.708000
20
-210.294006
30
-40.495998
70
192
0
VERTEX
8
OBJECT__46
10
38.200001
20
-211.578995
30
-40.495998
70
192
0
VERTEX
8
OBJECT__46
10
45.803001
20
-197.641998
30
-314.399994
70
192
0
VERTEX
8
OBJECT__46
10
43.751999
20
-209.065002
30
-40.363998
70
192
0
VERTEX
8
OBJECT__46
10
34.488998
20
-212.016006
30
-40.495998
70
192
0
VERTEX
8
OBJECT__46
10
0
20
0
30
0
70
128
71
1
72
2
73
3
0
VERTEX
8
OBJECT__46
10
0
20
0
30
0
70
128
71
1
72
4
73
5
0
VERTEX
8
OBJECT__46
10
0
20
0
30
0
70
128
71
5
72
2
73
1
0
VERTEX
8
OBJECT__46
10
0
20
0
30
0
70
128
71
6
72
7
73
8
0
VERTEX
8
OBJECT__46
10
0
20
0
30
0
70
128
71
8
72
9
73
6
0
VERTEX
8
OBJECT__46
10
0
20
0
30
0
70
128
71
10
72
11
73
8
0
VERTEX
8
OBJECT__46
10
0
20
0
30
0
70
128
71
8
72
7
73
10
0
VERTEX
8
OBJECT__46
10
0
20
0
30
0
70
128
71
10
72
3
73
11
0
VERTEX
8
OBJECT__46
10
0
20
0
30
0
70
128
71
9
72
12
73
6
0
VERTEX
8
OBJECT__46
10
0
20
0
30
0
70
128
71
3
72
10
73
1
0
SEQEND
8
OBJECT__46
0
POLYLINE
8
OBJECT__47
66
1
70
64
71
8
72
6
62
253
0
VERTEX
8
OBJECT__47
10
50.488998
20
-196.098007
30
-37.869999
70
192
0
VERTEX
8
OBJECT__47
10
50.488998
20
-46.213001
30
-344.000000
70
192
0
VERTEX
8
OBJECT__47
10
50.488998
20
46.213001
30
-344.000000
70
192
0
VERTEX
8
OBJECT__47
10
50.488998
20
-98.174004
30
-314.000000
70
192
0
VERTEX
8
OBJECT__47
10
50.488998
20
196.098007
30
-37.869999
70
192
0
VERTEX
8
OBJECT__47
10
50.488998
20
98.174004
30
-314.000000
70
192
0
VERTEX
8
OBJECT__47
10
50.488998
20
-186.335999
30
-314.000000
70
192
0
VERTEX
8
OBJECT__47
10
50.488998
20
186.335999
30
-314.000000
70
192
0
VERTEX
8
OBJECT__47
10
0
20
0
30
0
70
128
71
1
72
2
73
3
0
VERTEX
8
OBJECT__47
10
0
20
0
30
0
70
128
71
1
72
4
73
2
0
VERTEX
8
OBJECT__47
10
0
20
0
30
0
70
128
71
5
72
1
73
6
0
VERTEX
8
OBJECT__47
10
0
20
0
30
0
70
128
71
1
72
7
73
4
0
VERTEX
8
OBJECT__47
10
0
20
0
30
0
70
128
71
3
72
6
73
1
0
VERTEX
8
OBJECT__47
10
0
20
0
30
0
70
128
71
6
72
8
73
5
0
SEQEND
8
OBJECT__47
0
POLYLINE
8
OBJECT__48
66
1
70
64
71
8
72
6
62
253
0
VERTEX
8
OBJECT__48
10
-41.708000
20
-217.050003
30
-40.495998
70
192
0
VERTEX
8
OBJECT__48
10
-34.488998
20
-212.016006
30
-40.495998
70
192
0
VERTEX
8
OBJECT__48
10
34.488998
20
-212.016006
30
-40.495998
70
192
0
VERTEX
8
OBJECT__48
10
41.708000
20
-217.050003
30
-40.495998
70
192
0
VERTEX
8
OBJECT__48
10
-38.200001
20
-211.578995
30
-40.495998
70
192
0
VERTEX
8
OBJECT__48
10
-41.708000
20
-210.294006
30
-40.495998
70
192
0
VERTEX
8
OBJECT__48
10
38.200001
20
-211.578995
30
-40.495998
70
192
0
VERTEX
8
OBJECT__48
10
41.708000
20
-210.294006
30
-40.495998
70
192
0
VERTEX
8
OBJECT__48
10
0
20
0
30
0
70
128
71
1
72
2
73
3
0
VERTEX
8
OBJECT__48
10
0
20
0
30
0
70
128
71
3
72
4
73
1
0
VERTEX
8
OBJECT__48
10
0
20
0
30
0
70
128
71
1
72
5
73
2
0
VERTEX
8
OBJECT__48
10
0
20
0
30
0
70
128
71
1
72
6
73
5
0
VERTEX
8
OBJECT__48
10
0
20
0
30
0
70
128
71
3
72
7
73
4
0
VERTEX
8
OBJECT__48
10
0
20
0
30
0
70
128
71
7
72
8
73
4
0
SEQEND
8
OBJECT__48
0
POLYLINE
8
OBJECT__49
66
1
70
64
71
8
72
6
62
253
0
VERTEX
8
OBJECT__49
10
-42.216000
20
52.612000
30
-355.084991
70
192
0
VERTEX
8
OBJECT__49
10
-34.488998
20
46.213001
30
-360.000000
70
192
0
VERTEX
8
OBJECT__49
10
-45.792000
20
46.213001
30
-355.286987
70
192
0
VERTEX
8
OBJECT__49
10
-45.855999
20
46.213001
30
-355.260010
70
192
0
VERTEX
8
OBJECT__49
10
-50.488998
20
46.213001
30
-344.000000
70
192
0
VERTEX
8
OBJECT__49
10
-45.803001
20
51.869999
30
-353.798004
70
192
0
VERTEX
8
OBJECT__49
10
-41.928001
20
52.672001
30
-355.187988
70
192
0
VERTEX
8
OBJECT__49
10
-34.488998
20
54.213001
30
-357.855988
70
192
0
VERTEX
8
OBJECT__49
10
0
20
0
30
0
70
128
71
1
72
2
73
3
0
VERTEX
8
OBJECT__49
10
0
20
0
30
0
70
128
71
4
72
5
73
6
0
VERTEX
8
OBJECT__49
10
0
20
0
30
0
70
128
71
2
72
1
73
7
0
VERTEX
8
OBJECT__49
10
0
20
0
30
0
70
128
71
7
72
8
73
2
0
VERTEX
8
OBJECT__49
10
0
20
0
30
0
70
128
71
6
72
1
73
4
0
VERTEX
8
OBJECT__49
10
0
20
0
30
0
70
128
71
3
72
4
73
1
0
SEQEND
8
OBJECT__49
0
POLYLINE
8
OBJECT__50
66
1
70
64
71
4
72
2
62
253
0
VERTEX
8
OBJECT__50
10
34.488998
20
102.461998
30
-330.000000
70
192
0
VERTEX
8
OBJECT__50
10
34.488998
20
54.213001
30
-357.855988
70
192
0
VERTEX
8
OBJECT__50
10
-34.488998
20
54.213001
30
-357.855988
70
192
0
VERTEX
8
OBJECT__50
10
-34.488998
20
102.461998
30
-330.000000
70
192
0
VERTEX
8
OBJECT__50
10
0
20
0
30
0
70
128
71
1
72
2
73
3
0
VERTEX
8
OBJECT__50
10
0
20
0
30
0
70
128
71
3
72
4
73
1
0
SEQEND
8
OBJECT__50
0
POLYLINE
8
OBJECT__51
66
1
70
64
71
9
72
7
62
253
0
VERTEX
8
OBJECT__51
10
45.855999
20
186.335999
30
-325.260010
70
192
0
VERTEX
8
OBJECT__51
10
50.488998
20
98.174004
30
-314.000000
70
192
0
VERTEX
8
OBJECT__51
10
44.237999
20
100.950996
30
-324.360992
70
192
0
VERTEX
8
OBJECT__51
10
45.792000
20
186.335999
30
-325.286987
70
192
0
VERTEX
8
OBJECT__51
10
50.488998
20
186.335999
30
-314.000000
70
192
0
VERTEX
8
OBJECT__51
10
41.950001
20
101.967003
30
-328.153992
70
192
0
VERTEX
8
OBJECT__51
10
34.488998
20
102.461998
30
-330.000000
70
192
0
VERTEX
8
OBJECT__51
10
34.488998
20
144.399002
30
-330.000000
70
192
0
VERTEX
8
OBJECT__51
10
34.488998
20
186.335999
30
-330.000000
70
192
0
VERTEX
8
OBJECT__51
10
0
20
0
30
0
70
128
71
1
72
2
73
3
0
VERTEX
8
OBJECT__51
10
0
20
0
30
0
70
128
71
3
72
4
73
1
0
VERTEX
8
OBJECT__51
10
0
20
0
30
0
70
128
71
1
72
5
73
2
0
VERTEX
8
OBJECT__51
10
0
20
0
30
0
70
128
71
6
72
7
73
8
0
VERTEX
8
OBJECT__51
10
0
20
0
30
0
70
128
71
8
72
4
73
6
0
VERTEX
8
OBJECT__51
10
0
20
0
30
0
70
128
71
4
72
3
73
6
0
VERTEX
8
OBJECT__51
10
0
20
0
30
0
70
128
71
8
72
9
73
4
0
SEQEND
8
OBJECT__51
0
POLYLINE
8
OBJECT__52
66
1
70
64
71
9
72
7
62
253
0
VERTEX
8
OBJECT__52
10
-50.488998
20
46.213001
30
-344.000000
70
192
0
VERTEX
8
OBJECT__52
10
-48.644001
20
100.172997
30
-321.459991
70
192
0
VERTEX
8
OBJECT__52
10
-44.854000
20
100.786003
30
-323.747009
70
192
0
VERTEX
8
OBJECT__52
10
-50.488998
20
98.174004
30
-314.000000
70
192
0
VERTEX
8
OBJECT__52
10
-41.928001
20
52.672001
30
-355.187988
70
192
0
VERTEX
8
OBJECT__52
10
-42.216000
20
52.612000
30
-355.084991
70
192
0
VERTEX
8
OBJECT__52
10
-34.488998
20
102.461998
30
-330.000000
70
192
0
VERTEX
8
OBJECT__52
10
-34.488998
20
54.213001
30
-357.855988
70
192
0
VERTEX
8
OBJECT__52
10
-45.803001
20
51.869999
30
-353.798004
70
192
0
VERTEX
8
OBJECT__52
10
0
20
0
30
0
70
128
71
1
72
2
73
3
0
VERTEX
8
OBJECT__52
10
0
20
0
30
0
70
128
71
1
72
4
73
2
0
VERTEX
8
OBJECT__52
10
0
20
0
30
0
70
128
71
3
72
5
73
6
0
VERTEX
8
OBJECT__52
10
0
20
0
30
0
70
128
71
5
72
3
73
7
0
VERTEX
8
OBJECT__52
10
0
20
0
30
0
70
128
71
7
72
8
73
5
0
VERTEX
8
OBJECT__52
10
0
20
0
30
0
70
128
71
6
72
9
73
3
0
VERTEX
8
OBJECT__52
10
0
20
0
30
0
70
128
71
3
72
9
73
1
0
SEQEND
8
OBJECT__52
0
POLYLINE
8
OBJECT__53
66
1
70
64
71
8
72
6
62
253
0
VERTEX
8
OBJECT__53
10
-50.488998
20
196.098007
30
-37.869999
70
192
0
VERTEX
8
OBJECT__53
10
-50.488998
20
46.213001
30
-344.000000
70
192
0
VERTEX
8
OBJECT__53
10
-50.488998
20
-46.213001
30
-344.000000
70
192
0
VERTEX
8
OBJECT__53
10
-50.488998
20
98.174004
30
-314.000000
70
192
0
VERTEX
8
OBJECT__53
10
-50.488998
20
-196.098007
30
-37.869999
70
192
0
VERTEX
8
OBJECT__53
10
-50.488998
20
-98.174004
30
-314.000000
70
192
0
VERTEX
8
OBJECT__53
10
-50.488998
20
186.335999
30
-314.000000
70
192
0
VERTEX
8
OBJECT__53
10
-50.488998
20
-186.335999
30
-314.000000
70
192
0
VERTEX
8
OBJECT__53
10
0
20
0
30
0
70
128
71
1
72
2
73
3
0
VERTEX
8
OBJECT__53
10
0
20
0
30
0
70
128
71
1
72
4
73
2
0
VERTEX
8
OBJECT__53
10
0
20
0
30
0
70
128
71
5
72
1
73
6
0
VERTEX
8
OBJECT__53
10
0
20
0
30
0
70
128
71
1
72
7
73
4
0
VERTEX
8
OBJECT__53
10
0
20
0
30
0
70
128
71
3
72
6
73
1
0
VERTEX
8
OBJECT__53
10
0
20
0
30
0
70
128
71
6
72
8
73
5
0
SEQEND
8
OBJECT__53
0
POLYLINE
8
OBJECT__54
66
1
70
64
71
5
72
3
62
253
0
VERTEX
8
OBJECT__54
10
-34.488998
20
102.461998
30
-330.000000
70
192
0
VERTEX
8
OBJECT__54
10
-34.488998
20
186.335999
30
-330.000000
70
192
0
VERTEX
8
OBJECT__54
10
34.488998
20
144.399002
30
-330.000000
70
192
0
VERTEX
8
OBJECT__54
10
34.488998
20
186.335999
30
-330.000000
70
192
0
VERTEX
8
OBJECT__54
10
34.488998
20
102.461998
30
-330.000000
70
192
0
VERTEX
8
OBJECT__54
10
0
20
0
30
0
70
128
71
1
72
2
73
3
0
VERTEX
8
OBJECT__54
10
0
20
0
30
0
70
128
71
2
72
4
73
3
0
VERTEX
8
OBJECT__54
10
0
20
0
30
0
70
128
71
3
72
5
73
1
0
SEQEND
8
OBJECT__54
0
POLYLINE
8
OBJECT__55
66
1
70
64
71
10
72
9
62
253
0
VERTEX
8
OBJECT__55
10
42.527000
20
194.373001
30
-325.260010
70
192
0
VERTEX
8
OBJECT__55
10
34.488998
20
186.335999
30
-330.000000
70
192
0
VERTEX
8
OBJECT__55
10
34.488998
20
197.395996
30
-325.388000
70
192
0
VERTEX
8
OBJECT__55
10
45.855999
20
186.335999
30
-325.260010
70
192
0
VERTEX
8
OBJECT__55
10
45.792000
20
186.335999
30
-325.286987
70
192
0
VERTEX
8
OBJECT__55
10
45.799000
20
197.643997
30
-314.399994
70
192
0
VERTEX
8
OBJECT__55
10
34.488998
20
197.703003
30
-325.260010
70
192
0
VERTEX
8
OBJECT__55
10
45.803001
20
197.641998
30
-314.399994
70
192
0
VERTEX
8
OBJECT__55
10
50.488998
20
186.335999
30
-314.000000
70
192
0
VERTEX
8
OBJECT__55
10
34.488998
20
202.326004
30
-314.565002
70
192
0
VERTEX
8
OBJECT__55
10
0
20
0
30
0
70
128
71
1
72
2
73
3
0
VERTEX
8
OBJECT__55
10
0
20
0
30
0
70
128
71
1
72
4
73
5
0
VERTEX
8
OBJECT__55
10
0
20
0
30
0
70
128
71
6
72
1
73
7
0
VERTEX
8
OBJECT__55
10
0
20
0
30
0
70
128
71
8
72
9
73
4
0
VERTEX
8
OBJECT__55
10
0
20
0
30
0
70
128
71
1
72
6
73
8
0
VERTEX
8
OBJECT__55
10
0
20
0
30
0
70
128
71
4
72
1
73
8
0
VERTEX
8
OBJECT__55
10
0
20
0
30
0
70
128
71
7
72
10
73
6
0
VERTEX
8
OBJECT__55
10
0
20
0
30
0
70
128
71
5
72
2
73
1
0
VERTEX
8
OBJECT__55
10
0
20
0
30
0
70
128
71
3
72
7
73
1
0
SEQEND
8
OBJECT__55
0
POLYLINE
8
OBJECT__56
66
1
70
64
71
8
72
6
62
253
0
VERTEX
8
OBJECT__56
10
-45.792000
20
186.335999
30
-325.286987
70
192
0
VERTEX
8
OBJECT__56
10
-34.488998
20
186.335999
30
-330.000000
70
192
0
VERTEX
8
OBJECT__56
10
-34.488998
20
102.461998
30
-330.000000
70
192
0
VERTEX
8
OBJECT__56
10
-50.488998
20
186.335999
30
-314.000000
70
192
0
VERTEX
8
OBJECT__56
10
-45.855999
20
186.335999
30
-325.260010
70
192
0
VERTEX
8
OBJECT__56
10
-44.854000
20
100.786003
30
-323.747009
70
192
0
VERTEX
8
OBJECT__56
10
-48.644001
20
100.172997
30
-321.459991
70
192
0
VERTEX
8
OBJECT__56
10
-50.488998
20
98.174004
30
-314.000000
70
192
0
VERTEX
8
OBJECT__56
10
0
20
0
30
0
70
128
71
1
72
2
73
3
0
VERTEX
8
OBJECT__56
10
0
20
0
30
0
70
128
71
4
72
5
73
6
0
VERTEX
8
OBJECT__56
10
0
20
0
30
0
70
128
71
6
72
7
73
4
0
VERTEX
8
OBJECT__56
10
0
20
0
30
0
70
128
71
5
72
1
73
6
0
VERTEX
8
OBJECT__56
10
0
20
0
30
0
70
128
71
7
72
8
73
4
0
VERTEX
8
OBJECT__56
10
0
20
0
30
0
70
128
71
3
72
6
73
1
0
SEQEND
8
OBJECT__56
0
POLYLINE
8
OBJECT__57
66
1
70
64
71
10
72
9
62
253
0
VERTEX
8
OBJECT__57
10
-42.527000
20
194.373001
30
-325.260010
70
192
0
VERTEX
8
OBJECT__57
10
-34.488998
20
186.335999
30
-330.000000
70
192
0
VERTEX
8
OBJECT__57
10
-45.792000
20
186.335999
30
-325.286987
70
192
0
VERTEX
8
OBJECT__57
10
-34.488998
20
197.703003
30
-325.260010
70
192
0
VERTEX
8
OBJECT__57
10
-34.488998
20
197.395996
30
-325.388000
70
192
0
VERTEX
8
OBJECT__57
10
-50.488998
20
186.335999
30
-314.000000
70
192
0
VERTEX
8
OBJECT__57
10
-45.803001
20
197.641998
30
-314.399994
70
192
0
VERTEX
8
OBJECT__57
10
-45.855999
20
186.335999
30
-325.260010
70
192
0
VERTEX
8
OBJECT__57
10
-45.799000
20
197.643997
30
-314.399994
70
192
0
VERTEX
8
OBJECT__57
10
-34.488998
20
202.326004
30
-314.565002
70
192
0
VERTEX
8
OBJECT__57
10
0
20
0
30
0
70
128
71
1
72
2
73
3
0
VERTEX
8
OBJECT__57
10
0
20
0
30
0
70
128
71
1
72
4
73
5
0
VERTEX
8
OBJECT__57
10
0
20
0
30
0
70
128
71
6
72
7
73
1
0
VERTEX
8
OBJECT__57
10
0
20
0
30
0
70
128
71
1
72
8
73
6
0
VERTEX
8
OBJECT__57
10
0
20
0
30
0
70
128
71
9
72
10
73
4
0
VERTEX
8
OBJECT__57
10
0
20
0
30
0
70
128
71
4
72
1
73
9
0
VERTEX
8
OBJECT__57
10
0
20
0
30
0
70
128
71
7
72
9
73
1
0
VERTEX
8
OBJECT__57
10
0
20
0
30
0
70
128
71
5
72
2
73
1
0
VERTEX
8
OBJECT__57
10
0
20
0
30
0
70
128
71
3
72
8
73
1
0
SEQEND
8
OBJECT__57
0
POLYLINE
8
OBJECT__58
66
1
70
64
71
8
72
6
62
253
0
VERTEX
8
OBJECT__58
10
-34.488998
20
186.335999
30
-330.000000
70
192
0
VERTEX
8
OBJECT__58
10
-34.488998
20
197.395996
30
-325.388000
70
192
0
VERTEX
8
OBJECT__58
10
34.488998
20
197.395996
30
-325.388000
70
192
0
VERTEX
8
OBJECT__58
10
-34.488998
20
197.703003
30
-325.260010
70
192
0
VERTEX
8
OBJECT__58
10
-34.488998
20
202.326004
30
-314.565002
70
192
0
VERTEX
8
OBJECT__58
10
34.488998
20
202.326004
30
-314.565002
70
192
0
VERTEX
8
OBJECT__58
10
34.488998
20
197.703003
30
-325.260010
70
192
0
VERTEX
8
OBJECT__58
10
34.488998
20
186.335999
30
-330.000000
70
192
0
VERTEX
8
OBJECT__58
10
0
20
0
30
0
70
128
71
1
72
2
73
3
0
VERTEX
8
OBJECT__58
10
0
20
0
30
0
70
128
71
4
72
5
73
6
0
VERTEX
8
OBJECT__58
10
0
20
0
30
0
70
128
71
2
72
4
73
7
0
VERTEX
8
OBJECT__58
10
0
20
0
30
0
70
128
71
7
72
3
73
2
0
VERTEX
8
OBJECT__58
10
0
20
0
30
0
70
128
71
6
72
7
73
4
0
VERTEX
8
OBJECT__58
10
0
20
0
30
0
70
128
71
3
72
8
73
1
0
SEQEND
8
OBJECT__58
0
POLYLINE
8
OBJECT__59
66
1
70
64
71
12
72
10
62
253
0
VERTEX
8
OBJECT__59
10
-50.488998
20
186.335999
30
-314.000000
70
192
0
VERTEX
8
OBJECT__59
10
-47.553001
20
205.289001
30
-39.389999
70
192
0
VERTEX
8
OBJECT__59
10
-45.641998
20
207.186996
30
-39.880001
70
192
0
VERTEX
8
OBJECT__59
10
-50.488998
20
196.098007
30
-37.869999
70
192
0
VERTEX
8
OBJECT__59
10
-49.723000
20
200.977997
30
-38.342999
70
192
0
VERTEX
8
OBJECT__59
10
-34.488998
20
202.326004
30
-314.565002
70
192
0
VERTEX
8
OBJECT__59
10
-45.799000
20
197.643997
30
-314.399994
70
192
0
VERTEX
8
OBJECT__59
10
-41.708000
20
210.294006
30
-40.495998
70
192
0
VERTEX
8
OBJECT__59
10
-38.200001
20
211.578995
30
-40.495998
70
192
0
VERTEX
8
OBJECT__59
10
-45.803001
20
197.641998
30
-314.399994
70
192
0
VERTEX
8
OBJECT__59
10
-43.751999
20
209.065002
30
-40.363998
70
192
0
VERTEX
8
OBJECT__59
10
-34.488998
20
212.016006
30
-40.495998
70
192
0
VERTEX
8
OBJECT__59
10
0
20
0
30
0
70
128
71
1
72
2
73
3
0
VERTEX
8
OBJECT__59
10
0
20
0
30
0
70
128
71
1
72
4
73
5
0
VERTEX
8
OBJECT__59
10
0
20
0
30
0
70
128
71
5
72
2
73
1
0
VERTEX
8
OBJECT__59
10
0
20
0
30
0
70
128
71
6
72
7
73
8
0
VERTEX
8
OBJECT__59
10
0
20
0
30
0
70
128
71
8
72
9
73
6
0
VERTEX
8
OBJECT__59
10
0
20
0
30
0
70
128
71
10
72
11
73
8
0
VERTEX
8
OBJECT__59
10
0
20
0
30
0
70
128
71
8
72
7
73
10
0
VERTEX
8
OBJECT__59
10
0
20
0
30
0
70
128
71
10
72
3
73
11
0
VERTEX
8
OBJECT__59
10
0
20
0
30
0
70
128
71
9
72
12
73
6
0
VERTEX
8
OBJECT__59
10
0
20
0
30
0
70
128
71
3
72
10
73
1
0
SEQEND
8
OBJECT__59
0
POLYLINE
8
OBJECT__60
66
1
70
64
71
12
72
10
62
253
0
VERTEX
8
OBJECT__60
10
41.708000
20
210.294006
30
-40.495998
70
192
0
VERTEX
8
OBJECT__60
10
45.803001
20
197.641998
30
-314.399994
70
192
0
VERTEX
8
OBJECT__60
10
45.799000
20
197.643997
30
-314.399994
70
192
0
VERTEX
8
OBJECT__60
10
34.488998
20
212.016006
30
-40.495998
70
192
0
VERTEX
8
OBJECT__60
10
38.200001
20
211.578995
30
-40.495998
70
192
0
VERTEX
8
OBJECT__60
10
34.488998
20
202.326004
30
-314.565002
70
192
0
VERTEX
8
OBJECT__60
10
45.765999
20
207.382004
30
-39.972000
70
192
0
VERTEX
8
OBJECT__60
10
50.488998
20
186.335999
30
-314.000000
70
192
0
VERTEX
8
OBJECT__60
10
48.675999
20
203.464996
30
-38.897999
70
192
0
VERTEX
8
OBJECT__60
10
50.339001
20
198.285004
30
-37.967999
70
192
0
VERTEX
8
OBJECT__60
10
45.797001
20
207.341003
30
-39.960999
70
192
0
VERTEX
8
OBJECT__60
10
50.488998
20
196.098007
30
-37.869999
70
192
0
VERTEX
8
OBJECT__60
10
0
20
0
30
0
70
128
71
1
72
2
73
3
0
VERTEX
8
OBJECT__60
10
0
20
0
30
0
70
128
71
3
72
4
73
5
0
VERTEX
8
OBJECT__60
10
0
20
0
30
0
70
128
71
3
72
5
73
1
0
VERTEX
8
OBJECT__60
10
0
20
0
30
0
70
128
71
3
72
6
73
4
0
VERTEX
8
OBJECT__60
10
0
20
0
30
0
70
128
71
1
72
7
73
2
0
VERTEX
8
OBJECT__60
10
0
20
0
30
0
70
128
71
8
72
9
73
10
0
VERTEX
8
OBJECT__60
10
0
20
0
30
0
70
128
71
8
72
2
73
11
0
VERTEX
8
OBJECT__60
10
0
20
0
30
0
70
128
71
11
72
9
73
8
0
VERTEX
8
OBJECT__60
10
0
20
0
30
0
70
128
71
10
72
12
73
8
0
VERTEX
8
OBJECT__60
10
0
20
0
30
0
70
128
71
7
72
11
73
2
0
SEQEND
8
OBJECT__60
0
POLYLINE
8
OBJECT__61
66
1
70
64
71
4
72
2
62
253
0
VERTEX
8
OBJECT__61
10
34.488998
20
212.016006
30
-40.495998
70
192
0
VERTEX
8
OBJECT__61
10
34.488998
20
202.326004
30
-314.565002
70
192
0
VERTEX
8
OBJECT__61
10
-34.488998
20
202.326004
30
-314.565002
70
192
0
VERTEX
8
OBJECT__61
10
-34.488998
20
212.016006
30
-40.495998
70
192
0
VERTEX
8
OBJECT__61
10
0
20
0
30
0
70
128
71
1
72
2
73
3
0
VERTEX
8
OBJECT__61
10
0
20
0
30
0
70
128
71
3
72
4
73
1
0
SEQEND
8
OBJECT__61
0
POLYLINE
8
OBJECT__62
66
1
70
64
71
8
72
6
62
253
0
VERTEX
8
OBJECT__62
10
41.708000
20
217.050003
30
-40.495998
70
192
0
VERTEX
8
OBJECT__62
10
34.488998
20
212.016006
30
-40.495998
70
192
0
VERTEX
8
OBJECT__62
10
-34.488998
20
212.016006
30
-40.495998
70
192
0
VERTEX
8
OBJECT__62
10
-41.708000
20
217.050003
30
-40.495998
70
192
0
VERTEX
8
OBJECT__62
10
38.200001
20
211.578995
30
-40.495998
70
192
0
VERTEX
8
OBJECT__62
10
-38.200001
20
211.578995
30
-40.495998
70
192
0
VERTEX
8
OBJECT__62
10
41.708000
20
210.294006
30
-40.495998
70
192
0
VERTEX
8
OBJECT__62
10
-41.708000
20
210.294006
30
-40.495998
70
192
0
VERTEX
8
OBJECT__62
10
0
20
0
30
0
70
128
71
1
72
2
73
3
0
VERTEX
8
OBJECT__62
10
0
20
0
30
0
70
128
71
3
72
4
73
1
0
VERTEX
8
OBJECT__62
10
0
20
0
30
0
70
128
71
1
72
5
73
2
0
VERTEX
8
OBJECT__62
10
0
20
0
30
0
70
128
71
3
72
6
73
4
0
VERTEX
8
OBJECT__62
10
0
20
0
30
0
70
128
71
1
72
7
73
5
0
VERTEX
8
OBJECT__62
10
0
20
0
30
0
70
128
71
6
72
8
73
4
0
SEQEND
8
OBJECT__62
0
POLYLINE
8
OBJECT__63
66
1
70
64
71
20
72
18
62
253
0
VERTEX
8
OBJECT__63
10
-52.245998
20
-212.031998
30
-35.373001
70
192
0
VERTEX
8
OBJECT__63
10
-57.708000
20
-201.376007
30
-24.496000
70
192
0
VERTEX
8
OBJECT__63
10
-57.708000
20
201.376007
30
-24.496000
70
192
0
VERTEX
8
OBJECT__63
10
-51.264999
20
-213.947006
30
-37.327999
70
192
0
VERTEX
8
OBJECT__63
10
-45.765999
20
-207.382004
30
-39.972000
70
192
0
VERTEX
8
OBJECT__63
10
-41.708000
20
-210.294006
30
-40.495998
70
192
0
VERTEX
8
OBJECT__63
10
-45.797001
20
-207.341003
30
-39.960999
70
192
0
VERTEX
8
OBJECT__63
10
-48.675999
20
-203.464996
30
-38.897999
70
192
0
VERTEX
8
OBJECT__63
10
-52.245998
20
212.031998
30
-35.373001
70
192
0
VERTEX
8
OBJECT__63
10
-50.488998
20
196.098007
30
-37.869999
70
192
0
VERTEX
8
OBJECT__63
10
-50.488998
20
-196.098007
30
-37.869999
70
192
0
VERTEX
8
OBJECT__63
10
-49.723000
20
200.977997
30
-38.342999
70
192
0
VERTEX
8
OBJECT__63
10
-50.339001
20
-198.285004
30
-37.967999
70
192
0
VERTEX
8
OBJECT__63
10
-45.641998
20
207.186996
30
-39.880001
70
192
0
VERTEX
8
OBJECT__63
10
-47.553001
20
205.289001
30
-39.389999
70
192
0
VERTEX
8
OBJECT__63
10
-51.264999
20
213.947006
30
-37.327999
70
192
0
VERTEX
8
OBJECT__63
10
-43.751999
20
209.065002
30
-40.363998
70
192
0
VERTEX
8
OBJECT__63
10
-41.708000
20
217.050003
30
-40.495998
70
192
0
VERTEX
8
OBJECT__63
10
-41.708000
20
210.294006
30
-40.495998
70
192
0
VERTEX
8
OBJECT__63
10
-41.708000
20
-217.050003
30
-40.495998
70
192
0
VERTEX
8
OBJECT__63
10
0
20
0
30
0
70
128
71
1
72
2
73
3
0
VERTEX
8
OBJECT__63
10
0
20
0
30
0
70
128
71
4
72
5
73
6
0
VERTEX
8
OBJECT__63
10
0
20
0
30
0
70
128
71
1
72
7
73
5
0
VERTEX
8
OBJECT__63
10
0
20
0
30
0
70
128
71
1
72
8
73
7
0
VERTEX
8
OBJECT__63
10
0
20
0
30
0
70
128
71
5
72
4
73
1
0
VERTEX
8
OBJECT__63
10
0
20
0
30
0
70
128
71
1
72
9
73
10
0
VERTEX
8
OBJECT__63
10
0
20
0
30
0
70
128
71
10
72
11
73
1
0
VERTEX
8
OBJECT__63
10
0
20
0
30
0
70
128
71
9
72
12
73
10
0
VERTEX
8
OBJECT__63
10
0
20
0
30
0
70
128
71
11
72
13
73
1
0
VERTEX
8
OBJECT__63
10
0
20
0
30
0
70
128
71
13
72
8
73
1
0
VERTEX
8
OBJECT__63
10
0
20
0
30
0
70
128
71
14
72
15
73
9
0
VERTEX
8
OBJECT__63
10
0
20
0
30
0
70
128
71
16
72
17
73
14
0
VERTEX
8
OBJECT__63
10
0
20
0
30
0
70
128
71
16
72
18
73
19
0
VERTEX
8
OBJECT__63
10
0
20
0
30
0
70
128
71
19
72
17
73
16
0
VERTEX
8
OBJECT__63
10
0
20
0
30
0
70
128
71
9
72
16
73
14
0
VERTEX
8
OBJECT__63
10
0
20
0
30
0
70
128
71
15
72
12
73
9
0
VERTEX
8
OBJECT__63
10
0
20
0
30
0
70
128
71
6
72
20
73
4
0
VERTEX
8
OBJECT__63
10
0
20
0
30
0
70
128
71
3
72
9
73
1
0
SEQEND
8
OBJECT__63
0
POLYLINE
8
OBJECT__64
66
1
70
64
71
4
72
2
62
253
0
VERTEX
8
OBJECT__64
10
-57.708000
20
-203.940994
30
100.000000
70
192
0
VERTEX
8
OBJECT__64
10
-57.708000
20
203.940994
30
100.000000
70
192
0
VERTEX
8
OBJECT__64
10
-57.708000
20
201.376007
30
-24.496000
70
192
0
VERTEX
8
OBJECT__64
10
-57.708000
20
-201.376007
30
-24.496000
70
192
0
VERTEX
8
OBJECT__64
10
0
20
0
30
0
70
128
71
1
72
2
73
3
0
VERTEX
8
OBJECT__64
10
0
20
0
30
0
70
128
71
3
72
4
73
1
0
SEQEND
8
OBJECT__64
0
POLYLINE
8
OBJECT__65
66
1
70
64
71
9
72
7
62
253
0
VERTEX
8
OBJECT__65
10
-41.708000
20
219.944000
30
100.000000
70
192
0
VERTEX
8
OBJECT__65
10
-41.708000
20
217.050003
30
-40.495998
70
192
0
VERTEX
8
OBJECT__65
10
-51.264999
20
213.947006
30
-37.327999
70
192
0
VERTEX
8
OBJECT__65
10
-50.105000
20
217.563004
30
100.000000
70
192
0
VERTEX
8
OBJECT__65
10
-52.245998
20
212.031998
30
-35.373001
70
192
0
VERTEX
8
OBJECT__65
10
-52.584999
20
214.856995
30
100.000000
70
192
0
VERTEX
8
OBJECT__65
10
-56.004002
20
211.126999
30
100.000000
70
192
0
VERTEX
8
OBJECT__65
10
-57.708000
20
201.376007
30
-24.496000
70
192
0
VERTEX
8
OBJECT__65
10
-57.708000
20
203.940994
30
100.000000
70
192
0
VERTEX
8
OBJECT__65
10
0
20
0
30
0
70
128
71
1
72
2
73
3
0
VERTEX
8
OBJECT__65
10
0
20
0
30
0
70
128
71
4
72
3
73
5
0
VERTEX
8
OBJECT__65
10
0
20
0
30
0
70
128
71
5
72
6
73
4
0
VERTEX
8
OBJECT__65
10
0
20
0
30
0
70
128
71
7
72
5
73
8
0
VERTEX
8
OBJECT__65
10
0
20
0
30
0
70
128
71
8
72
9
73
7
0
VERTEX
8
OBJECT__65
10
0
20
0
30
0
70
128
71
7
72
6
73
5
0
VERTEX
8
OBJECT__65
10
0
20
0
30
0
70
128
71
3
72
4
73
1
0
SEQEND
8
OBJECT__65
0
POLYLINE
8
OBJECT__66
66
1
70
64
71
9
72
7
62
253
0
VERTEX
8
OBJECT__66
10
-48.893002
20
-218.240005
30
100.000000
70
192
0
VERTEX
8
OBJECT__66
10
-52.620998
20
-214.820999
30
100.000000
70
192
0
VERTEX
8
OBJECT__66
10
-52.245998
20
-212.031998
30
-35.373001
70
192
0
VERTEX
8
OBJECT__66
10
-41.708000
20
-219.944000
30
100.000000
70
192
0
VERTEX
8
OBJECT__66
10
-51.264999
20
-213.947006
30
-37.327999
70
192
0
VERTEX
8
OBJECT__66
10
-41.708000
20
-217.050003
30
-40.495998
70
192
0
VERTEX
8
OBJECT__66
10
-55.327000
20
-212.339996
30
100.000000
70
192
0
VERTEX
8
OBJECT__66
10
-57.708000
20
-203.940994
30
100.000000
70
192
0
VERTEX
8
OBJECT__66
10
-57.708000
20
-201.376007
30
-24.496000
70
192
0
VERTEX
8
OBJECT__66
10
0
20
0
30
0
70
128
71
1
72
2
73
3
0
VERTEX
8
OBJECT__66
10
0
20
0
30
0
70
128
71
4
72
1
73
5
0
VERTEX
8
OBJECT__66
10
0
20
0
30
0
70
128
71
5
72
6
73
4
0
VERTEX
8
OBJECT__66
10
0
20
0
30
0
70
128
71
7
72
8
73
9
0
VERTEX
8
OBJECT__66
10
0
20
0
30
0
70
128
71
3
72
2
73
7
0
VERTEX
8
OBJECT__66
10
0
20
0
30
0
70
128
71
9
72
3
73
7
0
VERTEX
8
OBJECT__66
10
0
20
0
30
0
70
128
71
3
72
5
73
1
0
SEQEND
8
OBJECT__66
0
POLYLINE
8
OBJECT__67
66
1
70
64
71
4
72
2
62
253
0
VERTEX
8
OBJECT__67
10
41.708000
20
-217.050003
30
-40.495998
70
192
0
VERTEX
8
OBJECT__67
10
41.708000
20
-219.944000
30
100.000000
70
192
0
VERTEX
8
OBJECT__67
10
-41.708000
20
-219.944000
30
100.000000
70
192
0
VERTEX
8
OBJECT__67
10
-41.708000
20
-217.050003
30
-40.495998
70
192
0
VERTEX
8
OBJECT__67
10
0
20
0
30
0
70
128
71
1
72
2
73
3
0
VERTEX
8
OBJECT__67
10
0
20
0
30
0
70
128
71
3
72
4
73
1
0
SEQEND
8
OBJECT__67
0
POLYLINE
8
OBJECT__68
66
1
70
64
71
4
72
2
62
253
0
VERTEX
8
OBJECT__68
10
41.708000
20
219.944000
30
100.000000
70
192
0
VERTEX
8
OBJECT__68
10
41.708000
20
217.050003
30
-40.495998
70
192
0
VERTEX
8
OBJECT__68
10
-41.708000
20
217.050003
30
-40.495998
70
192
0
VERTEX
8
OBJECT__68
10
-41.708000
20
219.944000
30
100.000000
70
192
0
VERTEX
8
OBJECT__68
10
0
20
0
30
0
70
128
71
1
72
2
73
3
0
VERTEX
8
OBJECT__68
10
0
20
0
30
0
70
128
71
3
72
4
73
1
0
SEQEND
8
OBJECT__68
0
POLYLINE
8
OBJECT__69
66
1
70
64
71
20
72
18
62
253
0
VERTEX
8
OBJECT__69
10
52.245998
20
212.031998
30
-35.373001
70
192
0
VERTEX
8
OBJECT__69
10
57.708000
20
201.376007
30
-24.496000
70
192
0
VERTEX
8
OBJECT__69
10
57.708000
20
-201.376007
30
-24.496000
70
192
0
VERTEX
8
OBJECT__69
10
51.264999
20
213.947006
30
-37.327999
70
192
0
VERTEX
8
OBJECT__69
10
45.765999
20
207.382004
30
-39.972000
70
192
0
VERTEX
8
OBJECT__69
10
41.708000
20
210.294006
30
-40.495998
70
192
0
VERTEX
8
OBJECT__69
10
45.797001
20
207.341003
30
-39.960999
70
192
0
VERTEX
8
OBJECT__69
10
48.675999
20
203.464996
30
-38.897999
70
192
0
VERTEX
8
OBJECT__69
10
52.245998
20
-212.031998
30
-35.373001
70
192
0
VERTEX
8
OBJECT__69
10
50.488998
20
-196.098007
30
-37.869999
70
192
0
VERTEX
8
OBJECT__69
10
50.488998
20
196.098007
30
-37.869999
70
192
0
VERTEX
8
OBJECT__69
10
49.723000
20
-200.977997
30
-38.342999
70
192
0
VERTEX
8
OBJECT__69
10
50.339001
20
198.285004
30
-37.967999
70
192
0
VERTEX
8
OBJECT__69
10
45.641998
20
-207.186996
30
-39.880001
70
192
0
VERTEX
8
OBJECT__69
10
47.553001
20
-205.289001
30
-39.389999
70
192
0
VERTEX
8
OBJECT__69
10
51.264999
20
-213.947006
30
-37.327999
70
192
0
VERTEX
8
OBJECT__69
10
43.751999
20
-209.065002
30
-40.363998
70
192
0
VERTEX
8
OBJECT__69
10
41.708000
20
-217.050003
30
-40.495998
70
192
0
VERTEX
8
OBJECT__69
10
41.708000
20
-210.294006
30
-40.495998
70
192
0
VERTEX
8
OBJECT__69
10
41.708000
20
217.050003
30
-40.495998
70
192
0
VERTEX
8
OBJECT__69
10
0
20
0
30
0
70
128
71
1
72
2
73
3
0
VERTEX
8
OBJECT__69
10
0
20
0
30
0
70
128
71
4
72
5
73
6
0
VERTEX
8
OBJECT__69
10
0
20
0
30
0
70
128
71
1
72
7
73
5
0
VERTEX
8
OBJECT__69
10
0
20
0
30
0
70
128
71
1
72
8
73
7
0
VERTEX
8
OBJECT__69
10
0
20
0
30
0
70
128
71
5
72
4
73
1
0
VERTEX
8
OBJECT__69
10
0
20
0
30
0
70
128
71
1
72
9
73
10
0
VERTEX
8
OBJECT__69
10
0
20
0
30
0
70
128
71
10
72
11
73
1
0
VERTEX
8
OBJECT__69
10
0
20
0
30
0
70
128
71
9
72
12
73
10
0
VERTEX
8
OBJECT__69
10
0
20
0
30
0
70
128
71
11
72
13
73
1
0
VERTEX
8
OBJECT__69
10
0
20
0
30
0
70
128
71
13
72
8
73
1
0
VERTEX
8
OBJECT__69
10
0
20
0
30
0
70
128
71
14
72
15
73
9
0
VERTEX
8
OBJECT__69
10
0
20
0
30
0
70
128
71
16
72
17
73
14
0
VERTEX
8
OBJECT__69
10
0
20
0
30
0
70
128
71
16
72
18
73
19
0
VERTEX
8
OBJECT__69
10
0
20
0
30
0
70
128
71
19
72
17
73
16
0
VERTEX
8
OBJECT__69
10
0
20
0
30
0
70
128
71
9
72
16
73
14
0
VERTEX
8
OBJECT__69
10
0
20
0
30
0
70
128
71
15
72
12
73
9
0
VERTEX
8
OBJECT__69
10
0
20
0
30
0
70
128
71
6
72
20
73
4
0
VERTEX
8
OBJECT__69
10
0
20
0
30
0
70
128
71
3
72
9
73
1
0
SEQEND
8
OBJECT__69
0
POLYLINE
8
OBJECT__70
66
1
70
64
71
10
72
8
62
253
0
VERTEX
8
OBJECT__70
10
56.091000
20
-210.949997
30
100.000000
70
192
0
VERTEX
8
OBJECT__70
10
52.245998
20
-212.031998
30
-35.373001
70
192
0
VERTEX
8
OBJECT__70
10
57.708000
20
-201.376007
30
-24.496000
70
192
0
VERTEX
8
OBJECT__70
10
57.708000
20
-203.940994
30
100.000000
70
192
0
VERTEX
8
OBJECT__70
10
46.923000
20
-219.070007
30
100.000000
70
192
0
VERTEX
8
OBJECT__70
10
41.708000
20
-217.050003
30
-40.495998
70
192
0
VERTEX
8
OBJECT__70
10
51.264999
20
-213.947006
30
-37.327999
70
192
0
VERTEX
8
OBJECT__70
10
51.568001
20
-216.544006
30
100.000000
70
192
0
VERTEX
8
OBJECT__70
10
52.771999
20
-215.054993
30
100.000000
70
192
0
VERTEX
8
OBJECT__70
10
41.708000
20
-219.944000
30
100.000000
70
192
0
VERTEX
8
OBJECT__70
10
0
20
0
30
0
70
128
71
1
72
2
73
3
0
VERTEX
8
OBJECT__70
10
0
20
0
30
0
70
128
71
3
72
4
73
1
0
VERTEX
8
OBJECT__70
10
0
20
0
30
0
70
128
71
5
72
6
73
7
0
VERTEX
8
OBJECT__70
10
0
20
0
30
0
70
128
71
8
72
7
73
2
0
VERTEX
8
OBJECT__70
10
0
20
0
30
0
70
128
71
2
72
9
73
8
0
VERTEX
8
OBJECT__70
10
0
20
0
30
0
70
128
71
7
72
8
73
5
0
VERTEX
8
OBJECT__70
10
0
20
0
30
0
70
128
71
5
72
10
73
6
0
VERTEX
8
OBJECT__70
10
0
20
0
30
0
70
128
71
1
72
9
73
2
0
SEQEND
8
OBJECT__70
0
POLYLINE
8
OBJECT__71
66
1
70
64
71
10
72
8
62
253
0
VERTEX
8
OBJECT__71
10
51.568001
20
216.544006
30
100.000000
70
192
0
VERTEX
8
OBJECT__71
10
52.771999
20
215.054993
30
100.000000
70
192
0
VERTEX
8
OBJECT__71
10
52.245998
20
212.031998
30
-35.373001
70
192
0
VERTEX
8
OBJECT__71
10
46.923000
20
219.070007
30
100.000000
70
192
0
VERTEX
8
OBJECT__71
10
51.264999
20
213.947006
30
-37.327999
70
192
0
VERTEX
8
OBJECT__71
10
41.708000
20
217.050003
30
-40.495998
70
192
0
VERTEX
8
OBJECT__71
10
41.708000
20
219.944000
30
100.000000
70
192
0
VERTEX
8
OBJECT__71
10
56.091000
20
210.949997
30
100.000000
70
192
0
VERTEX
8
OBJECT__71
10
57.708000
20
203.940994
30
100.000000
70
192
0
VERTEX
8
OBJECT__71
10
57.708000
20
201.376007
30
-24.496000
70
192
0
VERTEX
8
OBJECT__71
10
0
20
0
30
0
70
128
71
1
72
2
73
3
0
VERTEX
8
OBJECT__71
10
0
20
0
30
0
70
128
71
4
72
1
73
5
0
VERTEX
8
OBJECT__71
10
0
20
0
30
0
70
128
71
5
72
6
73
4
0
VERTEX
8
OBJECT__71
10
0
20
0
30
0
70
128
71
6
72
7
73
4
0
VERTEX
8
OBJECT__71
10
0
20
0
30
0
70
128
71
8
72
9
73
10
0
VERTEX
8
OBJECT__71
10
0
20
0
30
0
70
128
71
3
72
2
73
8
0
VERTEX
8
OBJECT__71
10
0
20
0
30
0
70
128
71
10
72
3
73
8
0
VERTEX
8
OBJECT__71
10
0
20
0
30
0
70
128
71
3
72
5
73
1
0
SEQEND
8
OBJECT__71
0
POLYLINE
8
OBJECT__72
66
1
70
64
71
6
72
4
62
253
0
VERTEX
8
OBJECT__72
10
56.048000
20
212.487000
30
100.000000
70
192
0
VERTEX
8
OBJECT__72
10
56.091000
20
210.949997
30
100.000000
70
192
0
VERTEX
8
OBJECT__72
10
52.771999
20
215.054993
30
100.000000
70
192
0
VERTEX
8
OBJECT__72
10
57.708000
20
206.675995
30
100.000000
70
192
0
VERTEX
8
OBJECT__72
10
57.708000
20
203.940994
30
100.000000
70
192
0
VERTEX
8
OBJECT__72
10
51.568001
20
216.544006
30
100.000000
70
192
0
VERTEX
8
OBJECT__72
10
0
20
0
30
0
70
128
71
1
72
2
73
3
0
VERTEX
8
OBJECT__72
10
0
20
0
30
0
70
128
71
4
72
5
73
2
0
VERTEX
8
OBJECT__72
10
0
20
0
30
0
70
128
71
2
72
1
73
4
0
VERTEX
8
OBJECT__72
10
0
20
0
30
0
70
128
71
3
72
6
73
1
0
SEQEND
8
OBJECT__72
0
POLYLINE
8
OBJECT__73
66
1
70
64
71
6
72
4
62
253
0
VERTEX
8
OBJECT__73
10
57.708000
20
-206.675995
30
100.000000
70
192
0
VERTEX
8
OBJECT__73
10
56.048000
20
-212.487000
30
100.000000
70
192
0
VERTEX
8
OBJECT__73
10
56.091000
20
-210.949997
30
100.000000
70
192
0
VERTEX
8
OBJECT__73
10
51.568001
20
-216.544006
30
100.000000
70
192
0
VERTEX
8
OBJECT__73
10
52.771999
20
-215.054993
30
100.000000
70
192
0
VERTEX
8
OBJECT__73
10
57.708000
20
-203.940994
30
100.000000
70
192
0
VERTEX
8
OBJECT__73
10
0
20
0
30
0
70
128
71
1
72
2
73
3
0
VERTEX
8
OBJECT__73
10
0
20
0
30
0
70
128
71
2
72
4
73
5
0
VERTEX
8
OBJECT__73
10
0
20
0
30
0
70
128
71
5
72
3
73
2
0
VERTEX
8
OBJECT__73
10
0
20
0
30
0
70
128
71
3
72
6
73
1
0
SEQEND
8
OBJECT__73
0
POLYLINE
8
OBJECT__74
66
1
70
64
71
10
72
8
62
253
0
VERTEX
8
OBJECT__74
10
57.708000
20
-201.376007
30
-24.496000
70
192
0
VERTEX
8
OBJECT__74
10
57.708000
20
201.376007
30
-24.496000
70
192
0
VERTEX
8
OBJECT__74
10
57.708000
20
93.000000
30
102.556999
70
192
0
VERTEX
8
OBJECT__74
10
57.708000
20
-93.000000
30
102.556999
70
192
0
VERTEX
8
OBJECT__74
10
57.708000
20
203.940994
30
100.000000
70
192
0
VERTEX
8
OBJECT__74
10
57.708000
20
-206.675995
30
102.556999
70
192
0
VERTEX
8
OBJECT__74
10
57.708000
20
-206.675995
30
100.000000
70
192
0
VERTEX
8
OBJECT__74
10
57.708000
20
-203.940994
30
100.000000
70
192
0
VERTEX
8
OBJECT__74
10
57.708000
20
206.675995
30
102.556999
70
192
0
VERTEX
8
OBJECT__74
10
57.708000
20
206.675995
30
100.000000
70
192
0
VERTEX
8
OBJECT__74
10
0
20
0
30
0
70
128
71
1
72
2
73
3
0
VERTEX
8
OBJECT__74
10
0
20
0
30
0
70
128
71
3
72
4
73
1
0
VERTEX
8
OBJECT__74
10
0
20
0
30
0
70
128
71
2
72
5
73
3
0
VERTEX
8
OBJECT__74
10
0
20
0
30
0
70
128
71
6
72
7
73
8
0
VERTEX
8
OBJECT__74
10
0
20
0
30
0
70
128
71
9
72
3
73
5
0
VERTEX
8
OBJECT__74
10
0
20
0
30
0
70
128
71
8
72
4
73
6
0
VERTEX
8
OBJECT__74
10
0
20
0
30
0
70
128
71
4
72
8
73
1
0
VERTEX
8
OBJECT__74
10
0
20
0
30
0
70
128
71
5
72
10
73
9
0
SEQEND
8
OBJECT__74
0
POLYLINE
8
OBJECT__75
66
1
70
64
71
8
72
6
62
253
0
VERTEX
8
OBJECT__75
10
46.708000
20
217.675995
30
102.556999
70
192
0
VERTEX
8
OBJECT__75
10
54.486000
20
214.453995
30
102.556999
70
192
0
VERTEX
8
OBJECT__75
10
51.568001
20
216.544006
30
100.000000
70
192
0
VERTEX
8
OBJECT__75
10
49.202999
20
217.389008
30
100.000000
70
192
0
VERTEX
8
OBJECT__75
10
56.048000
20
212.487000
30
100.000000
70
192
0
VERTEX
8
OBJECT__75
10
57.708000
20
206.675995
30
102.556999
70
192
0
VERTEX
8
OBJECT__75
10
57.708000
20
206.675995
30
100.000000
70
192
0
VERTEX
8
OBJECT__75
10
46.708000
20
217.675995
30
100.000000
70
192
0
VERTEX
8
OBJECT__75
10
0
20
0
30
0
70
128
71
1
72
2
73
3
0
VERTEX
8
OBJECT__75
10
0
20
0
30
0
70
128
71
3
72
4
73
1
0
VERTEX
8
OBJECT__75
10
0
20
0
30
0
70
128
71
2
72
5
73
3
0
VERTEX
8
OBJECT__75
10
0
20
0
30
0
70
128
71
6
72
7
73
5
0
VERTEX
8
OBJECT__75
10
0
20
0
30
0
70
128
71
5
72
2
73
6
0
VERTEX
8
OBJECT__75
10
0
20
0
30
0
70
128
71
4
72
8
73
1
0
SEQEND
8
OBJECT__75
0
POLYLINE
8
OBJECT__76
66
1
70
64
71
8
72
6
62
253
0
VERTEX
8
OBJECT__76
10
57.708000
20
-206.675995
30
102.556999
70
192
0
VERTEX
8
OBJECT__76
10
54.486000
20
-214.453995
30
102.556999
70
192
0
VERTEX
8
OBJECT__76
10
56.048000
20
-212.487000
30
100.000000
70
192
0
VERTEX
8
OBJECT__76
10
51.568001
20
-216.544006
30
100.000000
70
192
0
VERTEX
8
OBJECT__76
10
46.708000
20
-217.675995
30
102.556999
70
192
0
VERTEX
8
OBJECT__76
10
49.202999
20
-217.389008
30
100.000000
70
192
0
VERTEX
8
OBJECT__76
10
46.708000
20
-217.675995
30
100.000000
70
192
0
VERTEX
8
OBJECT__76
10
57.708000
20
-206.675995
30
100.000000
70
192
0
VERTEX
8
OBJECT__76
10
0
20
0
30
0
70
128
71
1
72
2
73
3
0
VERTEX
8
OBJECT__76
10
0
20
0
30
0
70
128
71
2
72
4
73
3
0
VERTEX
8
OBJECT__76
10
0
20
0
30
0
70
128
71
5
72
6
73
4
0
VERTEX
8
OBJECT__76
10
0
20
0
30
0
70
128
71
4
72
2
73
5
0
VERTEX
8
OBJECT__76
10
0
20
0
30
0
70
128
71
5
72
7
73
6
0
VERTEX
8
OBJECT__76
10
0
20
0
30
0
70
128
71
3
72
8
73
1
0
SEQEND
8
OBJECT__76
0
POLYLINE
8
OBJECT__77
66
1
70
64
71
4
72
2
62
253
0
VERTEX
8
OBJECT__77
10
46.708000
20
-217.675995
30
102.556999
70
192
0
VERTEX
8
OBJECT__77
10
-44.209999
20
-217.675995
30
102.556999
70
192
0
VERTEX
8
OBJECT__77
10
-44.209999
20
-217.675995
30
100.000000
70
192
0
VERTEX
8
OBJECT__77
10
46.708000
20
-217.675995
30
100.000000
70
192
0
VERTEX
8
OBJECT__77
10
0
20
0
30
0
70
128
71
1
72
2
73
3
0
VERTEX
8
OBJECT__77
10
0
20
0
30
0
70
128
71
3
72
4
73
1
0
SEQEND
8
OBJECT__77
0
POLYLINE
8
OBJECT__78
66
1
70
64
71
4
72
2
62
253
0
VERTEX
8
OBJECT__78
10
-44.209999
20
217.675995
30
102.556999
70
192
0
VERTEX
8
OBJECT__78
10
46.708000
20
217.675995
30
102.556999
70
192
0
VERTEX
8
OBJECT__78
10
46.708000
20
217.675995
30
100.000000
70
192
0
VERTEX
8
OBJECT__78
10
-44.209999
20
217.675995
30
100.000000
70
192
0
VERTEX
8
OBJECT__78
10
0
20
0
30
0
70
128
71
1
72
2
73
3
0
VERTEX
8
OBJECT__78
10
0
20
0
30
0
70
128
71
3
72
4
73
1
0
SEQEND
8
OBJECT__78
0
POLYLINE
8
OBJECT__79
66
1
70
64
71
28
72
26
62
253
0
VERTEX
8
OBJECT__79
10
-44.209999
20
217.675995
30
100.000000
70
192
0
VERTEX
8
OBJECT__79
10
46.708000
20
217.675995
30
100.000000
70
192
0
VERTEX
8
OBJECT__79
10
41.708000
20
219.944000
30
100.000000
70
192
0
VERTEX
8
OBJECT__79
10
-44.209999
20
-217.675995
30
100.000000
70
192
0
VERTEX
8
OBJECT__79
10
-41.708000
20
-219.944000
30
100.000000
70
192
0
VERTEX
8
OBJECT__79
10
41.708000
20
-219.944000
30
100.000000
70
192
0
VERTEX
8
OBJECT__79
10
46.923000
20
219.070007
30
100.000000
70
192
0
VERTEX
8
OBJECT__79
10
-56.004002
20
211.126999
30
100.000000
70
192
0
VERTEX
8
OBJECT__79
10
-57.708000
20
203.940994
30
100.000000
70
192
0
VERTEX
8
OBJECT__79
10
-55.209999
20
206.675995
30
100.000000
70
192
0
VERTEX
8
OBJECT__79
10
-57.708000
20
-203.940994
30
100.000000
70
192
0
VERTEX
8
OBJECT__79
10
46.708000
20
-217.675995
30
100.000000
70
192
0
VERTEX
8
OBJECT__79
10
-41.708000
20
219.944000
30
100.000000
70
192
0
VERTEX
8
OBJECT__79
10
-51.987999
20
214.453995
30
100.000000
70
192
0
VERTEX
8
OBJECT__79
10
-50.105000
20
217.563004
30
100.000000
70
192
0
VERTEX
8
OBJECT__79
10
-52.584999
20
214.856995
30
100.000000
70
192
0
VERTEX
8
OBJECT__79
10
-54.373001
20
210.886002
30
100.000000
70
192
0
VERTEX
8
OBJECT__79
10
-55.209999
20
-206.675995
30
100.000000
70
192
0
VERTEX
8
OBJECT__79
10
-51.987999
20
-214.453995
30
100.000000
70
192
0
VERTEX
8
OBJECT__79
10
-55.327000
20
-212.339996
30
100.000000
70
192
0
VERTEX
8
OBJECT__79
10
-48.893002
20
-218.240005
30
100.000000
70
192
0
VERTEX
8
OBJECT__79
10
46.923000
20
-219.070007
30
100.000000
70
192
0
VERTEX
8
OBJECT__79
10
49.202999
20
-217.389008
30
100.000000
70
192
0
VERTEX
8
OBJECT__79
10
49.202999
20
217.389008
30
100.000000
70
192
0
VERTEX
8
OBJECT__79
10
-52.620998
20
-214.820999
30
100.000000
70
192
0
VERTEX
8
OBJECT__79
10
-48.418999
20
-216.839005
30
100.000000
70
192
0
VERTEX
8
OBJECT__79
10
51.568001
20
-216.544006
30
100.000000
70
192
0
VERTEX
8
OBJECT__79
10
51.568001
20
216.544006
30
100.000000
70
192
0
VERTEX
8
OBJECT__79
10
0
20
0
30
0
70
128
71
1
72
2
73
3
0
VERTEX
8
OBJECT__79
10
0
20
0
30
0
70
128
71
4
72
5
73
6
0
VERTEX
8
OBJECT__79
10
0
20
0
30
0
70
128
71
2
72
7
73
3
0
VERTEX
8
OBJECT__79
10
0
20
0
30
0
70
128
71
8
72
9
73
10
0
VERTEX
8
OBJECT__79
10
0
20
0
30
0
70
128
71
10
72
9
73
11
0
VERTEX
8
OBJECT__79
10
0
20
0
30
0
70
128
71
6
72
12
73
4
0
VERTEX
8
OBJECT__79
10
0
20
0
30
0
70
128
71
3
72
13
73
1
0
VERTEX
8
OBJECT__79
10
0
20
0
30
0
70
128
71
14
72
1
73
15
0
VERTEX
8
OBJECT__79
10
0
20
0
30
0
70
128
71
16
72
8
73
17
0
VERTEX
8
OBJECT__79
10
0
20
0
30
0
70
128
71
11
72
18
73
10
0
VERTEX
8
OBJECT__79
10
0
20
0
30
0
70
128
71
19
72
18
73
20
0
VERTEX
8
OBJECT__79
10
0
20
0
30
0
70
128
71
21
72
5
73
4
0
VERTEX
8
OBJECT__79
10
0
20
0
30
0
70
128
71
22
72
23
73
12
0
VERTEX
8
OBJECT__79
10
0
20
0
30
0
70
128
71
2
72
24
73
7
0
VERTEX
8
OBJECT__79
10
0
20
0
30
0
70
128
71
15
72
16
73
14
0
VERTEX
8
OBJECT__79
10
0
20
0
30
0
70
128
71
10
72
17
73
8
0
VERTEX
8
OBJECT__79
10
0
20
0
30
0
70
128
71
20
72
25
73
19
0
VERTEX
8
OBJECT__79
10
0
20
0
30
0
70
128
71
6
72
22
73
12
0
VERTEX
8
OBJECT__79
10
0
20
0
30
0
70
128
71
1
72
13
73
15
0
VERTEX
8
OBJECT__79
10
0
20
0
30
0
70
128
71
18
72
11
73
20
0
VERTEX
8
OBJECT__79
10
0
20
0
30
0
70
128
71
21
72
26
73
19
0
VERTEX
8
OBJECT__79
10
0
20
0
30
0
70
128
71
22
72
27
73
23
0
VERTEX
8
OBJECT__79
10
0
20
0
30
0
70
128
71
17
72
14
73
16
0
VERTEX
8
OBJECT__79
10
0
20
0
30
0
70
128
71
4
72
26
73
21
0
VERTEX
8
OBJECT__79
10
0
20
0
30
0
70
128
71
19
72
25
73
21
0
VERTEX
8
OBJECT__79
10
0
20
0
30
0
70
128
71
24
72
28
73
7
0
SEQEND
8
OBJECT__79
0
POLYLINE
8
OBJECT__80
66
1
70
64
71
4
72
2
62
253
0
VERTEX
8
OBJECT__80
10
-55.209999
20
-206.675995
30
102.556999
70
192
0
VERTEX
8
OBJECT__80
10
-55.209999
20
206.675995
30
102.556999
70
192
0
VERTEX
8
OBJECT__80
10
-55.209999
20
206.675995
30
100.000000
70
192
0
VERTEX
8
OBJECT__80
10
-55.209999
20
-206.675995
30
100.000000
70
192
0
VERTEX
8
OBJECT__80
10
0
20
0
30
0
70
128
71
1
72
2
73
3
0
VERTEX
8
OBJECT__80
10
0
20
0
30
0
70
128
71
3
72
4
73
1
0
SEQEND
8
OBJECT__80
0
POLYLINE
8
OBJECT__81
66
1
70
64
71
7
72
5
62
253
0
VERTEX
8
OBJECT__81
10
-51.987999
20
-214.453995
30
102.556999
70
192
0
VERTEX
8
OBJECT__81
10
-51.987999
20
-214.453995
30
100.000000
70
192
0
VERTEX
8
OBJECT__81
10
-48.418999
20
-216.839005
30
100.000000
70
192
0
VERTEX
8
OBJECT__81
10
-44.209999
20
-217.675995
30
102.556999
70
192
0
VERTEX
8
OBJECT__81
10
-55.209999
20
-206.675995
30
100.000000
70
192
0
VERTEX
8
OBJECT__81
10
-55.209999
20
-206.675995
30
102.556999
70
192
0
VERTEX
8
OBJECT__81
10
-44.209999
20
-217.675995
30
100.000000
70
192
0
VERTEX
8
OBJECT__81
10
0
20
0
30
0
70
128
71
1
72
2
73
3
0
VERTEX
8
OBJECT__81
10
0
20
0
30
0
70
128
71
3
72
4
73
1
0
VERTEX
8
OBJECT__81
10
0
20
0
30
0
70
128
71
5
72
2
73
1
0
VERTEX
8
OBJECT__81
10
0
20
0
30
0
70
128
71
1
72
6
73
5
0
VERTEX
8
OBJECT__81
10
0
20
0
30
0
70
128
71
3
72
7
73
4
0
SEQEND
8
OBJECT__81
0
POLYLINE
8
OBJECT__82
66
1
70
64
71
7
72
5
62
253
0
VERTEX
8
OBJECT__82
10
-51.987999
20
214.453995
30
102.556999
70
192
0
VERTEX
8
OBJECT__82
10
-51.987999
20
214.453995
30
100.000000
70
192
0
VERTEX
8
OBJECT__82
10
-54.373001
20
210.886002
30
100.000000
70
192
0
VERTEX
8
OBJECT__82
10
-55.209999
20
206.675995
30
102.556999
70
192
0
VERTEX
8
OBJECT__82
10
-44.209999
20
217.675995
30
100.000000
70
192
0
VERTEX
8
OBJECT__82
10
-44.209999
20
217.675995
30
102.556999
70
192
0
VERTEX
8
OBJECT__82
10
-55.209999
20
206.675995
30
100.000000
70
192
0
VERTEX
8
OBJECT__82
10
0
20
0
30
0
70
128
71
1
72
2
73
3
0
VERTEX
8
OBJECT__82
10
0
20
0
30
0
70
128
71
3
72
4
73
1
0
VERTEX
8
OBJECT__82
10
0
20
0
30
0
70
128
71
5
72
2
73
1
0
VERTEX
8
OBJECT__82
10
0
20
0
30
0
70
128
71
1
72
6
73
5
0
VERTEX
8
OBJECT__82
10
0
20
0
30
0
70
128
71
3
72
7
73
4
0
SEQEND
8
OBJECT__82
0
POLYLINE
8
OBJECT__83
66
1
70
64
71
4
72
2
62
253
0
VERTEX
8
OBJECT__83
10
57.708000
20
-93.000000
30
102.556999
70
192
0
VERTEX
8
OBJECT__83
10
57.708000
20
93.000000
30
102.556999
70
192
0
VERTEX
8
OBJECT__83
10
58.199001
20
93.000000
30
102.556999
70
192
0
VERTEX
8
OBJECT__83
10
58.199001
20
-93.000000
30
102.556999
70
192
0
VERTEX
8
OBJECT__83
10
0
20
0
30
0
70
128
71
1
72
2
73
3
0
VERTEX
8
OBJECT__83
10
0
20
0
30
0
70
128
71
3
72
4
73
1
0
SEQEND
8
OBJECT__83
0
POLYLINE
8
OBJECT__84
66
1
70
64
71
7
72
5
62
253
0
VERTEX
8
OBJECT__84
10
57.708000
20
93.000000
30
102.556999
70
192
0
VERTEX
8
OBJECT__84
10
54.250999
20
93.000000
30
102.556999
70
192
0
VERTEX
8
OBJECT__84
10
54.250999
20
93.000000
30
154.011993
70
192
0
VERTEX
8
OBJECT__84
10
58.199001
20
93.000000
30
173.011993
70
192
0
VERTEX
8
OBJECT__84
10
58.199001
20
93.000000
30
102.556999
70
192
0
VERTEX
8
OBJECT__84
10
52.504002
20
93.000000
30
164.100006
70
192
0
VERTEX
8
OBJECT__84
10
47.466999
20
93.000000
30
173.011993
70
192
0
VERTEX
8
OBJECT__84
10
0
20
0
30
0
70
128
71
1
72
2
73
3
0
VERTEX
8
OBJECT__84
10
0
20
0
30
0
70
128
71
4
72
5
73
1
0
VERTEX
8
OBJECT__84
10
0
20
0
30
0
70
128
71
3
72
4
73
1
0
VERTEX
8
OBJECT__84
10
0
20
0
30
0
70
128
71
3
72
6
73
4
0
VERTEX
8
OBJECT__84
10
0
20
0
30
0
70
128
71
6
72
7
73
4
0
SEQEND
8
OBJECT__84
0
POLYLINE
8
OBJECT__85
66
1
70
64
71
4
72
2
62
253
0
VERTEX
8
OBJECT__85
10
54.250999
20
93.000000
30
102.556999
70
192
0
VERTEX
8
OBJECT__85
10
54.250999
20
200.496994
30
102.556999
70
192
0
VERTEX
8
OBJECT__85
10
54.250999
20
200.496994
30
154.011993
70
192
0
VERTEX
8
OBJECT__85
10
54.250999
20
93.000000
30
154.011993
70
192
0
VERTEX
8
OBJECT__85
10
0
20
0
30
0
70
128
71
1
72
2
73
3
0
VERTEX
8
OBJECT__85
10
0
20
0
30
0
70
128
71
3
72
4
73
1
0
SEQEND
8
OBJECT__85
0
POLYLINE
8
OBJECT__86
66
1
70
64
71
12
72
10
62
253
0
VERTEX
8
OBJECT__86
10
58.199001
20
82.000000
30
184.011993
70
192
0
VERTEX
8
OBJECT__86
10
26.628000
20
83.438004
30
183.917999
70
192
0
VERTEX
8
OBJECT__86
10
24.280001
20
82.017998
30
184.011993
70
192
0
VERTEX
8
OBJECT__86
10
58.199001
20
84.504997
30
183.723007
70
192
0
VERTEX
8
OBJECT__86
10
58.199001
20
87.969002
30
179.356003
70
192
0
VERTEX
8
OBJECT__86
10
37.682999
20
89.669998
30
180.710007
70
192
0
VERTEX
8
OBJECT__86
10
36.860001
20
89.307999
30
181.233994
70
192
0
VERTEX
8
OBJECT__86
10
58.199001
20
93.000000
30
173.011993
70
192
0
VERTEX
8
OBJECT__86
10
47.466999
20
93.000000
30
173.011993
70
192
0
VERTEX
8
OBJECT__86
10
45.374001
20
92.607002
30
175.136993
70
192
0
VERTEX
8
OBJECT__86
10
43.590000
20
92.272003
30
176.947006
70
192
0
VERTEX
8
OBJECT__86
10
24.250999
20
82.000000
30
184.011993
70
192
0
VERTEX
8
OBJECT__86
10
0
20
0
30
0
70
128
71
1
72
2
73
3
0
VERTEX
8
OBJECT__86
10
0
20
0
30
0
70
128
71
4
72
5
73
6
0
VERTEX
8
OBJECT__86
10
0
20
0
30
0
70
128
71
7
72
1
73
4
0
VERTEX
8
OBJECT__86
10
0
20
0
30
0
70
128
71
6
72
7
73
4
0
VERTEX
8
OBJECT__86
10
0
20
0
30
0
70
128
71
7
72
2
73
1
0
VERTEX
8
OBJECT__86
10
0
20
0
30
0
70
128
71
5
72
8
73
9
0
VERTEX
8
OBJECT__86
10
0
20
0
30
0
70
128
71
9
72
10
73
5
0
VERTEX
8
OBJECT__86
10
0
20
0
30
0
70
128
71
10
72
11
73
5
0
VERTEX
8
OBJECT__86
10
0
20
0
30
0
70
128
71
11
72
6
73
5
0
VERTEX
8
OBJECT__86
10
0
20
0
30
0
70
128
71
3
72
12
73
1
0
SEQEND
8
OBJECT__86
0
POLYLINE
8
OBJECT__87
66
1
70
64
71
9
72
7
62
253
0
VERTEX
8
OBJECT__87
10
58.199001
20
-93.000000
30
173.011993
70
192
0
VERTEX
8
OBJECT__87
10
58.199001
20
82.000000
30
184.011993
70
192
0
VERTEX
8
OBJECT__87
10
58.199001
20
-82.000000
30
184.011993
70
192
0
VERTEX
8
OBJECT__87
10
58.199001
20
87.969002
30
179.356003
70
192
0
VERTEX
8
OBJECT__87
10
58.199001
20
84.504997
30
183.723007
70
192
0
VERTEX
8
OBJECT__87
10
58.199001
20
-92.710999
30
175.518005
70
192
0
VERTEX
8
OBJECT__87
10
58.199001
20
-93.000000
30
102.556999
70
192
0
VERTEX
8
OBJECT__87
10
58.199001
20
93.000000
30
102.556999
70
192
0
VERTEX
8
OBJECT__87
10
58.199001
20
93.000000
30
173.011993
70
192
0
VERTEX
8
OBJECT__87
10
0
20
0
30
0
70
128
71
1
72
2
73
3
0
VERTEX
8
OBJECT__87
10
0
20
0
30
0
70
128
71
1
72
4
73
2
0
VERTEX
8
OBJECT__87
10
0
20
0
30
0
70
128
71
4
72
5
73
2
0
VERTEX
8
OBJECT__87
10
0
20
0
30
0
70
128
71
3
72
6
73
1
0
VERTEX
8
OBJECT__87
10
0
20
0
30
0
70
128
71
7
72
8
73
9
0
VERTEX
8
OBJECT__87
10
0
20
0
30
0
70
128
71
9
72
4
73
7
0
VERTEX
8
OBJECT__87
10
0
20
0
30
0
70
128
71
1
72
7
73
4
0
SEQEND
8
OBJECT__87
0
POLYLINE
8
OBJECT__88
66
1
70
64
71
15
72
13
62
253
0
VERTEX
8
OBJECT__88
10
39.250999
20
200.496994
30
179.992996
70
192
0
VERTEX
8
OBJECT__88
10
43.590000
20
92.272003
30
176.947006
70
192
0
VERTEX
8
OBJECT__88
10
45.374001
20
92.607002
30
175.136993
70
192
0
VERTEX
8
OBJECT__88
10
44.741001
20
200.496994
30
174.503006
70
192
0
VERTEX
8
OBJECT__88
10
24.250999
20
200.496994
30
184.011993
70
192
0
VERTEX
8
OBJECT__88
10
36.860001
20
89.307999
30
181.233994
70
192
0
VERTEX
8
OBJECT__88
10
37.682999
20
89.669998
30
180.710007
70
192
0
VERTEX
8
OBJECT__88
10
24.250999
20
82.000000
30
184.011993
70
192
0
VERTEX
8
OBJECT__88
10
24.280001
20
82.017998
30
184.011993
70
192
0
VERTEX
8
OBJECT__88
10
26.628000
20
83.438004
30
183.917999
70
192
0
VERTEX
8
OBJECT__88
10
54.250999
20
200.496994
30
154.011993
70
192
0
VERTEX
8
OBJECT__88
10
50.230999
20
200.496994
30
169.011993
70
192
0
VERTEX
8
OBJECT__88
10
52.504002
20
93.000000
30
164.100006
70
192
0
VERTEX
8
OBJECT__88
10
47.466999
20
93.000000
30
173.011993
70
192
0
VERTEX
8
OBJECT__88
10
54.250999
20
93.000000
30
154.011993
70
192
0
VERTEX
8
OBJECT__88
10
0
20
0
30
0
70
128
71
1
72
2
73
3
0
VERTEX
8
OBJECT__88
10
0
20
0
30
0
70
128
71
3
72
4
73
1
0
VERTEX
8
OBJECT__88
10
0
20
0
30
0
70
128
71
5
72
6
73
7
0
VERTEX
8
OBJECT__88
10
0
20
0
30
0
70
128
71
5
72
8
73
9
0
VERTEX
8
OBJECT__88
10
0
20
0
30
0
70
128
71
9
72
10
73
5
0
VERTEX
8
OBJECT__88
10
0
20
0
30
0
70
128
71
10
72
6
73
5
0
VERTEX
8
OBJECT__88
10
0
20
0
30
0
70
128
71
7
72
2
73
5
0
VERTEX
8
OBJECT__88
10
0
20
0
30
0
70
128
71
11
72
12
73
13
0
VERTEX
8
OBJECT__88
10
0
20
0
30
0
70
128
71
14
72
13
73
12
0
VERTEX
8
OBJECT__88
10
0
20
0
30
0
70
128
71
12
72
4
73
14
0
VERTEX
8
OBJECT__88
10
0
20
0
30
0
70
128
71
4
72
3
73
14
0
VERTEX
8
OBJECT__88
10
0
20
0
30
0
70
128
71
13
72
15
73
11
0
VERTEX
8
OBJECT__88
10
0
20
0
30
0
70
128
71
1
72
5
73
2
0
SEQEND
8
OBJECT__88
0
POLYLINE
8
OBJECT__89
66
1
70
64
71
6
72
4
62
253
0
VERTEX
8
OBJECT__89
10
54.250999
20
200.496994
30
154.011993
70
192
0
VERTEX
8
OBJECT__89
10
54.250999
20
200.496994
30
102.556999
70
192
0
VERTEX
8
OBJECT__89
10
51.028999
20
208.274994
30
102.556999
70
192
0
VERTEX
8
OBJECT__89
10
43.250999
20
211.496994
30
102.556999
70
192
0
VERTEX
8
OBJECT__89
10
43.250999
20
211.496994
30
154.011993
70
192
0
VERTEX
8
OBJECT__89
10
51.028999
20
208.274994
30
154.011993
70
192
0
VERTEX
8
OBJECT__89
10
0
20
0
30
0
70
128
71
1
72
2
73
3
0
VERTEX
8
OBJECT__89
10
0
20
0
30
0
70
128
71
4
72
5
73
6
0
VERTEX
8
OBJECT__89
10
0
20
0
30
0
70
128
71
6
72
3
73
4
0
VERTEX
8
OBJECT__89
10
0
20
0
30
0
70
128
71
3
72
6
73
1
0
SEQEND
8
OBJECT__89
0
POLYLINE
8
OBJECT__90
66
1
70
64
71
13
72
13
62
253
0
VERTEX
8
OBJECT__90
10
47.441002
20
208.274994
30
167.401993
70
192
0
VERTEX
8
OBJECT__90
10
51.028999
20
208.274994
30
154.011993
70
192
0
VERTEX
8
OBJECT__90
10
43.250999
20
211.496994
30
154.011993
70
192
0
VERTEX
8
OBJECT__90
10
37.639999
20
208.274994
30
177.203003
70
192
0
VERTEX
8
OBJECT__90
10
40.705002
20
211.496994
30
163.511993
70
192
0
VERTEX
8
OBJECT__90
10
33.750999
20
211.496994
30
170.466995
70
192
0
VERTEX
8
OBJECT__90
10
24.250999
20
211.496994
30
173.011993
70
192
0
VERTEX
8
OBJECT__90
10
50.230999
20
200.496994
30
169.011993
70
192
0
VERTEX
8
OBJECT__90
10
54.250999
20
200.496994
30
154.011993
70
192
0
VERTEX
8
OBJECT__90
10
44.741001
20
200.496994
30
174.503006
70
192
0
VERTEX
8
OBJECT__90
10
39.250999
20
200.496994
30
179.992996
70
192
0
VERTEX
8
OBJECT__90
10
24.250999
20
200.496994
30
184.011993
70
192
0
VERTEX
8
OBJECT__90
10
24.250999
20
208.274994
30
180.791000
70
192
0
VERTEX
8
OBJECT__90
10
0
20
0
30
0
70
128
71
1
72
2
73
3
0
VERTEX
8
OBJECT__90
10
0
20
0
30
0
70
128
71
4
72
1
73
5
0
VERTEX
8
OBJECT__90
10
0
20
0
30
0
70
128
71
4
72
6
73
7
0
VERTEX
8
OBJECT__90
10
0
20
0
30
0
70
128
71
8
72
9
73
2
0
VERTEX
8
OBJECT__90
10
0
20
0
30
0
70
128
71
1
72
4
73
10
0
VERTEX
8
OBJECT__90
10
0
20
0
30
0
70
128
71
4
72
11
73
10
0
VERTEX
8
OBJECT__90
10
0
20
0
30
0
70
128
71
12
72
11
73
4
0
VERTEX
8
OBJECT__90
10
0
20
0
30
0
70
128
71
4
72
13
73
12
0
VERTEX
8
OBJECT__90
10
0
20
0
30
0
70
128
71
10
72
8
73
1
0
VERTEX
8
OBJECT__90
10
0
20
0
30
0
70
128
71
2
72
1
73
8
0
VERTEX
8
OBJECT__90
10
0
20
0
30
0
70
128
71
7
72
13
73
4
0
VERTEX
8
OBJECT__90
10
0
20
0
30
0
70
128
71
5
72
6
73
4
0
VERTEX
8
OBJECT__90
10
0
20
0
30
0
70
128
71
3
72
5
73
1
0
SEQEND
8
OBJECT__90
0
POLYLINE
8
OBJECT__91
66
1
70
64
71
6
72
4
62
253
0
VERTEX
8
OBJECT__91
10
-9.083000
20
211.496994
30
173.011993
70
192
0
VERTEX
8
OBJECT__91
10
-9.083000
20
208.274994
30
180.791000
70
192
0
VERTEX
8
OBJECT__91
10
24.250999
20
208.274994
30
180.791000
70
192
0
VERTEX
8
OBJECT__91
10
-9.083000
20
200.496994
30
184.011993
70
192
0
VERTEX
8
OBJECT__91
10
24.250999
20
200.496994
30
184.011993
70
192
0
VERTEX
8
OBJECT__91
10
24.250999
20
211.496994
30
173.011993
70
192
0
VERTEX
8
OBJECT__91
10
0
20
0
30
0
70
128
71
1
72
2
73
3
0
VERTEX
8
OBJECT__91
10
0
20
0
30
0
70
128
71
4
72
5
73
3
0
VERTEX
8
OBJECT__91
10
0
20
0
30
0
70
128
71
3
72
2
73
4
0
VERTEX
8
OBJECT__91
10
0
20
0
30
0
70
128
71
3
72
6
73
1
0
SEQEND
8
OBJECT__91
0
POLYLINE
8
OBJECT__92
66
1
70
64
71
10
72
8
62
253
0
VERTEX
8
OBJECT__92
10
58.199001
20
-82.000000
30
184.011993
70
192
0
VERTEX
8
OBJECT__92
10
43.590000
20
-92.272003
30
176.947006
70
192
0
VERTEX
8
OBJECT__92
10
45.374001
20
-92.607002
30
175.136993
70
192
0
VERTEX
8
OBJECT__92
10
58.199001
20
-92.710999
30
175.518005
70
192
0
VERTEX
8
OBJECT__92
10
47.466999
20
-93.000000
30
173.011993
70
192
0
VERTEX
8
OBJECT__92
10
58.199001
20
-93.000000
30
173.011993
70
192
0
VERTEX
8
OBJECT__92
10
36.860001
20
-89.307999
30
181.233994
70
192
0
VERTEX
8
OBJECT__92
10
24.250999
20
-82.000000
30
184.011993
70
192
0
VERTEX
8
OBJECT__92
10
24.280001
20
-82.017998
30
184.011993
70
192
0
VERTEX
8
OBJECT__92
10
26.628000
20
-83.438004
30
183.917999
70
192
0
VERTEX
8
OBJECT__92
10
0
20
0
30
0
70
128
71
1
72
2
73
3
0
VERTEX
8
OBJECT__92
10
0
20
0
30
0
70
128
71
4
72
3
73
5
0
VERTEX
8
OBJECT__92
10
0
20
0
30
0
70
128
71
5
72
6
73
4
0
VERTEX
8
OBJECT__92
10
0
20
0
30
0
70
128
71
1
72
7
73
2
0
VERTEX
8
OBJECT__92
10
0
20
0
30
0
70
128
71
1
72
8
73
9
0
VERTEX
8
OBJECT__92
10
0
20
0
30
0
70
128
71
9
72
10
73
1
0
VERTEX
8
OBJECT__92
10
0
20
0
30
0
70
128
71
10
72
7
73
1
0
VERTEX
8
OBJECT__92
10
0
20
0
30
0
70
128
71
3
72
4
73
1
0
SEQEND
8
OBJECT__92
0
POLYLINE
8
OBJECT__93
66
1
70
64
71
7
72
5
62
253
0
VERTEX
8
OBJECT__93
10
57.708000
20
-93.000000
30
102.556999
70
192
0
VERTEX
8
OBJECT__93
10
58.199001
20
-93.000000
30
173.011993
70
192
0
VERTEX
8
OBJECT__93
10
54.250999
20
-93.000000
30
154.011993
70
192
0
VERTEX
8
OBJECT__93
10
54.250999
20
-93.000000
30
102.556999
70
192
0
VERTEX
8
OBJECT__93
10
52.504002
20
-93.000000
30
164.100006
70
192
0
VERTEX
8
OBJECT__93
10
47.466999
20
-93.000000
30
173.011993
70
192
0
VERTEX
8
OBJECT__93
10
58.199001
20
-93.000000
30
102.556999
70
192
0
VERTEX
8
OBJECT__93
10
0
20
0
30
0
70
128
71
1
72
2
73
3
0
VERTEX
8
OBJECT__93
10
0
20
0
30
0
70
128
71
3
72
4
73
1
0
VERTEX
8
OBJECT__93
10
0
20
0
30
0
70
128
71
2
72
5
73
3
0
VERTEX
8
OBJECT__93
10
0
20
0
30
0
70
128
71
2
72
6
73
5
0
VERTEX
8
OBJECT__93
10
0
20
0
30
0
70
128
71
1
72
7
73
2
0
SEQEND
8
OBJECT__93
0
POLYLINE
8
OBJECT__94
66
1
70
64
71
14
72
12
62
253
0
VERTEX
8
OBJECT__94
10
47.466999
20
-93.000000
30
173.011993
70
192
0
VERTEX
8
OBJECT__94
10
44.741001
20
-200.496994
30
174.503006
70
192
0
VERTEX
8
OBJECT__94
10
50.230999
20
-200.496994
30
169.011993
70
192
0
VERTEX
8
OBJECT__94
10
54.250999
20
-200.496994
30
154.011993
70
192
0
VERTEX
8
OBJECT__94
10
54.250999
20
-93.000000
30
154.011993
70
192
0
VERTEX
8
OBJECT__94
10
52.504002
20
-93.000000
30
164.100006
70
192
0
VERTEX
8
OBJECT__94
10
24.250999
20
-200.496994
30
184.011993
70
192
0
VERTEX
8
OBJECT__94
10
26.628000
20
-83.438004
30
183.917999
70
192
0
VERTEX
8
OBJECT__94
10
24.280001
20
-82.017998
30
184.011993
70
192
0
VERTEX
8
OBJECT__94
10
36.860001
20
-89.307999
30
181.233994
70
192
0
VERTEX
8
OBJECT__94
10
43.590000
20
-92.272003
30
176.947006
70
192
0
VERTEX
8
OBJECT__94
10
39.250999
20
-200.496994
30
179.992996
70
192
0
VERTEX
8
OBJECT__94
10
45.374001
20
-92.607002
30
175.136993
70
192
0
VERTEX
8
OBJECT__94
10
24.250999
20
-82.000000
30
184.011993
70
192
0
VERTEX
8
OBJECT__94
10
0
20
0
30
0
70
128
71
1
72
2
73
3
0
VERTEX
8
OBJECT__94
10
0
20
0
30
0
70
128
71
4
72
5
73
6
0
VERTEX
8
OBJECT__94
10
0
20
0
30
0
70
128
71
6
72
3
73
4
0
VERTEX
8
OBJECT__94
10
0
20
0
30
0
70
128
71
3
72
6
73
1
0
VERTEX
8
OBJECT__94
10
0
20
0
30
0
70
128
71
7
72
8
73
9
0
VERTEX
8
OBJECT__94
10
0
20
0
30
0
70
128
71
7
72
10
73
8
0
VERTEX
8
OBJECT__94
10
0
20
0
30
0
70
128
71
7
72
11
73
10
0
VERTEX
8
OBJECT__94
10
0
20
0
30
0
70
128
71
12
72
2
73
13
0
VERTEX
8
OBJECT__94
10
0
20
0
30
0
70
128
71
11
72
7
73
12
0
VERTEX
8
OBJECT__94
10
0
20
0
30
0
70
128
71
13
72
11
73
12
0
VERTEX
8
OBJECT__94
10
0
20
0
30
0
70
128
71
9
72
14
73
7
0
VERTEX
8
OBJECT__94
10
0
20
0
30
0
70
128
71
1
72
13
73
2
0
SEQEND
8
OBJECT__94
0
POLYLINE
8
OBJECT__95
66
1
70
64
71
4
72
2
62
253
0
VERTEX
8
OBJECT__95
10
54.250999
20
-200.496994
30
102.556999
70
192
0
VERTEX
8
OBJECT__95
10
54.250999
20
-93.000000
30
102.556999
70
192
0
VERTEX
8
OBJECT__95
10
54.250999
20
-93.000000
30
154.011993
70
192
0
VERTEX
8
OBJECT__95
10
54.250999
20
-200.496994
30
154.011993
70
192
0
VERTEX
8
OBJECT__95
10
0
20
0
30
0
70
128
71
1
72
2
73
3
0
VERTEX
8
OBJECT__95
10
0
20
0
30
0
70
128
71
3
72
4
73
1
0
SEQEND
8
OBJECT__95
0
POLYLINE
8
OBJECT__96
66
1
70
64
71
6
72
4
62
253
0
VERTEX
8
OBJECT__96
10
43.250999
20
-211.496994
30
154.011993
70
192
0
VERTEX
8
OBJECT__96
10
43.250999
20
-211.496994
30
102.556999
70
192
0
VERTEX
8
OBJECT__96
10
51.028999
20
-208.274994
30
102.556999
70
192
0
VERTEX
8
OBJECT__96
10
54.250999
20
-200.496994
30
102.556999
70
192
0
VERTEX
8
OBJECT__96
10
54.250999
20
-200.496994
30
154.011993
70
192
0
VERTEX
8
OBJECT__96
10
51.028999
20
-208.274994
30
154.011993
70
192
0
VERTEX
8
OBJECT__96
10
0
20
0
30
0
70
128
71
1
72
2
73
3
0
VERTEX
8
OBJECT__96
10
0
20
0
30
0
70
128
71
4
72
5
73
6
0
VERTEX
8
OBJECT__96
10
0
20
0
30
0
70
128
71
6
72
3
73
4
0
VERTEX
8
OBJECT__96
10
0
20
0
30
0
70
128
71
3
72
6
73
1
0
SEQEND
8
OBJECT__96
0
POLYLINE
8
OBJECT__97
66
1
70
64
71
13
72
13
62
253
0
VERTEX
8
OBJECT__97
10
37.639999
20
-208.274994
30
177.203003
70
192
0
VERTEX
8
OBJECT__97
10
24.250999
20
-208.274994
30
180.791000
70
192
0
VERTEX
8
OBJECT__97
10
24.250999
20
-211.496994
30
173.011993
70
192
0
VERTEX
8
OBJECT__97
10
33.750999
20
-211.496994
30
170.466995
70
192
0
VERTEX
8
OBJECT__97
10
40.705002
20
-211.496994
30
163.511993
70
192
0
VERTEX
8
OBJECT__97
10
47.441002
20
-208.274994
30
167.401993
70
192
0
VERTEX
8
OBJECT__97
10
43.250999
20
-211.496994
30
154.011993
70
192
0
VERTEX
8
OBJECT__97
10
24.250999
20
-200.496994
30
184.011993
70
192
0
VERTEX
8
OBJECT__97
10
50.230999
20
-200.496994
30
169.011993
70
192
0
VERTEX
8
OBJECT__97
10
44.741001
20
-200.496994
30
174.503006
70
192
0
VERTEX
8
OBJECT__97
10
54.250999
20
-200.496994
30
154.011993
70
192
0
VERTEX
8
OBJECT__97
10
51.028999
20
-208.274994
30
154.011993
70
192
0
VERTEX
8
OBJECT__97
10
39.250999
20
-200.496994
30
179.992996
70
192
0
VERTEX
8
OBJECT__97
10
0
20
0
30
0
70
128
71
1
72
2
73
3
0
VERTEX
8
OBJECT__97
10
0
20
0
30
0
70
128
71
1
72
4
73
5
0
VERTEX
8
OBJECT__97
10
0
20
0
30
0
70
128
71
6
72
5
73
7
0
VERTEX
8
OBJECT__97
10
0
20
0
30
0
70
128
71
8
72
2
73
1
0
VERTEX
8
OBJECT__97
10
0
20
0
30
0
70
128
71
6
72
9
73
10
0
VERTEX
8
OBJECT__97
10
0
20
0
30
0
70
128
71
10
72
1
73
6
0
VERTEX
8
OBJECT__97
10
0
20
0
30
0
70
128
71
11
72
9
73
6
0
VERTEX
8
OBJECT__97
10
0
20
0
30
0
70
128
71
6
72
12
73
11
0
VERTEX
8
OBJECT__97
10
0
20
0
30
0
70
128
71
10
72
13
73
1
0
VERTEX
8
OBJECT__97
10
0
20
0
30
0
70
128
71
1
72
13
73
8
0
VERTEX
8
OBJECT__97
10
0
20
0
30
0
70
128
71
7
72
12
73
6
0
VERTEX
8
OBJECT__97
10
0
20
0
30
0
70
128
71
5
72
6
73
1
0
VERTEX
8
OBJECT__97
10
0
20
0
30
0
70
128
71
3
72
4
73
1
0
SEQEND
8
OBJECT__97
0
POLYLINE
8
OBJECT__98
66
1
70
64
71
8
72
6
62
253
0
VERTEX
8
OBJECT__98
10
-9.083000
20
200.496994
30
184.011993
70
192
0
VERTEX
8
OBJECT__98
10
24.250999
20
-82.000000
30
184.011993
70
192
0
VERTEX
8
OBJECT__98
10
24.250999
20
82.000000
30
184.011993
70
192
0
VERTEX
8
OBJECT__98
10
58.199001
20
82.000000
30
184.011993
70
192
0
VERTEX
8
OBJECT__98
10
58.199001
20
-82.000000
30
184.011993
70
192
0
VERTEX
8
OBJECT__98
10
-9.083000
20
-200.496994
30
184.011993
70
192
0
VERTEX
8
OBJECT__98
10
24.250999
20
-200.496994
30
184.011993
70
192
0
VERTEX
8
OBJECT__98
10
24.250999
20
200.496994
30
184.011993
70
192
0
VERTEX
8
OBJECT__98
10
0
20
0
30
0
70
128
71
1
72
2
73
3
0
VERTEX
8
OBJECT__98
10
0
20
0
30
0
70
128
71
4
72
3
73
2
0
VERTEX
8
OBJECT__98
10
0
20
0
30
0
70
128
71
2
72
5
73
4
0
VERTEX
8
OBJECT__98
10
0
20
0
30
0
70
128
71
6
72
7
73
2
0
VERTEX
8
OBJECT__98
10
0
20
0
30
0
70
128
71
2
72
1
73
6
0
VERTEX
8
OBJECT__98
10
0
20
0
30
0
70
128
71
3
72
8
73
1
0
SEQEND
8
OBJECT__98
0
POLYLINE
8
OBJECT__99
66
1
70
64
71
6
72
4
62
253
0
VERTEX
8
OBJECT__99
10
-9.083000
20
-208.274994
30
180.791000
70
192
0
VERTEX
8
OBJECT__99
10
-9.083000
20
-211.496994
30
173.011993
70
192
0
VERTEX
8
OBJECT__99
10
24.250999
20
-211.496994
30
173.011993
70
192
0
VERTEX
8
OBJECT__99
10
24.250999
20
-200.496994
30
184.011993
70
192
0
VERTEX
8
OBJECT__99
10
-9.083000
20
-200.496994
30
184.011993
70
192
0
VERTEX
8
OBJECT__99
10
24.250999
20
-208.274994
30
180.791000
70
192
0
VERTEX
8
OBJECT__99
10
0
20
0
30
0
70
128
71
1
72
2
73
3
0
VERTEX
8
OBJECT__99
10
0
20
0
30
0
70
128
71
4
72
5
73
1
0
VERTEX
8
OBJECT__99
10
0
20
0
30
0
70
128
71
1
72
6
73
4
0
VERTEX
8
OBJECT__99
10
0
20
0
30
0
70
128
71
3
72
6
73
1
0
SEQEND
8
OBJECT__99
0
POLYLINE
8
OBJECT__100
66
1
70
64
71
6
72
4
62
253
0
VERTEX
8
OBJECT__100
10
-16.861000
20
-200.496994
30
180.791000
70
192
0
VERTEX
8
OBJECT__100
10
-9.083000
20
-200.496994
30
184.011993
70
192
0
VERTEX
8
OBJECT__100
10
-9.083000
20
200.496994
30
184.011993
70
192
0
VERTEX
8
OBJECT__100
10
-20.083000
20
-200.496994
30
173.011993
70
192
0
VERTEX
8
OBJECT__100
10
-16.861000
20
200.496994
30
180.791000
70
192
0
VERTEX
8
OBJECT__100
10
-20.083000
20
200.496994
30
173.011993
70
192
0
VERTEX
8
OBJECT__100
10
0
20
0
30
0
70
128
71
1
72
2
73
3
0
VERTEX
8
OBJECT__100
10
0
20
0
30
0
70
128
71
4
72
1
73
5
0
VERTEX
8
OBJECT__100
10
0
20
0
30
0
70
128
71
5
72
6
73
4
0
VERTEX
8
OBJECT__100
10
0
20
0
30
0
70
128
71
3
72
5
73
1
0
SEQEND
8
OBJECT__100
0
POLYLINE
8
OBJECT__101
66
1
70
64
71
7
72
6
62
253
0
VERTEX
8
OBJECT__101
10
-9.083000
20
-211.496994
30
173.011993
70
192
0
VERTEX
8
OBJECT__101
10
-9.083000
20
-208.274994
30
180.791000
70
192
0
VERTEX
8
OBJECT__101
10
-16.861000
20
-205.996994
30
178.511993
70
192
0
VERTEX
8
OBJECT__101
10
-9.083000
20
-200.496994
30
184.011993
70
192
0
VERTEX
8
OBJECT__101
10
-16.861000
20
-200.496994
30
180.791000
70
192
0
VERTEX
8
OBJECT__101
10
-20.083000
20
-200.496994
30
173.011993
70
192
0
VERTEX
8
OBJECT__101
10
-16.861000
20
-208.274994
30
173.011993
70
192
0
VERTEX
8
OBJECT__101
10
0
20
0
30
0
70
128
71
1
72
2
73
3
0
VERTEX
8
OBJECT__101
10
0
20
0
30
0
70
128
71
4
72
5
73
3
0
VERTEX
8
OBJECT__101
10
0
20
0
30
0
70
128
71
6
72
3
73
5
0
VERTEX
8
OBJECT__101
10
0
20
0
30
0
70
128
71
6
72
7
73
3
0
VERTEX
8
OBJECT__101
10
0
20
0
30
0
70
128
71
3
72
2
73
4
0
VERTEX
8
OBJECT__101
10
0
20
0
30
0
70
128
71
3
72
7
73
1
0
SEQEND
8
OBJECT__101
0
POLYLINE
8
OBJECT__102
66
1
70
64
71
7
72
5
62
253
0
VERTEX
8
OBJECT__102
10
-16.861000
20
-208.274994
30
173.011993
70
192
0
VERTEX
8
OBJECT__102
10
-16.861000
20
-208.274994
30
129.962006
70
192
0
VERTEX
8
OBJECT__102
10
-9.083000
20
-211.496994
30
129.962006
70
192
0
VERTEX
8
OBJECT__102
10
-20.083000
20
-200.496994
30
173.011993
70
192
0
VERTEX
8
OBJECT__102
10
-20.083000
20
-200.496994
30
151.487000
70
192
0
VERTEX
8
OBJECT__102
10
-20.083000
20
-200.496994
30
129.962006
70
192
0
VERTEX
8
OBJECT__102
10
-9.083000
20
-211.496994
30
173.011993
70
192
0
VERTEX
8
OBJECT__102
10
0
20
0
30
0
70
128
71
1
72
2
73
3
0
VERTEX
8
OBJECT__102
10
0
20
0
30
0
70
128
71
1
72
4
73
5
0
VERTEX
8
OBJECT__102
10
0
20
0
30
0
70
128
71
5
72
2
73
1
0
VERTEX
8
OBJECT__102
10
0
20
0
30
0
70
128
71
5
72
6
73
2
0
VERTEX
8
OBJECT__102
10
0
20
0
30
0
70
128
71
3
72
7
73
1
0
SEQEND
8
OBJECT__102
0
POLYLINE
8
OBJECT__103
66
1
70
64
71
7
72
6
62
253
0
VERTEX
8
OBJECT__103
10
-9.083000
20
200.496994
30
184.011993
70
192
0
VERTEX
8
OBJECT__103
10
-9.083000
20
208.274994
30
180.791000
70
192
0
VERTEX
8
OBJECT__103
10
-16.861000
20
205.996994
30
178.511993
70
192
0
VERTEX
8
OBJECT__103
10
-9.083000
20
211.496994
30
173.011993
70
192
0
VERTEX
8
OBJECT__103
10
-16.861000
20
208.274994
30
173.011993
70
192
0
VERTEX
8
OBJECT__103
10
-20.083000
20
200.496994
30
173.011993
70
192
0
VERTEX
8
OBJECT__103
10
-16.861000
20
200.496994
30
180.791000
70
192
0
VERTEX
8
OBJECT__103
10
0
20
0
30
0
70
128
71
1
72
2
73
3
0
VERTEX
8
OBJECT__103
10
0
20
0
30
0
70
128
71
4
72
5
73
3
0
VERTEX
8
OBJECT__103
10
0
20
0
30
0
70
128
71
6
72
3
73
5
0
VERTEX
8
OBJECT__103
10
0
20
0
30
0
70
128
71
6
72
7
73
3
0
VERTEX
8
OBJECT__103
10
0
20
0
30
0
70
128
71
3
72
2
73
4
0
VERTEX
8
OBJECT__103
10
0
20
0
30
0
70
128
71
3
72
7
73
1
0
SEQEND
8
OBJECT__103
0
POLYLINE
8
OBJECT__104
66
1
70
64
71
5
72
3
62
253
0
VERTEX
8
OBJECT__104
10
-20.083000
20
200.496994
30
173.011993
70
192
0
VERTEX
8
OBJECT__104
10
-20.083000
20
200.496994
30
129.962006
70
192
0
VERTEX
8
OBJECT__104
10
-20.083000
20
-200.496994
30
151.487000
70
192
0
VERTEX
8
OBJECT__104
10
-20.083000
20
-200.496994
30
129.962006
70
192
0
VERTEX
8
OBJECT__104
10
-20.083000
20
-200.496994
30
173.011993
70
192
0
VERTEX
8
OBJECT__104
10
0
20
0
30
0
70
128
71
1
72
2
73
3
0
VERTEX
8
OBJECT__104
10
0
20
0
30
0
70
128
71
2
72
4
73
3
0
VERTEX
8
OBJECT__104
10
0
20
0
30
0
70
128
71
3
72
5
73
1
0
SEQEND
8
OBJECT__104
0
POLYLINE
8
OBJECT__105
66
1
70
64
71
9
72
8
62
253
0
VERTEX
8
OBJECT__105
10
-21.027000
20
-208.274994
30
119.904999
70
192
0
VERTEX
8
OBJECT__105
10
-16.861000
20
-208.274994
30
129.962006
70
192
0
VERTEX
8
OBJECT__105
10
-20.083000
20
-200.496994
30
129.962006
70
192
0
VERTEX
8
OBJECT__105
10
-31.083000
20
-208.274994
30
115.739998
70
192
0
VERTEX
8
OBJECT__105
10
-23.305000
20
-200.496994
30
122.183998
70
192
0
VERTEX
8
OBJECT__105
10
-15.527000
20
-211.496994
30
114.404999
70
192
0
VERTEX
8
OBJECT__105
10
-9.083000
20
-211.496994
30
129.962006
70
192
0
VERTEX
8
OBJECT__105
10
-31.083000
20
-211.496994
30
107.961998
70
192
0
VERTEX
8
OBJECT__105
10
-31.083000
20
-200.496994
30
118.961998
70
192
0
VERTEX
8
OBJECT__105
10
0
20
0
30
0
70
128
71
1
72
2
73
3
0
VERTEX
8
OBJECT__105
10
0
20
0
30
0
70
128
71
4
72
1
73
5
0
VERTEX
8
OBJECT__105
10
0
20
0
30
0
70
128
71
6
72
7
73
2
0
VERTEX
8
OBJECT__105
10
0
20
0
30
0
70
128
71
6
72
1
73
4
0
VERTEX
8
OBJECT__105
10
0
20
0
30
0
70
128
71
4
72
8
73
6
0
VERTEX
8
OBJECT__105
10
0
20
0
30
0
70
128
71
2
72
1
73
6
0
VERTEX
8
OBJECT__105
10
0
20
0
30
0
70
128
71
5
72
9
73
4
0
VERTEX
8
OBJECT__105
10
0
20
0
30
0
70
128
71
3
72
5
73
1
0
SEQEND
8
OBJECT__105
0
POLYLINE
8
OBJECT__106
66
1
70
64
71
11
72
9
62
253
0
VERTEX
8
OBJECT__106
10
-9.083000
20
-211.496994
30
129.962006
70
192
0
VERTEX
8
OBJECT__106
10
40.705002
20
-211.496994
30
163.511993
70
192
0
VERTEX
8
OBJECT__106
10
33.750999
20
-211.496994
30
170.466995
70
192
0
VERTEX
8
OBJECT__106
10
43.250999
20
-211.496994
30
154.011993
70
192
0
VERTEX
8
OBJECT__106
10
24.250999
20
-211.496994
30
173.011993
70
192
0
VERTEX
8
OBJECT__106
10
43.250999
20
-211.496994
30
102.556999
70
192
0
VERTEX
8
OBJECT__106
10
-15.527000
20
-211.496994
30
114.404999
70
192
0
VERTEX
8
OBJECT__106
10
-31.083000
20
-211.496994
30
107.961998
70
192
0
VERTEX
8
OBJECT__106
10
-40.752998
20
-211.496994
30
102.556999
70
192
0
VERTEX
8
OBJECT__106
10
-9.083000
20
-211.496994
30
173.011993
70
192
0
VERTEX
8
OBJECT__106
10
-40.752998
20
-211.496994
30
107.961998
70
192
0
VERTEX
8
OBJECT__106
10
0
20
0
30
0
70
128
71
1
72
2
73
3
0
VERTEX
8
OBJECT__106
10
0
20
0
30
0
70
128
71
1
72
4
73
2
0
VERTEX
8
OBJECT__106
10
0
20
0
30
0
70
128
71
3
72
5
73
1
0
VERTEX
8
OBJECT__106
10
0
20
0
30
0
70
128
71
6
72
7
73
8
0
VERTEX
8
OBJECT__106
10
0
20
0
30
0
70
128
71
1
72
6
73
4
0
VERTEX
8
OBJECT__106
10
0
20
0
30
0
70
128
71
8
72
9
73
6
0
VERTEX
8
OBJECT__106
10
0
20
0
30
0
70
128
71
5
72
10
73
1
0
VERTEX
8
OBJECT__106
10
0
20
0
30
0
70
128
71
1
72
7
73
6
0
VERTEX
8
OBJECT__106
10
0
20
0
30
0
70
128
71
8
72
11
73
9
0
SEQEND
8
OBJECT__106
0
POLYLINE
8
OBJECT__107
66
1
70
64
71
6
72
4
62
253
0
VERTEX
8
OBJECT__107
10
-20.083000
20
200.496994
30
173.011993
70
192
0
VERTEX
8
OBJECT__107
10
-16.861000
20
208.274994
30
173.011993
70
192
0
VERTEX
8
OBJECT__107
10
-16.861000
20
208.274994
30
129.962006
70
192
0
VERTEX
8
OBJECT__107
10
-9.083000
20
211.496994
30
129.962006
70
192
0
VERTEX
8
OBJECT__107
10
-9.083000
20
211.496994
30
173.011993
70
192
0
VERTEX
8
OBJECT__107
10
-20.083000
20
200.496994
30
129.962006
70
192
0
VERTEX
8
OBJECT__107
10
0
20
0
30
0
70
128
71
1
72
2
73
3
0
VERTEX
8
OBJECT__107
10
0
20
0
30
0
70
128
71
4
72
3
73
2
0
VERTEX
8
OBJECT__107
10
0
20
0
30
0
70
128
71
2
72
5
73
4
0
VERTEX
8
OBJECT__107
10
0
20
0
30
0
70
128
71
3
72
6
73
1
0
SEQEND
8
OBJECT__107
0
POLYLINE
8
OBJECT__108
66
1
70
64
71
6
72
4
62
253
0
VERTEX
8
OBJECT__108
10
-20.083000
20
200.496994
30
129.962006
70
192
0
VERTEX
8
OBJECT__108
10
-23.305000
20
200.496994
30
122.183998
70
192
0
VERTEX
8
OBJECT__108
10
-23.305000
20
-200.496994
30
122.183998
70
192
0
VERTEX
8
OBJECT__108
10
-31.083000
20
-200.496994
30
118.961998
70
192
0
VERTEX
8
OBJECT__108
10
-31.083000
20
200.496994
30
118.961998
70
192
0
VERTEX
8
OBJECT__108
10
-20.083000
20
-200.496994
30
129.962006
70
192
0
VERTEX
8
OBJECT__108
10
0
20
0
30
0
70
128
71
1
72
2
73
3
0
VERTEX
8
OBJECT__108
10
0
20
0
30
0
70
128
71
4
72
3
73
2
0
VERTEX
8
OBJECT__108
10
0
20
0
30
0
70
128
71
2
72
5
73
4
0
VERTEX
8
OBJECT__108
10
0
20
0
30
0
70
128
71
3
72
6
73
1
0
SEQEND
8
OBJECT__108
0
POLYLINE
8
OBJECT__109
66
1
70
64
71
6
72
4
62
253
0
VERTEX
8
OBJECT__109
10
-40.752998
20
-208.274994
30
115.739998
70
192
0
VERTEX
8
OBJECT__109
10
-40.752998
20
-211.496994
30
107.961998
70
192
0
VERTEX
8
OBJECT__109
10
-31.083000
20
-211.496994
30
107.961998
70
192
0
VERTEX
8
OBJECT__109
10
-31.083000
20
-208.274994
30
115.739998
70
192
0
VERTEX
8
OBJECT__109
10
-31.083000
20
-200.496994
30
118.961998
70
192
0
VERTEX
8
OBJECT__109
10
-40.752998
20
-200.496994
30
118.961998
70
192
0
VERTEX
8
OBJECT__109
10
0
20
0
30
0
70
128
71
1
72
2
73
3
0
VERTEX
8
OBJECT__109
10
0
20
0
30
0
70
128
71
1
72
4
73
5
0
VERTEX
8
OBJECT__109
10
0
20
0
30
0
70
128
71
5
72
6
73
1
0
VERTEX
8
OBJECT__109
10
0
20
0
30
0
70
128
71
3
72
4
73
1
0
SEQEND
8
OBJECT__109
0
POLYLINE
8
OBJECT__110
66
1
70
64
71
6
72
4
62
253
0
VERTEX
8
OBJECT__110
10
-51.752998
20
-200.496994
30
102.556999
70
192
0
VERTEX
8
OBJECT__110
10
-48.530998
20
-208.274994
30
102.556999
70
192
0
VERTEX
8
OBJECT__110
10
-48.530998
20
-208.274994
30
107.961998
70
192
0
VERTEX
8
OBJECT__110
10
-40.752998
20
-211.496994
30
107.961998
70
192
0
VERTEX
8
OBJECT__110
10
-40.752998
20
-211.496994
30
102.556999
70
192
0
VERTEX
8
OBJECT__110
10
-51.752998
20
-200.496994
30
107.961998
70
192
0
VERTEX
8
OBJECT__110
10
0
20
0
30
0
70
128
71
1
72
2
73
3
0
VERTEX
8
OBJECT__110
10
0
20
0
30
0
70
128
71
4
72
3
73
2
0
VERTEX
8
OBJECT__110
10
0
20
0
30
0
70
128
71
2
72
5
73
4
0
VERTEX
8
OBJECT__110
10
0
20
0
30
0
70
128
71
3
72
6
73
1
0
SEQEND
8
OBJECT__110
0
POLYLINE
8
OBJECT__111
66
1
70
64
71
28
72
26
62
253
0
VERTEX
8
OBJECT__111
10
46.708000
20
217.675995
30
102.556999
70
192
0
VERTEX
8
OBJECT__111
10
43.250999
20
211.496994
30
102.556999
70
192
0
VERTEX
8
OBJECT__111
10
51.028999
20
208.274994
30
102.556999
70
192
0
VERTEX
8
OBJECT__111
10
-44.209999
20
217.675995
30
102.556999
70
192
0
VERTEX
8
OBJECT__111
10
-40.752998
20
211.496994
30
102.556999
70
192
0
VERTEX
8
OBJECT__111
10
57.708000
20
93.000000
30
102.556999
70
192
0
VERTEX
8
OBJECT__111
10
57.708000
20
206.675995
30
102.556999
70
192
0
VERTEX
8
OBJECT__111
10
54.250999
20
200.496994
30
102.556999
70
192
0
VERTEX
8
OBJECT__111
10
54.486000
20
214.453995
30
102.556999
70
192
0
VERTEX
8
OBJECT__111
10
-48.530998
20
208.274994
30
102.556999
70
192
0
VERTEX
8
OBJECT__111
10
-55.209999
20
206.675995
30
102.556999
70
192
0
VERTEX
8
OBJECT__111
10
-55.209999
20
-206.675995
30
102.556999
70
192
0
VERTEX
8
OBJECT__111
10
-51.752998
20
-200.496994
30
102.556999
70
192
0
VERTEX
8
OBJECT__111
10
-48.530998
20
-208.274994
30
102.556999
70
192
0
VERTEX
8
OBJECT__111
10
-51.987999
20
214.453995
30
102.556999
70
192
0
VERTEX
8
OBJECT__111
10
-51.752998
20
200.496994
30
102.556999
70
192
0
VERTEX
8
OBJECT__111
10
-51.987999
20
-214.453995
30
102.556999
70
192
0
VERTEX
8
OBJECT__111
10
-44.209999
20
-217.675995
30
102.556999
70
192
0
VERTEX
8
OBJECT__111
10
-40.752998
20
-211.496994
30
102.556999
70
192
0
VERTEX
8
OBJECT__111
10
46.708000
20
-217.675995
30
102.556999
70
192
0
VERTEX
8
OBJECT__111
10
43.250999
20
-211.496994
30
102.556999
70
192
0
VERTEX
8
OBJECT__111
10
51.028999
20
-208.274994
30
102.556999
70
192
0
VERTEX
8
OBJECT__111
10
54.486000
20
-214.453995
30
102.556999
70
192
0
VERTEX
8
OBJECT__111
10
57.708000
20
-206.675995
30
102.556999
70
192
0
VERTEX
8
OBJECT__111
10
54.250999
20
-200.496994
30
102.556999
70
192
0
VERTEX
8
OBJECT__111
10
57.708000
20
-93.000000
30
102.556999
70
192
0
VERTEX
8
OBJECT__111
10
54.250999
20
-93.000000
30
102.556999
70
192
0
VERTEX
8
OBJECT__111
10
54.250999
20
93.000000
30
102.556999
70
192
0
VERTEX
8
OBJECT__111
10
0
20
0
30
0
70
128
71
1
72
2
73
3
0
VERTEX
8
OBJECT__111
10
0
20
0
30
0
70
128
71
4
72
5
73
2
0
VERTEX
8
OBJECT__111
10
0
20
0
30
0
70
128
71
6
72
7
73
8
0
VERTEX
8
OBJECT__111
10
0
20
0
30
0
70
128
71
7
72
9
73
3
0
VERTEX
8
OBJECT__111
10
0
20
0
30
0
70
128
71
2
72
1
73
4
0
VERTEX
8
OBJECT__111
10
0
20
0
30
0
70
128
71
10
72
5
73
4
0
VERTEX
8
OBJECT__111
10
0
20
0
30
0
70
128
71
11
72
12
73
13
0
VERTEX
8
OBJECT__111
10
0
20
0
30
0
70
128
71
14
72
13
73
12
0
VERTEX
8
OBJECT__111
10
0
20
0
30
0
70
128
71
3
72
8
73
7
0
VERTEX
8
OBJECT__111
10
0
20
0
30
0
70
128
71
4
72
15
73
10
0
VERTEX
8
OBJECT__111
10
0
20
0
30
0
70
128
71
11
72
16
73
10
0
VERTEX
8
OBJECT__111
10
0
20
0
30
0
70
128
71
12
72
17
73
14
0
VERTEX
8
OBJECT__111
10
0
20
0
30
0
70
128
71
18
72
19
73
14
0
VERTEX
8
OBJECT__111
10
0
20
0
30
0
70
128
71
18
72
20
73
21
0
VERTEX
8
OBJECT__111
10
0
20
0
30
0
70
128
71
3
72
9
73
1
0
VERTEX
8
OBJECT__111
10
0
20
0
30
0
70
128
71
13
72
16
73
11
0
VERTEX
8
OBJECT__111
10
0
20
0
30
0
70
128
71
21
72
19
73
18
0
VERTEX
8
OBJECT__111
10
0
20
0
30
0
70
128
71
22
72
21
73
20
0
VERTEX
8
OBJECT__111
10
0
20
0
30
0
70
128
71
10
72
15
73
11
0
VERTEX
8
OBJECT__111
10
0
20
0
30
0
70
128
71
20
72
23
73
22
0
VERTEX
8
OBJECT__111
10
0
20
0
30
0
70
128
71
24
72
25
73
22
0
VERTEX
8
OBJECT__111
10
0
20
0
30
0
70
128
71
26
72
27
73
25
0
VERTEX
8
OBJECT__111
10
0
20
0
30
0
70
128
71
14
72
17
73
18
0
VERTEX
8
OBJECT__111
10
0
20
0
30
0
70
128
71
25
72
24
73
26
0
VERTEX
8
OBJECT__111
10
0
20
0
30
0
70
128
71
22
72
23
73
24
0
VERTEX
8
OBJECT__111
10
0
20
0
30
0
70
128
71
8
72
28
73
6
0
SEQEND
8
OBJECT__111
0
POLYLINE
8
OBJECT__112
66
1
70
64
71
11
72
9
62
253
0
VERTEX
8
OBJECT__112
10
-9.083000
20
211.496994
30
129.962006
70
192
0
VERTEX
8
OBJECT__112
10
33.750999
20
211.496994
30
170.466995
70
192
0
VERTEX
8
OBJECT__112
10
40.705002
20
211.496994
30
163.511993
70
192
0
VERTEX
8
OBJECT__112
10
24.250999
20
211.496994
30
173.011993
70
192
0
VERTEX
8
OBJECT__112
10
-9.083000
20
211.496994
30
173.011993
70
192
0
VERTEX
8
OBJECT__112
10
43.250999
20
211.496994
30
154.011993
70
192
0
VERTEX
8
OBJECT__112
10
43.250999
20
211.496994
30
102.556999
70
192
0
VERTEX
8
OBJECT__112
10
-40.752998
20
211.496994
30
102.556999
70
192
0
VERTEX
8
OBJECT__112
10
-31.083000
20
211.496994
30
107.961998
70
192
0
VERTEX
8
OBJECT__112
10
-15.527000
20
211.496994
30
114.404999
70
192
0
VERTEX
8
OBJECT__112
10
-40.752998
20
211.496994
30
107.961998
70
192
0
VERTEX
8
OBJECT__112
10
0
20
0
30
0
70
128
71
1
72
2
73
3
0
VERTEX
8
OBJECT__112
10
0
20
0
30
0
70
128
71
1
72
4
73
2
0
VERTEX
8
OBJECT__112
10
0
20
0
30
0
70
128
71
1
72
5
73
4
0
VERTEX
8
OBJECT__112
10
0
20
0
30
0
70
128
71
3
72
6
73
1
0
VERTEX
8
OBJECT__112
10
0
20
0
30
0
70
128
71
7
72
8
73
9
0
VERTEX
8
OBJECT__112
10
0
20
0
30
0
70
128
71
7
72
10
73
1
0
VERTEX
8
OBJECT__112
10
0
20
0
30
0
70
128
71
8
72
11
73
9
0
VERTEX
8
OBJECT__112
10
0
20
0
30
0
70
128
71
9
72
10
73
7
0
VERTEX
8
OBJECT__112
10
0
20
0
30
0
70
128
71
6
72
7
73
1
0
SEQEND
8
OBJECT__112
0
POLYLINE
8
OBJECT__113
66
1
70
64
71
9
72
8
62
253
0
VERTEX
8
OBJECT__113
10
-21.027000
20
208.274994
30
119.904999
70
192
0
VERTEX
8
OBJECT__113
10
-31.083000
20
208.274994
30
115.739998
70
192
0
VERTEX
8
OBJECT__113
10
-31.083000
20
200.496994
30
118.961998
70
192
0
VERTEX
8
OBJECT__113
10
-23.305000
20
200.496994
30
122.183998
70
192
0
VERTEX
8
OBJECT__113
10
-20.083000
20
200.496994
30
129.962006
70
192
0
VERTEX
8
OBJECT__113
10
-31.083000
20
211.496994
30
107.961998
70
192
0
VERTEX
8
OBJECT__113
10
-15.527000
20
211.496994
30
114.404999
70
192
0
VERTEX
8
OBJECT__113
10
-16.861000
20
208.274994
30
129.962006
70
192
0
VERTEX
8
OBJECT__113
10
-9.083000
20
211.496994
30
129.962006
70
192
0
VERTEX
8
OBJECT__113
10
0
20
0
30
0
70
128
71
1
72
2
73
3
0
VERTEX
8
OBJECT__113
10
0
20
0
30
0
70
128
71
1
72
4
73
5
0
VERTEX
8
OBJECT__113
10
0
20
0
30
0
70
128
71
6
72
2
73
1
0
VERTEX
8
OBJECT__113
10
0
20
0
30
0
70
128
71
7
72
1
73
8
0
VERTEX
8
OBJECT__113
10
0
20
0
30
0
70
128
71
8
72
9
73
7
0
VERTEX
8
OBJECT__113
10
0
20
0
30
0
70
128
71
1
72
7
73
6
0
VERTEX
8
OBJECT__113
10
0
20
0
30
0
70
128
71
5
72
8
73
1
0
VERTEX
8
OBJECT__113
10
0
20
0
30
0
70
128
71
3
72
4
73
1
0
SEQEND
8
OBJECT__113
0
POLYLINE
8
OBJECT__114
66
1
70
64
71
4
72
2
62
253
0
VERTEX
8
OBJECT__114
10
-51.752998
20
200.496994
30
102.556999
70
192
0
VERTEX
8
OBJECT__114
10
-51.752998
20
-200.496994
30
102.556999
70
192
0
VERTEX
8
OBJECT__114
10
-51.752998
20
-200.496994
30
107.961998
70
192
0
VERTEX
8
OBJECT__114
10
-51.752998
20
200.496994
30
107.961998
70
192
0
VERTEX
8
OBJECT__114
10
0
20
0
30
0
70
128
71
1
72
2
73
3
0
VERTEX
8
OBJECT__114
10
0
20
0
30
0
70
128
71
3
72
4
73
1
0
SEQEND
8
OBJECT__114
0
POLYLINE
8
OBJECT__115
66
1
70
64
71
4
72
2
62
253
0
VERTEX
8
OBJECT__115
10
-31.083000
20
200.496994
30
118.961998
70
192
0
VERTEX
8
OBJECT__115
10
-40.752998
20
200.496994
30
118.961998
70
192
0
VERTEX
8
OBJECT__115
10
-40.752998
20
-200.496994
30
118.961998
70
192
0
VERTEX
8
OBJECT__115
10
-31.083000
20
-200.496994
30
118.961998
70
192
0
VERTEX
8
OBJECT__115
10
0
20
0
30
0
70
128
71
1
72
2
73
3
0
VERTEX
8
OBJECT__115
10
0
20
0
30
0
70
128
71
3
72
4
73
1
0
SEQEND
8
OBJECT__115
0
POLYLINE
8
OBJECT__116
66
1
70
64
71
7
72
6
62
253
0
VERTEX
8
OBJECT__116
10
-40.752998
20
-211.496994
30
107.961998
70
192
0
VERTEX
8
OBJECT__116
10
-40.752998
20
-208.274994
30
115.739998
70
192
0
VERTEX
8
OBJECT__116
10
-48.530998
20
-205.996994
30
113.461998
70
192
0
VERTEX
8
OBJECT__116
10
-40.752998
20
-200.496994
30
118.961998
70
192
0
VERTEX
8
OBJECT__116
10
-48.530998
20
-200.496994
30
115.739998
70
192
0
VERTEX
8
OBJECT__116
10
-51.752998
20
-200.496994
30
107.961998
70
192
0
VERTEX
8
OBJECT__116
10
-48.530998
20
-208.274994
30
107.961998
70
192
0
VERTEX
8
OBJECT__116
10
0
20
0
30
0
70
128
71
1
72
2
73
3
0
VERTEX
8
OBJECT__116
10
0
20
0
30
0
70
128
71
4
72
5
73
3
0
VERTEX
8
OBJECT__116
10
0
20
0
30
0
70
128
71
6
72
3
73
5
0
VERTEX
8
OBJECT__116
10
0
20
0
30
0
70
128
71
6
72
7
73
3
0
VERTEX
8
OBJECT__116
10
0
20
0
30
0
70
128
71
3
72
2
73
4
0
VERTEX
8
OBJECT__116
10
0
20
0
30
0
70
128
71
3
72
7
73
1
0
SEQEND
8
OBJECT__116
0
POLYLINE
8
OBJECT__117
66
1
70
64
71
6
72
4
62
253
0
VERTEX
8
OBJECT__117
10
-48.530998
20
-200.496994
30
115.739998
70
192
0
VERTEX
8
OBJECT__117
10
-40.752998
20
-200.496994
30
118.961998
70
192
0
VERTEX
8
OBJECT__117
10
-40.752998
20
200.496994
30
118.961998
70
192
0
VERTEX
8
OBJECT__117
10
-48.530998
20
200.496994
30
115.739998
70
192
0
VERTEX
8
OBJECT__117
10
-51.752998
20
200.496994
30
107.961998
70
192
0
VERTEX
8
OBJECT__117
10
-51.752998
20
-200.496994
30
107.961998
70
192
0
VERTEX
8
OBJECT__117
10
0
20
0
30
0
70
128
71
1
72
2
73
3
0
VERTEX
8
OBJECT__117
10
0
20
0
30
0
70
128
71
1
72
4
73
5
0
VERTEX
8
OBJECT__117
10
0
20
0
30
0
70
128
71
5
72
6
73
1
0
VERTEX
8
OBJECT__117
10
0
20
0
30
0
70
128
71
3
72
4
73
1
0
SEQEND
8
OBJECT__117
0
POLYLINE
8
OBJECT__118
66
1
70
64
71
6
72
4
62
253
0
VERTEX
8
OBJECT__118
10
-40.752998
20
211.496994
30
102.556999
70
192
0
VERTEX
8
OBJECT__118
10
-48.530998
20
208.274994
30
102.556999
70
192
0
VERTEX
8
OBJECT__118
10
-48.530998
20
208.274994
30
107.961998
70
192
0
VERTEX
8
OBJECT__118
10
-51.752998
20
200.496994
30
107.961998
70
192
0
VERTEX
8
OBJECT__118
10
-51.752998
20
200.496994
30
102.556999
70
192
0
VERTEX
8
OBJECT__118
10
-40.752998
20
211.496994
30
107.961998
70
192
0
VERTEX
8
OBJECT__118
10
0
20
0
30
0
70
128
71
1
72
2
73
3
0
VERTEX
8
OBJECT__118
10
0
20
0
30
0
70
128
71
4
72
3
73
2
0
VERTEX
8
OBJECT__118
10
0
20
0
30
0
70
128
71
2
72
5
73
4
0
VERTEX
8
OBJECT__118
10
0
20
0
30
0
70
128
71
3
72
6
73
1
0
SEQEND
8
OBJECT__118
0
POLYLINE
8
OBJECT__119
66
1
70
64
71
6
72
4
62
253
0
VERTEX
8
OBJECT__119
10
-31.083000
20
211.496994
30
107.961998
70
192
0
VERTEX
8
OBJECT__119
10
-40.752998
20
211.496994
30
107.961998
70
192
0
VERTEX
8
OBJECT__119
10
-40.752998
20
208.274994
30
115.739998
70
192
0
VERTEX
8
OBJECT__119
10
-40.752998
20
200.496994
30
118.961998
70
192
0
VERTEX
8
OBJECT__119
10
-31.083000
20
200.496994
30
118.961998
70
192
0
VERTEX
8
OBJECT__119
10
-31.083000
20
208.274994
30
115.739998
70
192
0
VERTEX
8
OBJECT__119
10
0
20
0
30
0
70
128
71
1
72
2
73
3
0
VERTEX
8
OBJECT__119
10
0
20
0
30
0
70
128
71
4
72
5
73
6
0
VERTEX
8
OBJECT__119
10
0
20
0
30
0
70
128
71
6
72
3
73
4
0
VERTEX
8
OBJECT__119
10
0
20
0
30
0
70
128
71
3
72
6
73
1
0
SEQEND
8
OBJECT__119
0
POLYLINE
8
OBJECT__120
66
1
70
64
71
7
72
6
62
253
0
VERTEX
8
OBJECT__120
10
-40.752998
20
200.496994
30
118.961998
70
192
0
VERTEX
8
OBJECT__120
10
-40.752998
20
208.274994
30
115.739998
70
192
0
VERTEX
8
OBJECT__120
10
-48.530998
20
205.996994
30
113.461998
70
192
0
VERTEX
8
OBJECT__120
10
-40.752998
20
211.496994
30
107.961998
70
192
0
VERTEX
8
OBJECT__120
10
-48.530998
20
208.274994
30
107.961998
70
192
0
VERTEX
8
OBJECT__120
10
-51.752998
20
200.496994
30
107.961998
70
192
0
VERTEX
8
OBJECT__120
10
-48.530998
20
200.496994
30
115.739998
70
192
0
VERTEX
8
OBJECT__120
10
0
20
0
30
0
70
128
71
1
72
2
73
3
0
VERTEX
8
OBJECT__120
10
0
20
0
30
0
70
128
71
4
72
5
73
3
0
VERTEX
8
OBJECT__120
10
0
20
0
30
0
70
128
71
6
72
3
73
5
0
VERTEX
8
OBJECT__120
10
0
20
0
30
0
70
128
71
6
72
7
73
3
0
VERTEX
8
OBJECT__120
10
0
20
0
30
0
70
128
71
3
72
2
73
4
0
VERTEX
8
OBJECT__120
10
0
20
0
30
0
70
128
71
3
72
7
73
1
0
SEQEND
8
OBJECT__120
0
ENDSEC
0
EOF
