999
Converted by 3D Exploration 
999
XDimension Software, LLC
999
http://www.xdsoft.com/explorer/
0
SECTION
2
HEADER
9
$ACADVER
1
AC1008
9
$UCSORG
10
0.0
20
0.0
30
0.0
9
$UCSXDIR
10
1.0
20
0.0
30
0.0
9
$TILEMODE
70
1
9
$UCSYDIR
10
0.0
20
1.0
30
0.0
9
$EXTMIN
10
-30.584000
20
-30.584000
30
-30.584000
9
$EXTMAX
10
30.584000
20
30.584000
30
64.661003
0
ENDSEC
0
SECTION
2
TABLES
0
TABLE
2
LTYPE
70
1
0
LTYPE
2
CONTINUOUS
70
64
3
Solid line
72
65
73
0
40
0.0
0
ENDTAB
0
TABLE
2
LAYER
70
131
0
LAYER
2
OBJECT__0
70
0
62
253
6
CONTINUOUS
0
LAYER
2
OBJECT__1
70
0
62
253
6
CONTINUOUS
0
LAYER
2
OBJECT__3
70
0
62
253
6
CONTINUOUS
0
LAYER
2
OBJECT__4
70
0
62
253
6
CONTINUOUS
0
LAYER
2
OBJECT__5
70
0
62
253
6
CONTINUOUS
0
LAYER
2
OBJECT__6
70
0
62
253
6
CONTINUOUS
0
LAYER
2
OBJECT__7
70
0
62
253
6
CONTINUOUS
0
LAYER
2
OBJECT__8
70
0
62
253
6
CONTINUOUS
0
LAYER
2
OBJECT__9
70
0
62
253
6
CONTINUOUS
0
LAYER
2
OBJECT__10
70
0
62
253
6
CONTINUOUS
0
LAYER
2
OBJECT__11
70
0
62
253
6
CONTINUOUS
0
LAYER
2
OBJECT__12
70
0
62
253
6
CONTINUOUS
0
LAYER
2
OBJECT__13
70
0
62
253
6
CONTINUOUS
0
LAYER
2
OBJECT__14
70
0
62
253
6
CONTINUOUS
0
LAYER
2
OBJECT__15
70
0
62
253
6
CONTINUOUS
0
LAYER
2
OBJECT__16
70
0
62
253
6
CONTINUOUS
0
LAYER
2
OBJECT__17
70
0
62
253
6
CONTINUOUS
0
LAYER
2
OBJECT__18
70
0
62
253
6
CONTINUOUS
0
LAYER
2
OBJECT__19
70
0
62
253
6
CONTINUOUS
0
LAYER
2
OBJECT__20
70
0
62
253
6
CONTINUOUS
0
LAYER
2
OBJECT__21
70
0
62
253
6
CONTINUOUS
0
LAYER
2
OBJECT__22
70
0
62
253
6
CONTINUOUS
0
LAYER
2
OBJECT__23
70
0
62
253
6
CONTINUOUS
0
LAYER
2
OBJECT__24
70
0
62
253
6
CONTINUOUS
0
LAYER
2
OBJECT__25
70
0
62
253
6
CONTINUOUS
0
LAYER
2
OBJECT__26
70
0
62
253
6
CONTINUOUS
0
LAYER
2
OBJECT__27
70
0
62
253
6
CONTINUOUS
0
LAYER
2
OBJECT__28
70
0
62
253
6
CONTINUOUS
0
LAYER
2
OBJECT__29
70
0
62
253
6
CONTINUOUS
0
LAYER
2
OBJECT__30
70
0
62
253
6
CONTINUOUS
0
LAYER
2
OBJECT__31
70
0
62
253
6
CONTINUOUS
0
LAYER
2
OBJECT__32
70
0
62
253
6
CONTINUOUS
0
LAYER
2
OBJECT__33
70
0
62
253
6
CONTINUOUS
0
LAYER
2
OBJECT__34
70
0
62
253
6
CONTINUOUS
0
LAYER
2
OBJECT__35
70
0
62
253
6
CONTINUOUS
0
LAYER
2
OBJECT__36
70
0
62
253
6
CONTINUOUS
0
LAYER
2
OBJECT__37
70
0
62
253
6
CONTINUOUS
0
LAYER
2
OBJECT__38
70
0
62
253
6
CONTINUOUS
0
LAYER
2
OBJECT__39
70
0
62
253
6
CONTINUOUS
0
LAYER
2
OBJECT__40
70
0
62
253
6
CONTINUOUS
0
LAYER
2
OBJECT__41
70
0
62
253
6
CONTINUOUS
0
LAYER
2
OBJECT__42
70
0
62
253
6
CONTINUOUS
0
LAYER
2
OBJECT__43
70
0
62
253
6
CONTINUOUS
0
LAYER
2
OBJECT__44
70
0
62
253
6
CONTINUOUS
0
LAYER
2
OBJECT__45
70
0
62
253
6
CONTINUOUS
0
LAYER
2
OBJECT__46
70
0
62
253
6
CONTINUOUS
0
LAYER
2
OBJECT__47
70
0
62
253
6
CONTINUOUS
0
LAYER
2
OBJECT__48
70
0
62
253
6
CONTINUOUS
0
LAYER
2
OBJECT__49
70
0
62
253
6
CONTINUOUS
0
LAYER
2
OBJECT__50
70
0
62
253
6
CONTINUOUS
0
LAYER
2
OBJECT__51
70
0
62
253
6
CONTINUOUS
0
LAYER
2
OBJECT__52
70
0
62
253
6
CONTINUOUS
0
LAYER
2
OBJECT__53
70
0
62
253
6
CONTINUOUS
0
LAYER
2
OBJECT__54
70
0
62
253
6
CONTINUOUS
0
LAYER
2
OBJECT__55
70
0
62
253
6
CONTINUOUS
0
LAYER
2
OBJECT__56
70
0
62
253
6
CONTINUOUS
0
LAYER
2
OBJECT__57
70
0
62
253
6
CONTINUOUS
0
LAYER
2
OBJECT__58
70
0
62
253
6
CONTINUOUS
0
LAYER
2
OBJECT__59
70
0
62
253
6
CONTINUOUS
0
LAYER
2
OBJECT__60
70
0
62
253
6
CONTINUOUS
0
LAYER
2
OBJECT__61
70
0
62
253
6
CONTINUOUS
0
LAYER
2
OBJECT__62
70
0
62
253
6
CONTINUOUS
0
LAYER
2
OBJECT__63
70
0
62
253
6
CONTINUOUS
0
LAYER
2
OBJECT__64
70
0
62
253
6
CONTINUOUS
0
LAYER
2
OBJECT__65
70
0
62
253
6
CONTINUOUS
0
LAYER
2
OBJECT__66
70
0
62
253
6
CONTINUOUS
0
LAYER
2
OBJECT__67
70
0
62
253
6
CONTINUOUS
0
LAYER
2
OBJECT__68
70
0
62
253
6
CONTINUOUS
0
LAYER
2
OBJECT__69
70
0
62
253
6
CONTINUOUS
0
LAYER
2
OBJECT__70
70
0
62
253
6
CONTINUOUS
0
LAYER
2
OBJECT__71
70
0
62
253
6
CONTINUOUS
0
LAYER
2
OBJECT__72
70
0
62
253
6
CONTINUOUS
0
LAYER
2
OBJECT__73
70
0
62
253
6
CONTINUOUS
0
LAYER
2
OBJECT__74
70
0
62
253
6
CONTINUOUS
0
LAYER
2
OBJECT__75
70
0
62
253
6
CONTINUOUS
0
LAYER
2
OBJECT__76
70
0
62
253
6
CONTINUOUS
0
LAYER
2
OBJECT__77
70
0
62
253
6
CONTINUOUS
0
LAYER
2
OBJECT__78
70
0
62
253
6
CONTINUOUS
0
LAYER
2
OBJECT__79
70
0
62
253
6
CONTINUOUS
0
LAYER
2
OBJECT__80
70
0
62
253
6
CONTINUOUS
0
LAYER
2
OBJECT__81
70
0
62
253
6
CONTINUOUS
0
LAYER
2
OBJECT__82
70
0
62
253
6
CONTINUOUS
0
LAYER
2
OBJECT__83
70
0
62
253
6
CONTINUOUS
0
LAYER
2
OBJECT__84
70
0
62
253
6
CONTINUOUS
0
LAYER
2
OBJECT__85
70
0
62
253
6
CONTINUOUS
0
LAYER
2
OBJECT__86
70
0
62
253
6
CONTINUOUS
0
LAYER
2
OBJECT__87
70
0
62
253
6
CONTINUOUS
0
LAYER
2
OBJECT__88
70
0
62
253
6
CONTINUOUS
0
LAYER
2
OBJECT__89
70
0
62
253
6
CONTINUOUS
0
LAYER
2
OBJECT__90
70
0
62
253
6
CONTINUOUS
0
LAYER
2
OBJECT__91
70
0
62
253
6
CONTINUOUS
0
LAYER
2
OBJECT__92
70
0
62
253
6
CONTINUOUS
0
LAYER
2
OBJECT__93
70
0
62
253
6
CONTINUOUS
0
LAYER
2
OBJECT__94
70
0
62
253
6
CONTINUOUS
0
LAYER
2
OBJECT__95
70
0
62
253
6
CONTINUOUS
0
LAYER
2
OBJECT__96
70
0
62
253
6
CONTINUOUS
0
LAYER
2
OBJECT__97
70
0
62
253
6
CONTINUOUS
0
LAYER
2
OBJECT__98
70
0
62
253
6
CONTINUOUS
0
LAYER
2
OBJECT__99
70
0
62
253
6
CONTINUOUS
0
LAYER
2
OBJECT__100
70
0
62
253
6
CONTINUOUS
0
LAYER
2
OBJECT__101
70
0
62
253
6
CONTINUOUS
0
LAYER
2
OBJECT__102
70
0
62
253
6
CONTINUOUS
0
LAYER
2
OBJECT__103
70
0
62
253
6
CONTINUOUS
0
LAYER
2
OBJECT__104
70
0
62
253
6
CONTINUOUS
0
LAYER
2
OBJECT__105
70
0
62
253
6
CONTINUOUS
0
LAYER
2
OBJECT__106
70
0
62
253
6
CONTINUOUS
0
LAYER
2
OBJECT__107
70
0
62
253
6
CONTINUOUS
0
LAYER
2
OBJECT__108
70
0
62
253
6
CONTINUOUS
0
LAYER
2
OBJECT__109
70
0
62
253
6
CONTINUOUS
0
LAYER
2
OBJECT__110
70
0
62
253
6
CONTINUOUS
0
LAYER
2
OBJECT__111
70
0
62
253
6
CONTINUOUS
0
LAYER
2
OBJECT__112
70
0
62
253
6
CONTINUOUS
0
LAYER
2
OBJECT__114
70
0
62
253
6
CONTINUOUS
0
LAYER
2
OBJECT__115
70
0
62
253
6
CONTINUOUS
0
LAYER
2
OBJECT__116
70
0
62
253
6
CONTINUOUS
0
LAYER
2
OBJECT__117
70
0
62
253
6
CONTINUOUS
0
LAYER
2
OBJECT__118
70
0
62
253
6
CONTINUOUS
0
LAYER
2
OBJECT__119
70
0
62
253
6
CONTINUOUS
0
LAYER
2
OBJECT__120
70
0
62
253
6
CONTINUOUS
0
LAYER
2
OBJECT__122
70
0
62
253
6
CONTINUOUS
0
LAYER
2
OBJECT__123
70
0
62
253
6
CONTINUOUS
0
LAYER
2
OBJECT__124
70
0
62
253
6
CONTINUOUS
0
LAYER
2
OBJECT__125
70
0
62
253
6
CONTINUOUS
0
LAYER
2
OBJECT__127
70
0
62
253
6
CONTINUOUS
0
LAYER
2
OBJECT__128
70
0
62
253
6
CONTINUOUS
0
LAYER
2
OBJECT__129
70
0
62
253
6
CONTINUOUS
0
ENDTAB
0
TABLE
2
STYLE
70
1
0
STYLE
2
STANDARD
70
0
40
0.0
41
1.0
50
0.0
71
0
42
0.2
3
txt
4
1
0
ENDTAB
0
TABLE
2
UCS
70
0
0
ENDTAB
0
ENDSEC
0
SECTION
2
ENTITIES
0
POLYLINE
8
OBJECT__0
66
1
70
64
71
3
72
1
62
253
0
VERTEX
8
OBJECT__0
10
-13.215000
20
22.888000
30
50.134998
70
192
0
VERTEX
8
OBJECT__0
10
-8.675000
20
21.153000
30
48.255001
70
192
0
VERTEX
8
OBJECT__0
10
-13.981000
20
18.090000
30
48.255001
70
192
0
VERTEX
8
OBJECT__0
10
0
20
0
30
0
70
128
71
1
72
2
73
3
0
SEQEND
8
OBJECT__0
0
POLYLINE
8
OBJECT__1
66
1
70
64
71
8
72
6
62
253
0
VERTEX
8
OBJECT__1
10
-7.214000
20
28.940001
30
52.966000
70
192
0
VERTEX
8
OBJECT__1
10
0.000000
20
26.429001
30
50.134998
70
192
0
VERTEX
8
OBJECT__1
10
-3.063000
20
22.657000
30
48.255001
70
192
0
VERTEX
8
OBJECT__1
10
-8.222000
20
28.670000
30
52.966000
70
192
0
VERTEX
8
OBJECT__1
10
-8.675000
20
21.153000
30
48.255001
70
192
0
VERTEX
8
OBJECT__1
10
-13.215000
20
22.888000
30
50.134998
70
192
0
VERTEX
8
OBJECT__1
10
0.000000
20
27.326000
30
50.706001
70
192
0
VERTEX
8
OBJECT__1
10
-13.663000
20
23.665001
30
50.706001
70
192
0
VERTEX
8
OBJECT__1
10
0
20
0
30
0
70
128
71
1
72
2
73
3
0
VERTEX
8
OBJECT__1
10
0
20
0
30
0
70
128
71
4
72
5
73
6
0
VERTEX
8
OBJECT__1
10
0
20
0
30
0
70
128
71
1
72
7
73
2
0
VERTEX
8
OBJECT__1
10
0
20
0
30
0
70
128
71
6
72
8
73
4
0
VERTEX
8
OBJECT__1
10
0
20
0
30
0
70
128
71
4
72
1
73
5
0
VERTEX
8
OBJECT__1
10
0
20
0
30
0
70
128
71
3
72
5
73
1
0
SEQEND
8
OBJECT__1
0
POLYLINE
8
OBJECT__3
66
1
70
64
71
3
72
1
62
253
0
VERTEX
8
OBJECT__3
10
3.063000
20
22.657000
30
48.255001
70
192
0
VERTEX
8
OBJECT__3
10
-3.063000
20
22.657000
30
48.255001
70
192
0
VERTEX
8
OBJECT__3
10
0.000000
20
26.429001
30
50.134998
70
192
0
VERTEX
8
OBJECT__3
10
0
20
0
30
0
70
128
71
1
72
2
73
3
0
SEQEND
8
OBJECT__3
0
POLYLINE
8
OBJECT__4
66
1
70
64
71
5
72
3
62
253
0
VERTEX
8
OBJECT__4
10
-13.663000
20
23.665001
30
50.706001
70
192
0
VERTEX
8
OBJECT__4
10
-20.718000
20
21.455999
30
52.966000
70
192
0
VERTEX
8
OBJECT__4
10
-16.226000
20
25.947001
30
55.266998
70
192
0
VERTEX
8
OBJECT__4
10
-14.358000
20
27.025999
30
55.266998
70
192
0
VERTEX
8
OBJECT__4
10
-8.222000
20
28.670000
30
52.966000
70
192
0
VERTEX
8
OBJECT__4
10
0
20
0
30
0
70
128
71
1
72
2
73
3
0
VERTEX
8
OBJECT__4
10
0
20
0
30
0
70
128
71
3
72
4
73
1
0
VERTEX
8
OBJECT__4
10
0
20
0
30
0
70
128
71
4
72
5
73
1
0
SEQEND
8
OBJECT__4
0
POLYLINE
8
OBJECT__5
66
1
70
64
71
4
72
2
62
253
0
VERTEX
8
OBJECT__5
10
-16.226000
20
25.947001
30
55.266998
70
192
0
VERTEX
8
OBJECT__5
10
-16.226000
20
25.947001
30
57.235001
70
192
0
VERTEX
8
OBJECT__5
10
-14.358000
20
27.025999
30
57.235001
70
192
0
VERTEX
8
OBJECT__5
10
-14.358000
20
27.025999
30
55.266998
70
192
0
VERTEX
8
OBJECT__5
10
0
20
0
30
0
70
128
71
1
72
2
73
3
0
VERTEX
8
OBJECT__5
10
0
20
0
30
0
70
128
71
3
72
4
73
1
0
SEQEND
8
OBJECT__5
0
POLYLINE
8
OBJECT__6
66
1
70
64
71
5
72
3
62
253
0
VERTEX
8
OBJECT__6
10
-13.564000
20
23.493999
30
60.856998
70
192
0
VERTEX
8
OBJECT__6
10
-14.358000
20
27.025999
30
57.235001
70
192
0
VERTEX
8
OBJECT__6
10
-16.226000
20
25.947001
30
57.235001
70
192
0
VERTEX
8
OBJECT__6
10
-8.195000
20
28.677000
30
58.966000
70
192
0
VERTEX
8
OBJECT__6
10
-20.738001
20
21.436001
30
58.966000
70
192
0
VERTEX
8
OBJECT__6
10
0
20
0
30
0
70
128
71
1
72
2
73
3
0
VERTEX
8
OBJECT__6
10
0
20
0
30
0
70
128
71
1
72
4
73
2
0
VERTEX
8
OBJECT__6
10
0
20
0
30
0
70
128
71
3
72
5
73
1
0
SEQEND
8
OBJECT__6
0
POLYLINE
8
OBJECT__7
66
1
70
64
71
8
72
6
62
253
0
VERTEX
8
OBJECT__7
10
-7.242000
20
28.933001
30
58.966000
70
192
0
VERTEX
8
OBJECT__7
10
-1.079000
20
30.584000
30
57.235001
70
192
0
VERTEX
8
OBJECT__7
10
-1.079000
20
30.584000
30
55.266998
70
192
0
VERTEX
8
OBJECT__7
10
-8.195000
20
28.677000
30
58.966000
70
192
0
VERTEX
8
OBJECT__7
10
-8.222000
20
28.670000
30
52.966000
70
192
0
VERTEX
8
OBJECT__7
10
-14.358000
20
27.025999
30
55.266998
70
192
0
VERTEX
8
OBJECT__7
10
-7.214000
20
28.940001
30
52.966000
70
192
0
VERTEX
8
OBJECT__7
10
-14.358000
20
27.025999
30
57.235001
70
192
0
VERTEX
8
OBJECT__7
10
0
20
0
30
0
70
128
71
1
72
2
73
3
0
VERTEX
8
OBJECT__7
10
0
20
0
30
0
70
128
71
4
72
5
73
6
0
VERTEX
8
OBJECT__7
10
0
20
0
30
0
70
128
71
3
72
7
73
1
0
VERTEX
8
OBJECT__7
10
0
20
0
30
0
70
128
71
6
72
8
73
4
0
VERTEX
8
OBJECT__7
10
0
20
0
30
0
70
128
71
4
72
1
73
5
0
VERTEX
8
OBJECT__7
10
0
20
0
30
0
70
128
71
7
72
5
73
1
0
SEQEND
8
OBJECT__7
0
POLYLINE
8
OBJECT__8
66
1
70
64
71
5
72
3
62
253
0
VERTEX
8
OBJECT__8
10
0.000000
20
27.326000
30
50.706001
70
192
0
VERTEX
8
OBJECT__8
10
-1.079000
20
30.584000
30
55.266998
70
192
0
VERTEX
8
OBJECT__8
10
1.079000
20
30.584000
30
55.266998
70
192
0
VERTEX
8
OBJECT__8
10
-7.214000
20
28.940001
30
52.966000
70
192
0
VERTEX
8
OBJECT__8
10
7.214000
20
28.940001
30
52.966000
70
192
0
VERTEX
8
OBJECT__8
10
0
20
0
30
0
70
128
71
1
72
2
73
3
0
VERTEX
8
OBJECT__8
10
0
20
0
30
0
70
128
71
1
72
4
73
2
0
VERTEX
8
OBJECT__8
10
0
20
0
30
0
70
128
71
3
72
5
73
1
0
SEQEND
8
OBJECT__8
0
POLYLINE
8
OBJECT__9
66
1
70
64
71
4
72
2
62
253
0
VERTEX
8
OBJECT__9
10
-1.079000
20
30.584000
30
55.266998
70
192
0
VERTEX
8
OBJECT__9
10
-1.079000
20
30.584000
30
57.235001
70
192
0
VERTEX
8
OBJECT__9
10
1.079000
20
30.584000
30
57.235001
70
192
0
VERTEX
8
OBJECT__9
10
1.079000
20
30.584000
30
55.266998
70
192
0
VERTEX
8
OBJECT__9
10
0
20
0
30
0
70
128
71
1
72
2
73
3
0
VERTEX
8
OBJECT__9
10
0
20
0
30
0
70
128
71
3
72
4
73
1
0
SEQEND
8
OBJECT__9
0
POLYLINE
8
OBJECT__10
66
1
70
64
71
5
72
3
62
253
0
VERTEX
8
OBJECT__10
10
0.000000
20
27.128000
30
60.856998
70
192
0
VERTEX
8
OBJECT__10
10
7.242000
20
28.933001
30
58.966000
70
192
0
VERTEX
8
OBJECT__10
10
1.079000
20
30.584000
30
57.235001
70
192
0
VERTEX
8
OBJECT__10
10
-1.079000
20
30.584000
30
57.235001
70
192
0
VERTEX
8
OBJECT__10
10
-7.242000
20
28.933001
30
58.966000
70
192
0
VERTEX
8
OBJECT__10
10
0
20
0
30
0
70
128
71
1
72
2
73
3
0
VERTEX
8
OBJECT__10
10
0
20
0
30
0
70
128
71
3
72
4
73
1
0
VERTEX
8
OBJECT__10
10
0
20
0
30
0
70
128
71
4
72
5
73
1
0
SEQEND
8
OBJECT__10
0
POLYLINE
8
OBJECT__11
66
1
70
64
71
8
72
6
62
253
0
VERTEX
8
OBJECT__11
10
-7.242000
20
28.933001
30
58.966000
70
192
0
VERTEX
8
OBJECT__11
10
-6.204000
20
23.167999
30
62.018002
70
192
0
VERTEX
8
OBJECT__11
10
0.000000
20
27.124001
30
60.859001
70
192
0
VERTEX
8
OBJECT__11
10
-8.195000
20
28.677000
30
58.966000
70
192
0
VERTEX
8
OBJECT__11
10
-13.564000
20
23.493999
30
60.856998
70
192
0
VERTEX
8
OBJECT__11
10
-13.562000
20
23.490000
30
60.859001
70
192
0
VERTEX
8
OBJECT__11
10
-6.211000
20
23.166000
30
62.018002
70
192
0
VERTEX
8
OBJECT__11
10
0.000000
20
27.128000
30
60.856998
70
192
0
VERTEX
8
OBJECT__11
10
0
20
0
30
0
70
128
71
1
72
2
73
3
0
VERTEX
8
OBJECT__11
10
0
20
0
30
0
70
128
71
4
72
5
73
6
0
VERTEX
8
OBJECT__11
10
0
20
0
30
0
70
128
71
1
72
7
73
2
0
VERTEX
8
OBJECT__11
10
0
20
0
30
0
70
128
71
7
72
1
73
4
0
VERTEX
8
OBJECT__11
10
0
20
0
30
0
70
128
71
6
72
7
73
4
0
VERTEX
8
OBJECT__11
10
0
20
0
30
0
70
128
71
3
72
8
73
1
0
SEQEND
8
OBJECT__11
0
POLYLINE
8
OBJECT__12
66
1
70
64
71
4
72
2
62
253
0
VERTEX
8
OBJECT__12
10
-13.562000
20
23.490000
30
60.859001
70
192
0
VERTEX
8
OBJECT__12
10
-16.957001
20
16.962000
30
62.018002
70
192
0
VERTEX
8
OBJECT__12
10
-10.934000
20
18.938000
30
62.398998
70
192
0
VERTEX
8
OBJECT__12
10
-6.211000
20
23.166000
30
62.018002
70
192
0
VERTEX
8
OBJECT__12
10
0
20
0
30
0
70
128
71
1
72
2
73
3
0
VERTEX
8
OBJECT__12
10
0
20
0
30
0
70
128
71
3
72
4
73
1
0
SEQEND
8
OBJECT__12
0
POLYLINE
8
OBJECT__13
66
1
70
64
71
4
72
2
62
253
0
VERTEX
8
OBJECT__13
10
0.000000
20
27.124001
30
60.859001
70
192
0
VERTEX
8
OBJECT__13
10
-6.204000
20
23.167999
30
62.018002
70
192
0
VERTEX
8
OBJECT__13
10
0.000000
20
21.867001
30
62.398998
70
192
0
VERTEX
8
OBJECT__13
10
6.204000
20
23.167999
30
62.018002
70
192
0
VERTEX
8
OBJECT__13
10
0
20
0
30
0
70
128
71
1
72
2
73
3
0
VERTEX
8
OBJECT__13
10
0
20
0
30
0
70
128
71
3
72
4
73
1
0
SEQEND
8
OBJECT__13
0
POLYLINE
8
OBJECT__14
66
1
70
64
71
6
72
4
62
253
0
VERTEX
8
OBJECT__14
10
-6.211000
20
23.166000
30
62.018002
70
192
0
VERTEX
8
OBJECT__14
10
-10.934000
20
18.938000
30
62.398998
70
192
0
VERTEX
8
OBJECT__14
10
-2.135000
20
3.698000
30
64.661003
70
192
0
VERTEX
8
OBJECT__14
10
0.000000
20
4.270000
30
64.661003
70
192
0
VERTEX
8
OBJECT__14
10
0.000000
20
21.867001
30
62.398998
70
192
0
VERTEX
8
OBJECT__14
10
-6.204000
20
23.167999
30
62.018002
70
192
0
VERTEX
8
OBJECT__14
10
0
20
0
30
0
70
128
71
1
72
2
73
3
0
VERTEX
8
OBJECT__14
10
0
20
0
30
0
70
128
71
4
72
5
73
6
0
VERTEX
8
OBJECT__14
10
0
20
0
30
0
70
128
71
6
72
1
73
4
0
VERTEX
8
OBJECT__14
10
0
20
0
30
0
70
128
71
3
72
4
73
1
0
SEQEND
8
OBJECT__14
0
POLYLINE
8
OBJECT__15
66
1
70
64
71
6
72
4
62
253
0
VERTEX
8
OBJECT__15
10
-16.962000
20
16.957001
30
62.018002
70
192
0
VERTEX
8
OBJECT__15
10
-18.938000
20
10.934000
30
62.398998
70
192
0
VERTEX
8
OBJECT__15
10
-3.698000
20
2.135000
30
64.661003
70
192
0
VERTEX
8
OBJECT__15
10
-2.135000
20
3.698000
30
64.661003
70
192
0
VERTEX
8
OBJECT__15
10
-10.934000
20
18.938000
30
62.398998
70
192
0
VERTEX
8
OBJECT__15
10
-16.957001
20
16.962000
30
62.018002
70
192
0
VERTEX
8
OBJECT__15
10
0
20
0
30
0
70
128
71
1
72
2
73
3
0
VERTEX
8
OBJECT__15
10
0
20
0
30
0
70
128
71
4
72
5
73
6
0
VERTEX
8
OBJECT__15
10
0
20
0
30
0
70
128
71
6
72
1
73
4
0
VERTEX
8
OBJECT__15
10
0
20
0
30
0
70
128
71
3
72
4
73
1
0
SEQEND
8
OBJECT__15
0
POLYLINE
8
OBJECT__16
66
1
70
64
71
4
72
2
62
253
0
VERTEX
8
OBJECT__16
10
-23.490000
20
13.562000
30
60.859001
70
192
0
VERTEX
8
OBJECT__16
10
-23.166000
20
6.211000
30
62.018002
70
192
0
VERTEX
8
OBJECT__16
10
-18.938000
20
10.934000
30
62.398998
70
192
0
VERTEX
8
OBJECT__16
10
-16.962000
20
16.957001
30
62.018002
70
192
0
VERTEX
8
OBJECT__16
10
0
20
0
30
0
70
128
71
1
72
2
73
3
0
VERTEX
8
OBJECT__16
10
0
20
0
30
0
70
128
71
3
72
4
73
1
0
SEQEND
8
OBJECT__16
0
POLYLINE
8
OBJECT__17
66
1
70
64
71
8
72
6
62
253
0
VERTEX
8
OBJECT__17
10
-20.738001
20
21.436001
30
58.966000
70
192
0
VERTEX
8
OBJECT__17
10
-16.957001
20
16.962000
30
62.018002
70
192
0
VERTEX
8
OBJECT__17
10
-13.562000
20
23.490000
30
60.859001
70
192
0
VERTEX
8
OBJECT__17
10
-21.436001
20
20.738001
30
58.966000
70
192
0
VERTEX
8
OBJECT__17
10
-23.493999
20
13.564000
30
60.856998
70
192
0
VERTEX
8
OBJECT__17
10
-23.490000
20
13.562000
30
60.859001
70
192
0
VERTEX
8
OBJECT__17
10
-13.564000
20
23.493999
30
60.856998
70
192
0
VERTEX
8
OBJECT__17
10
-16.962000
20
16.957001
30
62.018002
70
192
0
VERTEX
8
OBJECT__17
10
0
20
0
30
0
70
128
71
1
72
2
73
3
0
VERTEX
8
OBJECT__17
10
0
20
0
30
0
70
128
71
4
72
5
73
6
0
VERTEX
8
OBJECT__17
10
0
20
0
30
0
70
128
71
3
72
7
73
1
0
VERTEX
8
OBJECT__17
10
0
20
0
30
0
70
128
71
6
72
8
73
4
0
VERTEX
8
OBJECT__17
10
0
20
0
30
0
70
128
71
8
72
2
73
4
0
VERTEX
8
OBJECT__17
10
0
20
0
30
0
70
128
71
1
72
4
73
2
0
SEQEND
8
OBJECT__17
0
POLYLINE
8
OBJECT__18
66
1
70
64
71
8
72
6
62
253
0
VERTEX
8
OBJECT__18
10
-20.738001
20
21.436001
30
58.966000
70
192
0
VERTEX
8
OBJECT__18
10
-16.226000
20
25.947001
30
57.235001
70
192
0
VERTEX
8
OBJECT__18
10
-16.226000
20
25.947001
30
55.266998
70
192
0
VERTEX
8
OBJECT__18
10
-21.436001
20
20.738001
30
58.966000
70
192
0
VERTEX
8
OBJECT__18
10
-21.455999
20
20.718000
30
52.966000
70
192
0
VERTEX
8
OBJECT__18
10
-25.947001
20
16.226000
30
55.266998
70
192
0
VERTEX
8
OBJECT__18
10
-20.718000
20
21.455999
30
52.966000
70
192
0
VERTEX
8
OBJECT__18
10
-25.947001
20
16.226000
30
57.235001
70
192
0
VERTEX
8
OBJECT__18
10
0
20
0
30
0
70
128
71
1
72
2
73
3
0
VERTEX
8
OBJECT__18
10
0
20
0
30
0
70
128
71
4
72
5
73
6
0
VERTEX
8
OBJECT__18
10
0
20
0
30
0
70
128
71
7
72
4
73
1
0
VERTEX
8
OBJECT__18
10
0
20
0
30
0
70
128
71
4
72
7
73
5
0
VERTEX
8
OBJECT__18
10
0
20
0
30
0
70
128
71
6
72
8
73
4
0
VERTEX
8
OBJECT__18
10
0
20
0
30
0
70
128
71
3
72
7
73
1
0
SEQEND
8
OBJECT__18
0
POLYLINE
8
OBJECT__19
66
1
70
64
71
5
72
3
62
253
0
VERTEX
8
OBJECT__19
10
-23.493999
20
13.564000
30
60.856998
70
192
0
VERTEX
8
OBJECT__19
10
-25.947001
20
16.226000
30
57.235001
70
192
0
VERTEX
8
OBJECT__19
10
-27.025999
20
14.358000
30
57.235001
70
192
0
VERTEX
8
OBJECT__19
10
-21.436001
20
20.738001
30
58.966000
70
192
0
VERTEX
8
OBJECT__19
10
-28.677000
20
8.195000
30
58.966000
70
192
0
VERTEX
8
OBJECT__19
10
0
20
0
30
0
70
128
71
1
72
2
73
3
0
VERTEX
8
OBJECT__19
10
0
20
0
30
0
70
128
71
1
72
4
73
2
0
VERTEX
8
OBJECT__19
10
0
20
0
30
0
70
128
71
3
72
5
73
1
0
SEQEND
8
OBJECT__19
0
POLYLINE
8
OBJECT__20
66
1
70
64
71
4
72
2
62
253
0
VERTEX
8
OBJECT__20
10
-25.947001
20
16.226000
30
55.266998
70
192
0
VERTEX
8
OBJECT__20
10
-27.025999
20
14.358000
30
55.266998
70
192
0
VERTEX
8
OBJECT__20
10
-27.025999
20
14.358000
30
57.235001
70
192
0
VERTEX
8
OBJECT__20
10
-25.947001
20
16.226000
30
57.235001
70
192
0
VERTEX
8
OBJECT__20
10
0
20
0
30
0
70
128
71
1
72
2
73
3
0
VERTEX
8
OBJECT__20
10
0
20
0
30
0
70
128
71
3
72
4
73
1
0
SEQEND
8
OBJECT__20
0
POLYLINE
8
OBJECT__21
66
1
70
64
71
5
72
3
62
253
0
VERTEX
8
OBJECT__21
10
-23.665001
20
13.663000
30
50.706001
70
192
0
VERTEX
8
OBJECT__21
10
-27.025999
20
14.358000
30
55.266998
70
192
0
VERTEX
8
OBJECT__21
10
-25.947001
20
16.226000
30
55.266998
70
192
0
VERTEX
8
OBJECT__21
10
-28.670000
20
8.222000
30
52.966000
70
192
0
VERTEX
8
OBJECT__21
10
-21.455999
20
20.718000
30
52.966000
70
192
0
VERTEX
8
OBJECT__21
10
0
20
0
30
0
70
128
71
1
72
2
73
3
0
VERTEX
8
OBJECT__21
10
0
20
0
30
0
70
128
71
1
72
4
73
2
0
VERTEX
8
OBJECT__21
10
0
20
0
30
0
70
128
71
3
72
5
73
1
0
SEQEND
8
OBJECT__21
0
POLYLINE
8
OBJECT__22
66
1
70
64
71
8
72
6
62
253
0
VERTEX
8
OBJECT__22
10
-20.718000
20
21.455999
30
52.966000
70
192
0
VERTEX
8
OBJECT__22
10
-13.215000
20
22.888000
30
50.134998
70
192
0
VERTEX
8
OBJECT__22
10
-13.981000
20
18.090000
30
48.255001
70
192
0
VERTEX
8
OBJECT__22
10
-21.455999
20
20.718000
30
52.966000
70
192
0
VERTEX
8
OBJECT__22
10
-18.090000
20
13.981000
30
48.255001
70
192
0
VERTEX
8
OBJECT__22
10
-22.888000
20
13.215000
30
50.134998
70
192
0
VERTEX
8
OBJECT__22
10
-13.663000
20
23.665001
30
50.706001
70
192
0
VERTEX
8
OBJECT__22
10
-23.665001
20
13.663000
30
50.706001
70
192
0
VERTEX
8
OBJECT__22
10
0
20
0
30
0
70
128
71
1
72
2
73
3
0
VERTEX
8
OBJECT__22
10
0
20
0
30
0
70
128
71
4
72
5
73
6
0
VERTEX
8
OBJECT__22
10
0
20
0
30
0
70
128
71
1
72
7
73
2
0
VERTEX
8
OBJECT__22
10
0
20
0
30
0
70
128
71
6
72
8
73
4
0
VERTEX
8
OBJECT__22
10
0
20
0
30
0
70
128
71
4
72
1
73
5
0
VERTEX
8
OBJECT__22
10
0
20
0
30
0
70
128
71
3
72
5
73
1
0
SEQEND
8
OBJECT__22
0
POLYLINE
8
OBJECT__23
66
1
70
64
71
3
72
1
62
253
0
VERTEX
8
OBJECT__23
10
-21.153000
20
8.675000
30
48.255001
70
192
0
VERTEX
8
OBJECT__23
10
-22.888000
20
13.215000
30
50.134998
70
192
0
VERTEX
8
OBJECT__23
10
-18.090000
20
13.981000
30
48.255001
70
192
0
VERTEX
8
OBJECT__23
10
0
20
0
30
0
70
128
71
1
72
2
73
3
0
SEQEND
8
OBJECT__23
0
POLYLINE
8
OBJECT__24
66
1
70
64
71
6
72
4
62
253
0
VERTEX
8
OBJECT__24
10
-4.270000
20
0.000000
30
64.661003
70
192
0
VERTEX
8
OBJECT__24
10
-23.166000
20
6.211000
30
62.018002
70
192
0
VERTEX
8
OBJECT__24
10
-23.167999
20
6.204000
30
62.018002
70
192
0
VERTEX
8
OBJECT__24
10
-3.698000
20
2.135000
30
64.661003
70
192
0
VERTEX
8
OBJECT__24
10
-18.938000
20
10.934000
30
62.398998
70
192
0
VERTEX
8
OBJECT__24
10
-21.867001
20
0.000000
30
62.398998
70
192
0
VERTEX
8
OBJECT__24
10
0
20
0
30
0
70
128
71
1
72
2
73
3
0
VERTEX
8
OBJECT__24
10
0
20
0
30
0
70
128
71
2
72
1
73
4
0
VERTEX
8
OBJECT__24
10
0
20
0
30
0
70
128
71
4
72
5
73
2
0
VERTEX
8
OBJECT__24
10
0
20
0
30
0
70
128
71
3
72
6
73
1
0
SEQEND
8
OBJECT__24
0
POLYLINE
8
OBJECT__25
66
1
70
64
71
4
72
2
62
253
0
VERTEX
8
OBJECT__25
10
-27.124001
20
0.000000
30
60.859001
70
192
0
VERTEX
8
OBJECT__25
10
-23.167999
20
-6.204000
30
62.018002
70
192
0
VERTEX
8
OBJECT__25
10
-21.867001
20
0.000000
30
62.398998
70
192
0
VERTEX
8
OBJECT__25
10
-23.167999
20
6.204000
30
62.018002
70
192
0
VERTEX
8
OBJECT__25
10
0
20
0
30
0
70
128
71
1
72
2
73
3
0
VERTEX
8
OBJECT__25
10
0
20
0
30
0
70
128
71
3
72
4
73
1
0
SEQEND
8
OBJECT__25
0
POLYLINE
8
OBJECT__26
66
1
70
64
71
8
72
6
62
253
0
VERTEX
8
OBJECT__26
10
-28.677000
20
8.195000
30
58.966000
70
192
0
VERTEX
8
OBJECT__26
10
-23.166000
20
6.211000
30
62.018002
70
192
0
VERTEX
8
OBJECT__26
10
-23.490000
20
13.562000
30
60.859001
70
192
0
VERTEX
8
OBJECT__26
10
-28.933001
20
7.242000
30
58.966000
70
192
0
VERTEX
8
OBJECT__26
10
-27.128000
20
0.000000
30
60.856998
70
192
0
VERTEX
8
OBJECT__26
10
-27.124001
20
0.000000
30
60.859001
70
192
0
VERTEX
8
OBJECT__26
10
-23.167999
20
6.204000
30
62.018002
70
192
0
VERTEX
8
OBJECT__26
10
-23.493999
20
13.564000
30
60.856998
70
192
0
VERTEX
8
OBJECT__26
10
0
20
0
30
0
70
128
71
1
72
2
73
3
0
VERTEX
8
OBJECT__26
10
0
20
0
30
0
70
128
71
4
72
5
73
6
0
VERTEX
8
OBJECT__26
10
0
20
0
30
0
70
128
71
1
72
7
73
2
0
VERTEX
8
OBJECT__26
10
0
20
0
30
0
70
128
71
7
72
1
73
4
0
VERTEX
8
OBJECT__26
10
0
20
0
30
0
70
128
71
6
72
7
73
4
0
VERTEX
8
OBJECT__26
10
0
20
0
30
0
70
128
71
3
72
8
73
1
0
SEQEND
8
OBJECT__26
0
POLYLINE
8
OBJECT__27
66
1
70
64
71
8
72
6
62
253
0
VERTEX
8
OBJECT__27
10
-28.677000
20
8.195000
30
58.966000
70
192
0
VERTEX
8
OBJECT__27
10
-27.025999
20
14.358000
30
57.235001
70
192
0
VERTEX
8
OBJECT__27
10
-27.025999
20
14.358000
30
55.266998
70
192
0
VERTEX
8
OBJECT__27
10
-28.933001
20
7.242000
30
58.966000
70
192
0
VERTEX
8
OBJECT__27
10
-28.940001
20
7.214000
30
52.966000
70
192
0
VERTEX
8
OBJECT__27
10
-30.584000
20
1.079000
30
55.266998
70
192
0
VERTEX
8
OBJECT__27
10
-28.670000
20
8.222000
30
52.966000
70
192
0
VERTEX
8
OBJECT__27
10
-30.584000
20
1.079000
30
57.235001
70
192
0
VERTEX
8
OBJECT__27
10
0
20
0
30
0
70
128
71
1
72
2
73
3
0
VERTEX
8
OBJECT__27
10
0
20
0
30
0
70
128
71
4
72
5
73
6
0
VERTEX
8
OBJECT__27
10
0
20
0
30
0
70
128
71
3
72
7
73
1
0
VERTEX
8
OBJECT__27
10
0
20
0
30
0
70
128
71
6
72
8
73
4
0
VERTEX
8
OBJECT__27
10
0
20
0
30
0
70
128
71
4
72
1
73
5
0
VERTEX
8
OBJECT__27
10
0
20
0
30
0
70
128
71
7
72
5
73
1
0
SEQEND
8
OBJECT__27
0
POLYLINE
8
OBJECT__28
66
1
70
64
71
5
72
3
62
253
0
VERTEX
8
OBJECT__28
10
-27.128000
20
0.000000
30
60.856998
70
192
0
VERTEX
8
OBJECT__28
10
-30.584000
20
1.079000
30
57.235001
70
192
0
VERTEX
8
OBJECT__28
10
-30.584000
20
-1.079000
30
57.235001
70
192
0
VERTEX
8
OBJECT__28
10
-28.933001
20
7.242000
30
58.966000
70
192
0
VERTEX
8
OBJECT__28
10
-28.933001
20
-7.242000
30
58.966000
70
192
0
VERTEX
8
OBJECT__28
10
0
20
0
30
0
70
128
71
1
72
2
73
3
0
VERTEX
8
OBJECT__28
10
0
20
0
30
0
70
128
71
1
72
4
73
2
0
VERTEX
8
OBJECT__28
10
0
20
0
30
0
70
128
71
3
72
5
73
1
0
SEQEND
8
OBJECT__28
0
POLYLINE
8
OBJECT__29
66
1
70
64
71
4
72
2
62
253
0
VERTEX
8
OBJECT__29
10
-30.584000
20
-1.079000
30
55.266998
70
192
0
VERTEX
8
OBJECT__29
10
-30.584000
20
-1.079000
30
57.235001
70
192
0
VERTEX
8
OBJECT__29
10
-30.584000
20
1.079000
30
57.235001
70
192
0
VERTEX
8
OBJECT__29
10
-30.584000
20
1.079000
30
55.266998
70
192
0
VERTEX
8
OBJECT__29
10
0
20
0
30
0
70
128
71
1
72
2
73
3
0
VERTEX
8
OBJECT__29
10
0
20
0
30
0
70
128
71
3
72
4
73
1
0
SEQEND
8
OBJECT__29
0
POLYLINE
8
OBJECT__30
66
1
70
64
71
5
72
3
62
253
0
VERTEX
8
OBJECT__30
10
-27.326000
20
0.000000
30
50.706001
70
192
0
VERTEX
8
OBJECT__30
10
-30.584000
20
-1.079000
30
55.266998
70
192
0
VERTEX
8
OBJECT__30
10
-30.584000
20
1.079000
30
55.266998
70
192
0
VERTEX
8
OBJECT__30
10
-28.940001
20
-7.214000
30
52.966000
70
192
0
VERTEX
8
OBJECT__30
10
-28.940001
20
7.214000
30
52.966000
70
192
0
VERTEX
8
OBJECT__30
10
0
20
0
30
0
70
128
71
1
72
2
73
3
0
VERTEX
8
OBJECT__30
10
0
20
0
30
0
70
128
71
1
72
4
73
2
0
VERTEX
8
OBJECT__30
10
0
20
0
30
0
70
128
71
3
72
5
73
1
0
SEQEND
8
OBJECT__30
0
POLYLINE
8
OBJECT__31
66
1
70
64
71
8
72
6
62
253
0
VERTEX
8
OBJECT__31
10
-28.670000
20
8.222000
30
52.966000
70
192
0
VERTEX
8
OBJECT__31
10
-23.665001
20
13.663000
30
50.706001
70
192
0
VERTEX
8
OBJECT__31
10
-22.888000
20
13.215000
30
50.134998
70
192
0
VERTEX
8
OBJECT__31
10
-28.940001
20
7.214000
30
52.966000
70
192
0
VERTEX
8
OBJECT__31
10
-21.153000
20
8.675000
30
48.255001
70
192
0
VERTEX
8
OBJECT__31
10
-22.657000
20
3.063000
30
48.255001
70
192
0
VERTEX
8
OBJECT__31
10
-26.429001
20
0.000000
30
50.134998
70
192
0
VERTEX
8
OBJECT__31
10
-27.326000
20
0.000000
30
50.706001
70
192
0
VERTEX
8
OBJECT__31
10
0
20
0
30
0
70
128
71
1
72
2
73
3
0
VERTEX
8
OBJECT__31
10
0
20
0
30
0
70
128
71
4
72
5
73
6
0
VERTEX
8
OBJECT__31
10
0
20
0
30
0
70
128
71
5
72
4
73
1
0
VERTEX
8
OBJECT__31
10
0
20
0
30
0
70
128
71
6
72
7
73
4
0
VERTEX
8
OBJECT__31
10
0
20
0
30
0
70
128
71
7
72
8
73
4
0
VERTEX
8
OBJECT__31
10
0
20
0
30
0
70
128
71
3
72
5
73
1
0
SEQEND
8
OBJECT__31
0
POLYLINE
8
OBJECT__32
66
1
70
64
71
3
72
1
62
253
0
VERTEX
8
OBJECT__32
10
-26.429001
20
0.000000
30
50.134998
70
192
0
VERTEX
8
OBJECT__32
10
-22.657000
20
3.063000
30
48.255001
70
192
0
VERTEX
8
OBJECT__32
10
-22.657000
20
-3.063000
30
48.255001
70
192
0
VERTEX
8
OBJECT__32
10
0
20
0
30
0
70
128
71
1
72
2
73
3
0
SEQEND
8
OBJECT__32
0
POLYLINE
8
OBJECT__33
66
1
70
64
71
6
72
4
62
253
0
VERTEX
8
OBJECT__33
10
-23.166000
20
-6.211000
30
62.018002
70
192
0
VERTEX
8
OBJECT__33
10
-18.938000
20
-10.934000
30
62.398998
70
192
0
VERTEX
8
OBJECT__33
10
-3.698000
20
-2.135000
30
64.661003
70
192
0
VERTEX
8
OBJECT__33
10
-4.270000
20
0.000000
30
64.661003
70
192
0
VERTEX
8
OBJECT__33
10
-21.867001
20
0.000000
30
62.398998
70
192
0
VERTEX
8
OBJECT__33
10
-23.167999
20
-6.204000
30
62.018002
70
192
0
VERTEX
8
OBJECT__33
10
0
20
0
30
0
70
128
71
1
72
2
73
3
0
VERTEX
8
OBJECT__33
10
0
20
0
30
0
70
128
71
4
72
5
73
6
0
VERTEX
8
OBJECT__33
10
0
20
0
30
0
70
128
71
6
72
1
73
4
0
VERTEX
8
OBJECT__33
10
0
20
0
30
0
70
128
71
3
72
4
73
1
0
SEQEND
8
OBJECT__33
0
POLYLINE
8
OBJECT__34
66
1
70
64
71
4
72
2
62
253
0
VERTEX
8
OBJECT__34
10
-23.490000
20
-13.562000
30
60.859001
70
192
0
VERTEX
8
OBJECT__34
10
-16.962000
20
-16.957001
30
62.018002
70
192
0
VERTEX
8
OBJECT__34
10
-18.938000
20
-10.934000
30
62.398998
70
192
0
VERTEX
8
OBJECT__34
10
-23.166000
20
-6.211000
30
62.018002
70
192
0
VERTEX
8
OBJECT__34
10
0
20
0
30
0
70
128
71
1
72
2
73
3
0
VERTEX
8
OBJECT__34
10
0
20
0
30
0
70
128
71
3
72
4
73
1
0
SEQEND
8
OBJECT__34
0
POLYLINE
8
OBJECT__35
66
1
70
64
71
8
72
6
62
253
0
VERTEX
8
OBJECT__35
10
-28.933001
20
-7.242000
30
58.966000
70
192
0
VERTEX
8
OBJECT__35
10
-23.167999
20
-6.204000
30
62.018002
70
192
0
VERTEX
8
OBJECT__35
10
-27.124001
20
0.000000
30
60.859001
70
192
0
VERTEX
8
OBJECT__35
10
-28.677000
20
-8.195000
30
58.966000
70
192
0
VERTEX
8
OBJECT__35
10
-23.493999
20
-13.564000
30
60.856998
70
192
0
VERTEX
8
OBJECT__35
10
-23.490000
20
-13.562000
30
60.859001
70
192
0
VERTEX
8
OBJECT__35
10
-27.128000
20
0.000000
30
60.856998
70
192
0
VERTEX
8
OBJECT__35
10
-23.166000
20
-6.211000
30
62.018002
70
192
0
VERTEX
8
OBJECT__35
10
0
20
0
30
0
70
128
71
1
72
2
73
3
0
VERTEX
8
OBJECT__35
10
0
20
0
30
0
70
128
71
4
72
5
73
6
0
VERTEX
8
OBJECT__35
10
0
20
0
30
0
70
128
71
3
72
7
73
1
0
VERTEX
8
OBJECT__35
10
0
20
0
30
0
70
128
71
6
72
8
73
4
0
VERTEX
8
OBJECT__35
10
0
20
0
30
0
70
128
71
8
72
2
73
4
0
VERTEX
8
OBJECT__35
10
0
20
0
30
0
70
128
71
1
72
4
73
2
0
SEQEND
8
OBJECT__35
0
POLYLINE
8
OBJECT__36
66
1
70
64
71
8
72
6
62
253
0
VERTEX
8
OBJECT__36
10
-28.933001
20
-7.242000
30
58.966000
70
192
0
VERTEX
8
OBJECT__36
10
-30.584000
20
-1.079000
30
57.235001
70
192
0
VERTEX
8
OBJECT__36
10
-30.584000
20
-1.079000
30
55.266998
70
192
0
VERTEX
8
OBJECT__36
10
-28.677000
20
-8.195000
30
58.966000
70
192
0
VERTEX
8
OBJECT__36
10
-28.670000
20
-8.222000
30
52.966000
70
192
0
VERTEX
8
OBJECT__36
10
-27.025999
20
-14.358000
30
55.266998
70
192
0
VERTEX
8
OBJECT__36
10
-28.940001
20
-7.214000
30
52.966000
70
192
0
VERTEX
8
OBJECT__36
10
-27.025999
20
-14.358000
30
57.235001
70
192
0
VERTEX
8
OBJECT__36
10
0
20
0
30
0
70
128
71
1
72
2
73
3
0
VERTEX
8
OBJECT__36
10
0
20
0
30
0
70
128
71
4
72
5
73
6
0
VERTEX
8
OBJECT__36
10
0
20
0
30
0
70
128
71
7
72
4
73
1
0
VERTEX
8
OBJECT__36
10
0
20
0
30
0
70
128
71
4
72
7
73
5
0
VERTEX
8
OBJECT__36
10
0
20
0
30
0
70
128
71
6
72
8
73
4
0
VERTEX
8
OBJECT__36
10
0
20
0
30
0
70
128
71
3
72
7
73
1
0
SEQEND
8
OBJECT__36
0
POLYLINE
8
OBJECT__37
66
1
70
64
71
5
72
3
62
253
0
VERTEX
8
OBJECT__37
10
-23.493999
20
-13.564000
30
60.856998
70
192
0
VERTEX
8
OBJECT__37
10
-27.025999
20
-14.358000
30
57.235001
70
192
0
VERTEX
8
OBJECT__37
10
-25.947001
20
-16.226000
30
57.235001
70
192
0
VERTEX
8
OBJECT__37
10
-28.677000
20
-8.195000
30
58.966000
70
192
0
VERTEX
8
OBJECT__37
10
-21.436001
20
-20.738001
30
58.966000
70
192
0
VERTEX
8
OBJECT__37
10
0
20
0
30
0
70
128
71
1
72
2
73
3
0
VERTEX
8
OBJECT__37
10
0
20
0
30
0
70
128
71
1
72
4
73
2
0
VERTEX
8
OBJECT__37
10
0
20
0
30
0
70
128
71
3
72
5
73
1
0
SEQEND
8
OBJECT__37
0
POLYLINE
8
OBJECT__38
66
1
70
64
71
4
72
2
62
253
0
VERTEX
8
OBJECT__38
10
-25.947001
20
-16.226000
30
55.266998
70
192
0
VERTEX
8
OBJECT__38
10
-25.947001
20
-16.226000
30
57.235001
70
192
0
VERTEX
8
OBJECT__38
10
-27.025999
20
-14.358000
30
57.235001
70
192
0
VERTEX
8
OBJECT__38
10
-27.025999
20
-14.358000
30
55.266998
70
192
0
VERTEX
8
OBJECT__38
10
0
20
0
30
0
70
128
71
1
72
2
73
3
0
VERTEX
8
OBJECT__38
10
0
20
0
30
0
70
128
71
3
72
4
73
1
0
SEQEND
8
OBJECT__38
0
POLYLINE
8
OBJECT__39
66
1
70
64
71
5
72
3
62
253
0
VERTEX
8
OBJECT__39
10
-23.665001
20
-13.663000
30
50.706001
70
192
0
VERTEX
8
OBJECT__39
10
-25.947001
20
-16.226000
30
55.266998
70
192
0
VERTEX
8
OBJECT__39
10
-27.025999
20
-14.358000
30
55.266998
70
192
0
VERTEX
8
OBJECT__39
10
-21.455999
20
-20.718000
30
52.966000
70
192
0
VERTEX
8
OBJECT__39
10
-28.670000
20
-8.222000
30
52.966000
70
192
0
VERTEX
8
OBJECT__39
10
0
20
0
30
0
70
128
71
1
72
2
73
3
0
VERTEX
8
OBJECT__39
10
0
20
0
30
0
70
128
71
1
72
4
73
2
0
VERTEX
8
OBJECT__39
10
0
20
0
30
0
70
128
71
3
72
5
73
1
0
SEQEND
8
OBJECT__39
0
POLYLINE
8
OBJECT__40
66
1
70
64
71
8
72
6
62
253
0
VERTEX
8
OBJECT__40
10
-28.940001
20
-7.214000
30
52.966000
70
192
0
VERTEX
8
OBJECT__40
10
-26.429001
20
0.000000
30
50.134998
70
192
0
VERTEX
8
OBJECT__40
10
-22.657000
20
-3.063000
30
48.255001
70
192
0
VERTEX
8
OBJECT__40
10
-28.670000
20
-8.222000
30
52.966000
70
192
0
VERTEX
8
OBJECT__40
10
-21.153000
20
-8.675000
30
48.255001
70
192
0
VERTEX
8
OBJECT__40
10
-22.888000
20
-13.215000
30
50.134998
70
192
0
VERTEX
8
OBJECT__40
10
-27.326000
20
0.000000
30
50.706001
70
192
0
VERTEX
8
OBJECT__40
10
-23.665001
20
-13.663000
30
50.706001
70
192
0
VERTEX
8
OBJECT__40
10
0
20
0
30
0
70
128
71
1
72
2
73
3
0
VERTEX
8
OBJECT__40
10
0
20
0
30
0
70
128
71
4
72
5
73
6
0
VERTEX
8
OBJECT__40
10
0
20
0
30
0
70
128
71
1
72
7
73
2
0
VERTEX
8
OBJECT__40
10
0
20
0
30
0
70
128
71
6
72
8
73
4
0
VERTEX
8
OBJECT__40
10
0
20
0
30
0
70
128
71
4
72
1
73
5
0
VERTEX
8
OBJECT__40
10
0
20
0
30
0
70
128
71
3
72
5
73
1
0
SEQEND
8
OBJECT__40
0
POLYLINE
8
OBJECT__41
66
1
70
64
71
3
72
1
62
253
0
VERTEX
8
OBJECT__41
10
-21.153000
20
-8.675000
30
48.255001
70
192
0
VERTEX
8
OBJECT__41
10
-18.090000
20
-13.981000
30
48.255001
70
192
0
VERTEX
8
OBJECT__41
10
-22.888000
20
-13.215000
30
50.134998
70
192
0
VERTEX
8
OBJECT__41
10
0
20
0
30
0
70
128
71
1
72
2
73
3
0
SEQEND
8
OBJECT__41
0
POLYLINE
8
OBJECT__42
66
1
70
64
71
6
72
4
62
253
0
VERTEX
8
OBJECT__42
10
-2.135000
20
-3.698000
30
64.661003
70
192
0
VERTEX
8
OBJECT__42
10
-16.962000
20
-16.957001
30
62.018002
70
192
0
VERTEX
8
OBJECT__42
10
-16.957001
20
-16.962000
30
62.018002
70
192
0
VERTEX
8
OBJECT__42
10
-3.698000
20
-2.135000
30
64.661003
70
192
0
VERTEX
8
OBJECT__42
10
-18.938000
20
-10.934000
30
62.398998
70
192
0
VERTEX
8
OBJECT__42
10
-10.934000
20
-18.938000
30
62.398998
70
192
0
VERTEX
8
OBJECT__42
10
0
20
0
30
0
70
128
71
1
72
2
73
3
0
VERTEX
8
OBJECT__42
10
0
20
0
30
0
70
128
71
2
72
1
73
4
0
VERTEX
8
OBJECT__42
10
0
20
0
30
0
70
128
71
4
72
5
73
2
0
VERTEX
8
OBJECT__42
10
0
20
0
30
0
70
128
71
3
72
6
73
1
0
SEQEND
8
OBJECT__42
0
POLYLINE
8
OBJECT__43
66
1
70
64
71
4
72
2
62
253
0
VERTEX
8
OBJECT__43
10
-13.562000
20
-23.490000
30
60.859001
70
192
0
VERTEX
8
OBJECT__43
10
-6.211000
20
-23.166000
30
62.018002
70
192
0
VERTEX
8
OBJECT__43
10
-10.934000
20
-18.938000
30
62.398998
70
192
0
VERTEX
8
OBJECT__43
10
-16.957001
20
-16.962000
30
62.018002
70
192
0
VERTEX
8
OBJECT__43
10
0
20
0
30
0
70
128
71
1
72
2
73
3
0
VERTEX
8
OBJECT__43
10
0
20
0
30
0
70
128
71
3
72
4
73
1
0
SEQEND
8
OBJECT__43
0
POLYLINE
8
OBJECT__44
66
1
70
64
71
8
72
6
62
253
0
VERTEX
8
OBJECT__44
10
-21.436001
20
-20.738001
30
58.966000
70
192
0
VERTEX
8
OBJECT__44
10
-16.962000
20
-16.957001
30
62.018002
70
192
0
VERTEX
8
OBJECT__44
10
-23.490000
20
-13.562000
30
60.859001
70
192
0
VERTEX
8
OBJECT__44
10
-20.738001
20
-21.436001
30
58.966000
70
192
0
VERTEX
8
OBJECT__44
10
-13.564000
20
-23.493999
30
60.856998
70
192
0
VERTEX
8
OBJECT__44
10
-13.562000
20
-23.490000
30
60.859001
70
192
0
VERTEX
8
OBJECT__44
10
-23.493999
20
-13.564000
30
60.856998
70
192
0
VERTEX
8
OBJECT__44
10
-16.957001
20
-16.962000
30
62.018002
70
192
0
VERTEX
8
OBJECT__44
10
0
20
0
30
0
70
128
71
1
72
2
73
3
0
VERTEX
8
OBJECT__44
10
0
20
0
30
0
70
128
71
4
72
5
73
6
0
VERTEX
8
OBJECT__44
10
0
20
0
30
0
70
128
71
3
72
7
73
1
0
VERTEX
8
OBJECT__44
10
0
20
0
30
0
70
128
71
6
72
8
73
4
0
VERTEX
8
OBJECT__44
10
0
20
0
30
0
70
128
71
8
72
2
73
4
0
VERTEX
8
OBJECT__44
10
0
20
0
30
0
70
128
71
1
72
4
73
2
0
SEQEND
8
OBJECT__44
0
POLYLINE
8
OBJECT__45
66
1
70
64
71
8
72
6
62
253
0
VERTEX
8
OBJECT__45
10
-21.436001
20
-20.738001
30
58.966000
70
192
0
VERTEX
8
OBJECT__45
10
-25.947001
20
-16.226000
30
57.235001
70
192
0
VERTEX
8
OBJECT__45
10
-25.947001
20
-16.226000
30
55.266998
70
192
0
VERTEX
8
OBJECT__45
10
-20.738001
20
-21.436001
30
58.966000
70
192
0
VERTEX
8
OBJECT__45
10
-20.718000
20
-21.455999
30
52.966000
70
192
0
VERTEX
8
OBJECT__45
10
-16.226000
20
-25.947001
30
55.266998
70
192
0
VERTEX
8
OBJECT__45
10
-21.455999
20
-20.718000
30
52.966000
70
192
0
VERTEX
8
OBJECT__45
10
-16.226000
20
-25.947001
30
57.235001
70
192
0
VERTEX
8
OBJECT__45
10
0
20
0
30
0
70
128
71
1
72
2
73
3
0
VERTEX
8
OBJECT__45
10
0
20
0
30
0
70
128
71
4
72
5
73
6
0
VERTEX
8
OBJECT__45
10
0
20
0
30
0
70
128
71
7
72
4
73
1
0
VERTEX
8
OBJECT__45
10
0
20
0
30
0
70
128
71
4
72
7
73
5
0
VERTEX
8
OBJECT__45
10
0
20
0
30
0
70
128
71
6
72
8
73
4
0
VERTEX
8
OBJECT__45
10
0
20
0
30
0
70
128
71
3
72
7
73
1
0
SEQEND
8
OBJECT__45
0
POLYLINE
8
OBJECT__46
66
1
70
64
71
5
72
3
62
253
0
VERTEX
8
OBJECT__46
10
-13.564000
20
-23.493999
30
60.856998
70
192
0
VERTEX
8
OBJECT__46
10
-16.226000
20
-25.947001
30
57.235001
70
192
0
VERTEX
8
OBJECT__46
10
-14.358000
20
-27.025999
30
57.235001
70
192
0
VERTEX
8
OBJECT__46
10
-20.738001
20
-21.436001
30
58.966000
70
192
0
VERTEX
8
OBJECT__46
10
-8.195000
20
-28.677000
30
58.966000
70
192
0
VERTEX
8
OBJECT__46
10
0
20
0
30
0
70
128
71
1
72
2
73
3
0
VERTEX
8
OBJECT__46
10
0
20
0
30
0
70
128
71
1
72
4
73
2
0
VERTEX
8
OBJECT__46
10
0
20
0
30
0
70
128
71
3
72
5
73
1
0
SEQEND
8
OBJECT__46
0
POLYLINE
8
OBJECT__47
66
1
70
64
71
4
72
2
62
253
0
VERTEX
8
OBJECT__47
10
-14.358000
20
-27.025999
30
55.266998
70
192
0
VERTEX
8
OBJECT__47
10
-14.358000
20
-27.025999
30
57.235001
70
192
0
VERTEX
8
OBJECT__47
10
-16.226000
20
-25.947001
30
57.235001
70
192
0
VERTEX
8
OBJECT__47
10
-16.226000
20
-25.947001
30
55.266998
70
192
0
VERTEX
8
OBJECT__47
10
0
20
0
30
0
70
128
71
1
72
2
73
3
0
VERTEX
8
OBJECT__47
10
0
20
0
30
0
70
128
71
3
72
4
73
1
0
SEQEND
8
OBJECT__47
0
POLYLINE
8
OBJECT__48
66
1
70
64
71
5
72
3
62
253
0
VERTEX
8
OBJECT__48
10
-13.663000
20
-23.665001
30
50.706001
70
192
0
VERTEX
8
OBJECT__48
10
-8.222000
20
-28.670000
30
52.966000
70
192
0
VERTEX
8
OBJECT__48
10
-14.358000
20
-27.025999
30
55.266998
70
192
0
VERTEX
8
OBJECT__48
10
-16.226000
20
-25.947001
30
55.266998
70
192
0
VERTEX
8
OBJECT__48
10
-20.718000
20
-21.455999
30
52.966000
70
192
0
VERTEX
8
OBJECT__48
10
0
20
0
30
0
70
128
71
1
72
2
73
3
0
VERTEX
8
OBJECT__48
10
0
20
0
30
0
70
128
71
3
72
4
73
1
0
VERTEX
8
OBJECT__48
10
0
20
0
30
0
70
128
71
4
72
5
73
1
0
SEQEND
8
OBJECT__48
0
POLYLINE
8
OBJECT__49
66
1
70
64
71
8
72
6
62
253
0
VERTEX
8
OBJECT__49
10
-21.455999
20
-20.718000
30
52.966000
70
192
0
VERTEX
8
OBJECT__49
10
-23.665001
20
-13.663000
30
50.706001
70
192
0
VERTEX
8
OBJECT__49
10
-22.888000
20
-13.215000
30
50.134998
70
192
0
VERTEX
8
OBJECT__49
10
-20.718000
20
-21.455999
30
52.966000
70
192
0
VERTEX
8
OBJECT__49
10
-18.090000
20
-13.981000
30
48.255001
70
192
0
VERTEX
8
OBJECT__49
10
-13.981000
20
-18.090000
30
48.255001
70
192
0
VERTEX
8
OBJECT__49
10
-13.215000
20
-22.888000
30
50.134998
70
192
0
VERTEX
8
OBJECT__49
10
-13.663000
20
-23.665001
30
50.706001
70
192
0
VERTEX
8
OBJECT__49
10
0
20
0
30
0
70
128
71
1
72
2
73
3
0
VERTEX
8
OBJECT__49
10
0
20
0
30
0
70
128
71
4
72
5
73
6
0
VERTEX
8
OBJECT__49
10
0
20
0
30
0
70
128
71
5
72
4
73
1
0
VERTEX
8
OBJECT__49
10
0
20
0
30
0
70
128
71
6
72
7
73
4
0
VERTEX
8
OBJECT__49
10
0
20
0
30
0
70
128
71
7
72
8
73
4
0
VERTEX
8
OBJECT__49
10
0
20
0
30
0
70
128
71
3
72
5
73
1
0
SEQEND
8
OBJECT__49
0
POLYLINE
8
OBJECT__50
66
1
70
64
71
3
72
1
62
253
0
VERTEX
8
OBJECT__50
10
-13.215000
20
-22.888000
30
50.134998
70
192
0
VERTEX
8
OBJECT__50
10
-13.981000
20
-18.090000
30
48.255001
70
192
0
VERTEX
8
OBJECT__50
10
-8.675000
20
-21.153000
30
48.255001
70
192
0
VERTEX
8
OBJECT__50
10
0
20
0
30
0
70
128
71
1
72
2
73
3
0
SEQEND
8
OBJECT__50
0
POLYLINE
8
OBJECT__51
66
1
70
64
71
6
72
4
62
253
0
VERTEX
8
OBJECT__51
10
0.000000
20
4.270000
30
64.661003
70
192
0
VERTEX
8
OBJECT__51
10
6.211000
20
23.166000
30
62.018002
70
192
0
VERTEX
8
OBJECT__51
10
6.204000
20
23.167999
30
62.018002
70
192
0
VERTEX
8
OBJECT__51
10
2.135000
20
3.698000
30
64.661003
70
192
0
VERTEX
8
OBJECT__51
10
10.934000
20
18.938000
30
62.398998
70
192
0
VERTEX
8
OBJECT__51
10
0.000000
20
21.867001
30
62.398998
70
192
0
VERTEX
8
OBJECT__51
10
0
20
0
30
0
70
128
71
1
72
2
73
3
0
VERTEX
8
OBJECT__51
10
0
20
0
30
0
70
128
71
2
72
1
73
4
0
VERTEX
8
OBJECT__51
10
0
20
0
30
0
70
128
71
4
72
5
73
2
0
VERTEX
8
OBJECT__51
10
0
20
0
30
0
70
128
71
3
72
6
73
1
0
SEQEND
8
OBJECT__51
0
POLYLINE
8
OBJECT__52
66
1
70
64
71
4
72
2
62
253
0
VERTEX
8
OBJECT__52
10
13.562000
20
23.490000
30
60.859001
70
192
0
VERTEX
8
OBJECT__52
10
6.211000
20
23.166000
30
62.018002
70
192
0
VERTEX
8
OBJECT__52
10
10.934000
20
18.938000
30
62.398998
70
192
0
VERTEX
8
OBJECT__52
10
16.957001
20
16.962000
30
62.018002
70
192
0
VERTEX
8
OBJECT__52
10
0
20
0
30
0
70
128
71
1
72
2
73
3
0
VERTEX
8
OBJECT__52
10
0
20
0
30
0
70
128
71
3
72
4
73
1
0
SEQEND
8
OBJECT__52
0
POLYLINE
8
OBJECT__53
66
1
70
64
71
8
72
6
62
253
0
VERTEX
8
OBJECT__53
10
8.195000
20
28.677000
30
58.966000
70
192
0
VERTEX
8
OBJECT__53
10
6.211000
20
23.166000
30
62.018002
70
192
0
VERTEX
8
OBJECT__53
10
13.562000
20
23.490000
30
60.859001
70
192
0
VERTEX
8
OBJECT__53
10
7.242000
20
28.933001
30
58.966000
70
192
0
VERTEX
8
OBJECT__53
10
0.000000
20
27.128000
30
60.856998
70
192
0
VERTEX
8
OBJECT__53
10
0.000000
20
27.124001
30
60.859001
70
192
0
VERTEX
8
OBJECT__53
10
6.204000
20
23.167999
30
62.018002
70
192
0
VERTEX
8
OBJECT__53
10
13.564000
20
23.493999
30
60.856998
70
192
0
VERTEX
8
OBJECT__53
10
0
20
0
30
0
70
128
71
1
72
2
73
3
0
VERTEX
8
OBJECT__53
10
0
20
0
30
0
70
128
71
4
72
5
73
6
0
VERTEX
8
OBJECT__53
10
0
20
0
30
0
70
128
71
1
72
7
73
2
0
VERTEX
8
OBJECT__53
10
0
20
0
30
0
70
128
71
7
72
1
73
4
0
VERTEX
8
OBJECT__53
10
0
20
0
30
0
70
128
71
6
72
7
73
4
0
VERTEX
8
OBJECT__53
10
0
20
0
30
0
70
128
71
3
72
8
73
1
0
SEQEND
8
OBJECT__53
0
POLYLINE
8
OBJECT__54
66
1
70
64
71
8
72
6
62
253
0
VERTEX
8
OBJECT__54
10
8.195000
20
28.677000
30
58.966000
70
192
0
VERTEX
8
OBJECT__54
10
14.358000
20
27.025999
30
57.235001
70
192
0
VERTEX
8
OBJECT__54
10
14.358000
20
27.025999
30
55.266998
70
192
0
VERTEX
8
OBJECT__54
10
7.242000
20
28.933001
30
58.966000
70
192
0
VERTEX
8
OBJECT__54
10
7.214000
20
28.940001
30
52.966000
70
192
0
VERTEX
8
OBJECT__54
10
1.079000
20
30.584000
30
55.266998
70
192
0
VERTEX
8
OBJECT__54
10
8.222000
20
28.670000
30
52.966000
70
192
0
VERTEX
8
OBJECT__54
10
1.079000
20
30.584000
30
57.235001
70
192
0
VERTEX
8
OBJECT__54
10
0
20
0
30
0
70
128
71
1
72
2
73
3
0
VERTEX
8
OBJECT__54
10
0
20
0
30
0
70
128
71
4
72
5
73
6
0
VERTEX
8
OBJECT__54
10
0
20
0
30
0
70
128
71
7
72
4
73
1
0
VERTEX
8
OBJECT__54
10
0
20
0
30
0
70
128
71
4
72
7
73
5
0
VERTEX
8
OBJECT__54
10
0
20
0
30
0
70
128
71
6
72
8
73
4
0
VERTEX
8
OBJECT__54
10
0
20
0
30
0
70
128
71
3
72
7
73
1
0
SEQEND
8
OBJECT__54
0
POLYLINE
8
OBJECT__55
66
1
70
64
71
5
72
3
62
253
0
VERTEX
8
OBJECT__55
10
13.564000
20
23.493999
30
60.856998
70
192
0
VERTEX
8
OBJECT__55
10
20.738001
20
21.436001
30
58.966000
70
192
0
VERTEX
8
OBJECT__55
10
16.226000
20
25.947001
30
57.235001
70
192
0
VERTEX
8
OBJECT__55
10
14.358000
20
27.025999
30
57.235001
70
192
0
VERTEX
8
OBJECT__55
10
8.195000
20
28.677000
30
58.966000
70
192
0
VERTEX
8
OBJECT__55
10
0
20
0
30
0
70
128
71
1
72
2
73
3
0
VERTEX
8
OBJECT__55
10
0
20
0
30
0
70
128
71
3
72
4
73
1
0
VERTEX
8
OBJECT__55
10
0
20
0
30
0
70
128
71
4
72
5
73
1
0
SEQEND
8
OBJECT__55
0
POLYLINE
8
OBJECT__56
66
1
70
64
71
4
72
2
62
253
0
VERTEX
8
OBJECT__56
10
16.226000
20
25.947001
30
55.266998
70
192
0
VERTEX
8
OBJECT__56
10
14.358000
20
27.025999
30
55.266998
70
192
0
VERTEX
8
OBJECT__56
10
14.358000
20
27.025999
30
57.235001
70
192
0
VERTEX
8
OBJECT__56
10
16.226000
20
25.947001
30
57.235001
70
192
0
VERTEX
8
OBJECT__56
10
0
20
0
30
0
70
128
71
1
72
2
73
3
0
VERTEX
8
OBJECT__56
10
0
20
0
30
0
70
128
71
3
72
4
73
1
0
SEQEND
8
OBJECT__56
0
POLYLINE
8
OBJECT__57
66
1
70
64
71
5
72
3
62
253
0
VERTEX
8
OBJECT__57
10
13.663000
20
23.665001
30
50.706001
70
192
0
VERTEX
8
OBJECT__57
10
8.222000
20
28.670000
30
52.966000
70
192
0
VERTEX
8
OBJECT__57
10
14.358000
20
27.025999
30
55.266998
70
192
0
VERTEX
8
OBJECT__57
10
16.226000
20
25.947001
30
55.266998
70
192
0
VERTEX
8
OBJECT__57
10
20.718000
20
21.455999
30
52.966000
70
192
0
VERTEX
8
OBJECT__57
10
0
20
0
30
0
70
128
71
1
72
2
73
3
0
VERTEX
8
OBJECT__57
10
0
20
0
30
0
70
128
71
3
72
4
73
1
0
VERTEX
8
OBJECT__57
10
0
20
0
30
0
70
128
71
4
72
5
73
1
0
SEQEND
8
OBJECT__57
0
POLYLINE
8
OBJECT__58
66
1
70
64
71
8
72
6
62
253
0
VERTEX
8
OBJECT__58
10
8.222000
20
28.670000
30
52.966000
70
192
0
VERTEX
8
OBJECT__58
10
13.215000
20
22.888000
30
50.134998
70
192
0
VERTEX
8
OBJECT__58
10
8.675000
20
21.153000
30
48.255001
70
192
0
VERTEX
8
OBJECT__58
10
7.214000
20
28.940001
30
52.966000
70
192
0
VERTEX
8
OBJECT__58
10
3.063000
20
22.657000
30
48.255001
70
192
0
VERTEX
8
OBJECT__58
10
0.000000
20
26.429001
30
50.134998
70
192
0
VERTEX
8
OBJECT__58
10
13.663000
20
23.665001
30
50.706001
70
192
0
VERTEX
8
OBJECT__58
10
0.000000
20
27.326000
30
50.706001
70
192
0
VERTEX
8
OBJECT__58
10
0
20
0
30
0
70
128
71
1
72
2
73
3
0
VERTEX
8
OBJECT__58
10
0
20
0
30
0
70
128
71
4
72
5
73
6
0
VERTEX
8
OBJECT__58
10
0
20
0
30
0
70
128
71
1
72
7
73
2
0
VERTEX
8
OBJECT__58
10
0
20
0
30
0
70
128
71
6
72
8
73
4
0
VERTEX
8
OBJECT__58
10
0
20
0
30
0
70
128
71
4
72
1
73
5
0
VERTEX
8
OBJECT__58
10
0
20
0
30
0
70
128
71
3
72
5
73
1
0
SEQEND
8
OBJECT__58
0
POLYLINE
8
OBJECT__59
66
1
70
64
71
3
72
1
62
253
0
VERTEX
8
OBJECT__59
10
13.215000
20
22.888000
30
50.134998
70
192
0
VERTEX
8
OBJECT__59
10
13.981000
20
18.090000
30
48.255001
70
192
0
VERTEX
8
OBJECT__59
10
8.675000
20
21.153000
30
48.255001
70
192
0
VERTEX
8
OBJECT__59
10
0
20
0
30
0
70
128
71
1
72
2
73
3
0
SEQEND
8
OBJECT__59
0
POLYLINE
8
OBJECT__60
66
1
70
64
71
6
72
4
62
253
0
VERTEX
8
OBJECT__60
10
16.957001
20
16.962000
30
62.018002
70
192
0
VERTEX
8
OBJECT__60
10
10.934000
20
18.938000
30
62.398998
70
192
0
VERTEX
8
OBJECT__60
10
2.135000
20
3.698000
30
64.661003
70
192
0
VERTEX
8
OBJECT__60
10
3.698000
20
2.135000
30
64.661003
70
192
0
VERTEX
8
OBJECT__60
10
18.938000
20
10.934000
30
62.398998
70
192
0
VERTEX
8
OBJECT__60
10
16.962000
20
16.957001
30
62.018002
70
192
0
VERTEX
8
OBJECT__60
10
0
20
0
30
0
70
128
71
1
72
2
73
3
0
VERTEX
8
OBJECT__60
10
0
20
0
30
0
70
128
71
4
72
5
73
6
0
VERTEX
8
OBJECT__60
10
0
20
0
30
0
70
128
71
6
72
1
73
4
0
VERTEX
8
OBJECT__60
10
0
20
0
30
0
70
128
71
3
72
4
73
1
0
SEQEND
8
OBJECT__60
0
POLYLINE
8
OBJECT__61
66
1
70
64
71
4
72
2
62
253
0
VERTEX
8
OBJECT__61
10
23.490000
20
13.562000
30
60.859001
70
192
0
VERTEX
8
OBJECT__61
10
16.962000
20
16.957001
30
62.018002
70
192
0
VERTEX
8
OBJECT__61
10
18.938000
20
10.934000
30
62.398998
70
192
0
VERTEX
8
OBJECT__61
10
23.166000
20
6.211000
30
62.018002
70
192
0
VERTEX
8
OBJECT__61
10
0
20
0
30
0
70
128
71
1
72
2
73
3
0
VERTEX
8
OBJECT__61
10
0
20
0
30
0
70
128
71
3
72
4
73
1
0
SEQEND
8
OBJECT__61
0
POLYLINE
8
OBJECT__62
66
1
70
64
71
8
72
6
62
253
0
VERTEX
8
OBJECT__62
10
21.436001
20
20.738001
30
58.966000
70
192
0
VERTEX
8
OBJECT__62
10
16.962000
20
16.957001
30
62.018002
70
192
0
VERTEX
8
OBJECT__62
10
23.490000
20
13.562000
30
60.859001
70
192
0
VERTEX
8
OBJECT__62
10
20.738001
20
21.436001
30
58.966000
70
192
0
VERTEX
8
OBJECT__62
10
13.564000
20
23.493999
30
60.856998
70
192
0
VERTEX
8
OBJECT__62
10
13.562000
20
23.490000
30
60.859001
70
192
0
VERTEX
8
OBJECT__62
10
23.493999
20
13.564000
30
60.856998
70
192
0
VERTEX
8
OBJECT__62
10
16.957001
20
16.962000
30
62.018002
70
192
0
VERTEX
8
OBJECT__62
10
0
20
0
30
0
70
128
71
1
72
2
73
3
0
VERTEX
8
OBJECT__62
10
0
20
0
30
0
70
128
71
4
72
5
73
6
0
VERTEX
8
OBJECT__62
10
0
20
0
30
0
70
128
71
3
72
7
73
1
0
VERTEX
8
OBJECT__62
10
0
20
0
30
0
70
128
71
6
72
8
73
4
0
VERTEX
8
OBJECT__62
10
0
20
0
30
0
70
128
71
8
72
2
73
4
0
VERTEX
8
OBJECT__62
10
0
20
0
30
0
70
128
71
1
72
4
73
2
0
SEQEND
8
OBJECT__62
0
POLYLINE
8
OBJECT__63
66
1
70
64
71
8
72
6
62
253
0
VERTEX
8
OBJECT__63
10
21.436001
20
20.738001
30
58.966000
70
192
0
VERTEX
8
OBJECT__63
10
25.947001
20
16.226000
30
57.235001
70
192
0
VERTEX
8
OBJECT__63
10
25.947001
20
16.226000
30
55.266998
70
192
0
VERTEX
8
OBJECT__63
10
20.738001
20
21.436001
30
58.966000
70
192
0
VERTEX
8
OBJECT__63
10
20.718000
20
21.455999
30
52.966000
70
192
0
VERTEX
8
OBJECT__63
10
16.226000
20
25.947001
30
55.266998
70
192
0
VERTEX
8
OBJECT__63
10
21.455999
20
20.718000
30
52.966000
70
192
0
VERTEX
8
OBJECT__63
10
16.226000
20
25.947001
30
57.235001
70
192
0
VERTEX
8
OBJECT__63
10
0
20
0
30
0
70
128
71
1
72
2
73
3
0
VERTEX
8
OBJECT__63
10
0
20
0
30
0
70
128
71
4
72
5
73
6
0
VERTEX
8
OBJECT__63
10
0
20
0
30
0
70
128
71
3
72
7
73
1
0
VERTEX
8
OBJECT__63
10
0
20
0
30
0
70
128
71
6
72
8
73
4
0
VERTEX
8
OBJECT__63
10
0
20
0
30
0
70
128
71
4
72
1
73
5
0
VERTEX
8
OBJECT__63
10
0
20
0
30
0
70
128
71
7
72
5
73
1
0
SEQEND
8
OBJECT__63
0
POLYLINE
8
OBJECT__64
66
1
70
64
71
5
72
3
62
253
0
VERTEX
8
OBJECT__64
10
23.493999
20
13.564000
30
60.856998
70
192
0
VERTEX
8
OBJECT__64
10
27.025999
20
14.358000
30
57.235001
70
192
0
VERTEX
8
OBJECT__64
10
25.947001
20
16.226000
30
57.235001
70
192
0
VERTEX
8
OBJECT__64
10
28.677000
20
8.195000
30
58.966000
70
192
0
VERTEX
8
OBJECT__64
10
21.436001
20
20.738001
30
58.966000
70
192
0
VERTEX
8
OBJECT__64
10
0
20
0
30
0
70
128
71
1
72
2
73
3
0
VERTEX
8
OBJECT__64
10
0
20
0
30
0
70
128
71
1
72
4
73
2
0
VERTEX
8
OBJECT__64
10
0
20
0
30
0
70
128
71
3
72
5
73
1
0
SEQEND
8
OBJECT__64
0
POLYLINE
8
OBJECT__65
66
1
70
64
71
4
72
2
62
253
0
VERTEX
8
OBJECT__65
10
25.947001
20
16.226000
30
55.266998
70
192
0
VERTEX
8
OBJECT__65
10
25.947001
20
16.226000
30
57.235001
70
192
0
VERTEX
8
OBJECT__65
10
27.025999
20
14.358000
30
57.235001
70
192
0
VERTEX
8
OBJECT__65
10
27.025999
20
14.358000
30
55.266998
70
192
0
VERTEX
8
OBJECT__65
10
0
20
0
30
0
70
128
71
1
72
2
73
3
0
VERTEX
8
OBJECT__65
10
0
20
0
30
0
70
128
71
3
72
4
73
1
0
SEQEND
8
OBJECT__65
0
POLYLINE
8
OBJECT__66
66
1
70
64
71
5
72
3
62
253
0
VERTEX
8
OBJECT__66
10
23.665001
20
13.663000
30
50.706001
70
192
0
VERTEX
8
OBJECT__66
10
25.947001
20
16.226000
30
55.266998
70
192
0
VERTEX
8
OBJECT__66
10
27.025999
20
14.358000
30
55.266998
70
192
0
VERTEX
8
OBJECT__66
10
21.455999
20
20.718000
30
52.966000
70
192
0
VERTEX
8
OBJECT__66
10
28.670000
20
8.222000
30
52.966000
70
192
0
VERTEX
8
OBJECT__66
10
0
20
0
30
0
70
128
71
1
72
2
73
3
0
VERTEX
8
OBJECT__66
10
0
20
0
30
0
70
128
71
1
72
4
73
2
0
VERTEX
8
OBJECT__66
10
0
20
0
30
0
70
128
71
3
72
5
73
1
0
SEQEND
8
OBJECT__66
0
POLYLINE
8
OBJECT__67
66
1
70
64
71
8
72
6
62
253
0
VERTEX
8
OBJECT__67
10
21.455999
20
20.718000
30
52.966000
70
192
0
VERTEX
8
OBJECT__67
10
22.888000
20
13.215000
30
50.134998
70
192
0
VERTEX
8
OBJECT__67
10
18.090000
20
13.981000
30
48.255001
70
192
0
VERTEX
8
OBJECT__67
10
20.718000
20
21.455999
30
52.966000
70
192
0
VERTEX
8
OBJECT__67
10
13.981000
20
18.090000
30
48.255001
70
192
0
VERTEX
8
OBJECT__67
10
13.215000
20
22.888000
30
50.134998
70
192
0
VERTEX
8
OBJECT__67
10
23.665001
20
13.663000
30
50.706001
70
192
0
VERTEX
8
OBJECT__67
10
13.663000
20
23.665001
30
50.706001
70
192
0
VERTEX
8
OBJECT__67
10
0
20
0
30
0
70
128
71
1
72
2
73
3
0
VERTEX
8
OBJECT__67
10
0
20
0
30
0
70
128
71
4
72
5
73
6
0
VERTEX
8
OBJECT__67
10
0
20
0
30
0
70
128
71
1
72
7
73
2
0
VERTEX
8
OBJECT__67
10
0
20
0
30
0
70
128
71
6
72
8
73
4
0
VERTEX
8
OBJECT__67
10
0
20
0
30
0
70
128
71
4
72
1
73
5
0
VERTEX
8
OBJECT__67
10
0
20
0
30
0
70
128
71
3
72
5
73
1
0
SEQEND
8
OBJECT__67
0
POLYLINE
8
OBJECT__68
66
1
70
64
71
3
72
1
62
253
0
VERTEX
8
OBJECT__68
10
21.153000
20
8.675000
30
48.255001
70
192
0
VERTEX
8
OBJECT__68
10
18.090000
20
13.981000
30
48.255001
70
192
0
VERTEX
8
OBJECT__68
10
22.888000
20
13.215000
30
50.134998
70
192
0
VERTEX
8
OBJECT__68
10
0
20
0
30
0
70
128
71
1
72
2
73
3
0
SEQEND
8
OBJECT__68
0
POLYLINE
8
OBJECT__69
66
1
70
64
71
6
72
4
62
253
0
VERTEX
8
OBJECT__69
10
23.166000
20
6.211000
30
62.018002
70
192
0
VERTEX
8
OBJECT__69
10
18.938000
20
10.934000
30
62.398998
70
192
0
VERTEX
8
OBJECT__69
10
3.698000
20
2.135000
30
64.661003
70
192
0
VERTEX
8
OBJECT__69
10
4.270000
20
0.000000
30
64.661003
70
192
0
VERTEX
8
OBJECT__69
10
21.867001
20
0.000000
30
62.398998
70
192
0
VERTEX
8
OBJECT__69
10
23.167999
20
6.204000
30
62.018002
70
192
0
VERTEX
8
OBJECT__69
10
0
20
0
30
0
70
128
71
1
72
2
73
3
0
VERTEX
8
OBJECT__69
10
0
20
0
30
0
70
128
71
4
72
5
73
6
0
VERTEX
8
OBJECT__69
10
0
20
0
30
0
70
128
71
6
72
1
73
4
0
VERTEX
8
OBJECT__69
10
0
20
0
30
0
70
128
71
3
72
4
73
1
0
SEQEND
8
OBJECT__69
0
POLYLINE
8
OBJECT__70
66
1
70
64
71
4
72
2
62
253
0
VERTEX
8
OBJECT__70
10
27.124001
20
0.000000
30
60.859001
70
192
0
VERTEX
8
OBJECT__70
10
23.167999
20
6.204000
30
62.018002
70
192
0
VERTEX
8
OBJECT__70
10
21.867001
20
0.000000
30
62.398998
70
192
0
VERTEX
8
OBJECT__70
10
23.167999
20
-6.204000
30
62.018002
70
192
0
VERTEX
8
OBJECT__70
10
0
20
0
30
0
70
128
71
1
72
2
73
3
0
VERTEX
8
OBJECT__70
10
0
20
0
30
0
70
128
71
3
72
4
73
1
0
SEQEND
8
OBJECT__70
0
POLYLINE
8
OBJECT__71
66
1
70
64
71
8
72
6
62
253
0
VERTEX
8
OBJECT__71
10
28.933001
20
7.242000
30
58.966000
70
192
0
VERTEX
8
OBJECT__71
10
23.167999
20
6.204000
30
62.018002
70
192
0
VERTEX
8
OBJECT__71
10
27.124001
20
0.000000
30
60.859001
70
192
0
VERTEX
8
OBJECT__71
10
28.677000
20
8.195000
30
58.966000
70
192
0
VERTEX
8
OBJECT__71
10
23.493999
20
13.564000
30
60.856998
70
192
0
VERTEX
8
OBJECT__71
10
23.490000
20
13.562000
30
60.859001
70
192
0
VERTEX
8
OBJECT__71
10
23.166000
20
6.211000
30
62.018002
70
192
0
VERTEX
8
OBJECT__71
10
27.128000
20
0.000000
30
60.856998
70
192
0
VERTEX
8
OBJECT__71
10
0
20
0
30
0
70
128
71
1
72
2
73
3
0
VERTEX
8
OBJECT__71
10
0
20
0
30
0
70
128
71
4
72
5
73
6
0
VERTEX
8
OBJECT__71
10
0
20
0
30
0
70
128
71
1
72
7
73
2
0
VERTEX
8
OBJECT__71
10
0
20
0
30
0
70
128
71
7
72
1
73
4
0
VERTEX
8
OBJECT__71
10
0
20
0
30
0
70
128
71
6
72
7
73
4
0
VERTEX
8
OBJECT__71
10
0
20
0
30
0
70
128
71
3
72
8
73
1
0
SEQEND
8
OBJECT__71
0
POLYLINE
8
OBJECT__72
66
1
70
64
71
12
72
10
62
253
0
VERTEX
8
OBJECT__72
10
-4.270000
20
0.000000
30
64.661003
70
192
0
VERTEX
8
OBJECT__72
10
2.135000
20
3.698000
30
64.661003
70
192
0
VERTEX
8
OBJECT__72
10
0.000000
20
4.270000
30
64.661003
70
192
0
VERTEX
8
OBJECT__72
10
-3.698000
20
-2.135000
30
64.661003
70
192
0
VERTEX
8
OBJECT__72
10
-2.135000
20
-3.698000
30
64.661003
70
192
0
VERTEX
8
OBJECT__72
10
0.000000
20
-4.270000
30
64.661003
70
192
0
VERTEX
8
OBJECT__72
10
-2.135000
20
3.698000
30
64.661003
70
192
0
VERTEX
8
OBJECT__72
10
4.270000
20
0.000000
30
64.661003
70
192
0
VERTEX
8
OBJECT__72
10
3.698000
20
2.135000
30
64.661003
70
192
0
VERTEX
8
OBJECT__72
10
2.135000
20
-3.698000
30
64.661003
70
192
0
VERTEX
8
OBJECT__72
10
3.698000
20
-2.135000
30
64.661003
70
192
0
VERTEX
8
OBJECT__72
10
-3.698000
20
2.135000
30
64.661003
70
192
0
VERTEX
8
OBJECT__72
10
0
20
0
30
0
70
128
71
1
72
2
73
3
0
VERTEX
8
OBJECT__72
10
0
20
0
30
0
70
128
71
4
72
5
73
6
0
VERTEX
8
OBJECT__72
10
0
20
0
30
0
70
128
71
3
72
7
73
1
0
VERTEX
8
OBJECT__72
10
0
20
0
30
0
70
128
71
1
72
8
73
9
0
VERTEX
8
OBJECT__72
10
0
20
0
30
0
70
128
71
1
72
10
73
11
0
VERTEX
8
OBJECT__72
10
0
20
0
30
0
70
128
71
10
72
1
73
4
0
VERTEX
8
OBJECT__72
10
0
20
0
30
0
70
128
71
9
72
2
73
1
0
VERTEX
8
OBJECT__72
10
0
20
0
30
0
70
128
71
6
72
10
73
4
0
VERTEX
8
OBJECT__72
10
0
20
0
30
0
70
128
71
11
72
8
73
1
0
VERTEX
8
OBJECT__72
10
0
20
0
30
0
70
128
71
7
72
12
73
1
0
SEQEND
8
OBJECT__72
0
POLYLINE
8
OBJECT__73
66
1
70
64
71
6
72
4
62
253
0
VERTEX
8
OBJECT__73
10
23.167999
20
-6.204000
30
62.018002
70
192
0
VERTEX
8
OBJECT__73
10
21.867001
20
0.000000
30
62.398998
70
192
0
VERTEX
8
OBJECT__73
10
4.270000
20
0.000000
30
64.661003
70
192
0
VERTEX
8
OBJECT__73
10
3.698000
20
-2.135000
30
64.661003
70
192
0
VERTEX
8
OBJECT__73
10
18.938000
20
-10.934000
30
62.398998
70
192
0
VERTEX
8
OBJECT__73
10
23.166000
20
-6.211000
30
62.018002
70
192
0
VERTEX
8
OBJECT__73
10
0
20
0
30
0
70
128
71
1
72
2
73
3
0
VERTEX
8
OBJECT__73
10
0
20
0
30
0
70
128
71
4
72
5
73
6
0
VERTEX
8
OBJECT__73
10
0
20
0
30
0
70
128
71
6
72
1
73
4
0
VERTEX
8
OBJECT__73
10
0
20
0
30
0
70
128
71
3
72
4
73
1
0
SEQEND
8
OBJECT__73
0
POLYLINE
8
OBJECT__74
66
1
70
64
71
6
72
4
62
253
0
VERTEX
8
OBJECT__74
10
-6.204000
20
-23.167999
30
62.018002
70
192
0
VERTEX
8
OBJECT__74
10
0.000000
20
-21.867001
30
62.398998
70
192
0
VERTEX
8
OBJECT__74
10
0.000000
20
-4.270000
30
64.661003
70
192
0
VERTEX
8
OBJECT__74
10
-2.135000
20
-3.698000
30
64.661003
70
192
0
VERTEX
8
OBJECT__74
10
-10.934000
20
-18.938000
30
62.398998
70
192
0
VERTEX
8
OBJECT__74
10
-6.211000
20
-23.166000
30
62.018002
70
192
0
VERTEX
8
OBJECT__74
10
0
20
0
30
0
70
128
71
1
72
2
73
3
0
VERTEX
8
OBJECT__74
10
0
20
0
30
0
70
128
71
4
72
5
73
6
0
VERTEX
8
OBJECT__74
10
0
20
0
30
0
70
128
71
6
72
1
73
4
0
VERTEX
8
OBJECT__74
10
0
20
0
30
0
70
128
71
3
72
4
73
1
0
SEQEND
8
OBJECT__74
0
POLYLINE
8
OBJECT__75
66
1
70
64
71
4
72
2
62
253
0
VERTEX
8
OBJECT__75
10
23.490000
20
-13.562000
30
60.859001
70
192
0
VERTEX
8
OBJECT__75
10
23.166000
20
-6.211000
30
62.018002
70
192
0
VERTEX
8
OBJECT__75
10
18.938000
20
-10.934000
30
62.398998
70
192
0
VERTEX
8
OBJECT__75
10
16.962000
20
-16.957001
30
62.018002
70
192
0
VERTEX
8
OBJECT__75
10
0
20
0
30
0
70
128
71
1
72
2
73
3
0
VERTEX
8
OBJECT__75
10
0
20
0
30
0
70
128
71
3
72
4
73
1
0
SEQEND
8
OBJECT__75
0
POLYLINE
8
OBJECT__76
66
1
70
64
71
6
72
4
62
253
0
VERTEX
8
OBJECT__76
10
16.962000
20
-16.957001
30
62.018002
70
192
0
VERTEX
8
OBJECT__76
10
18.938000
20
-10.934000
30
62.398998
70
192
0
VERTEX
8
OBJECT__76
10
3.698000
20
-2.135000
30
64.661003
70
192
0
VERTEX
8
OBJECT__76
10
2.135000
20
-3.698000
30
64.661003
70
192
0
VERTEX
8
OBJECT__76
10
10.934000
20
-18.938000
30
62.398998
70
192
0
VERTEX
8
OBJECT__76
10
16.957001
20
-16.962000
30
62.018002
70
192
0
VERTEX
8
OBJECT__76
10
0
20
0
30
0
70
128
71
1
72
2
73
3
0
VERTEX
8
OBJECT__76
10
0
20
0
30
0
70
128
71
4
72
5
73
6
0
VERTEX
8
OBJECT__76
10
0
20
0
30
0
70
128
71
6
72
1
73
4
0
VERTEX
8
OBJECT__76
10
0
20
0
30
0
70
128
71
3
72
4
73
1
0
SEQEND
8
OBJECT__76
0
POLYLINE
8
OBJECT__77
66
1
70
64
71
6
72
4
62
253
0
VERTEX
8
OBJECT__77
10
6.211000
20
-23.166000
30
62.018002
70
192
0
VERTEX
8
OBJECT__77
10
10.934000
20
-18.938000
30
62.398998
70
192
0
VERTEX
8
OBJECT__77
10
2.135000
20
-3.698000
30
64.661003
70
192
0
VERTEX
8
OBJECT__77
10
0.000000
20
-4.270000
30
64.661003
70
192
0
VERTEX
8
OBJECT__77
10
0.000000
20
-21.867001
30
62.398998
70
192
0
VERTEX
8
OBJECT__77
10
6.204000
20
-23.167999
30
62.018002
70
192
0
VERTEX
8
OBJECT__77
10
0
20
0
30
0
70
128
71
1
72
2
73
3
0
VERTEX
8
OBJECT__77
10
0
20
0
30
0
70
128
71
4
72
5
73
6
0
VERTEX
8
OBJECT__77
10
0
20
0
30
0
70
128
71
6
72
1
73
4
0
VERTEX
8
OBJECT__77
10
0
20
0
30
0
70
128
71
3
72
4
73
1
0
SEQEND
8
OBJECT__77
0
POLYLINE
8
OBJECT__78
66
1
70
64
71
4
72
2
62
253
0
VERTEX
8
OBJECT__78
10
13.562000
20
-23.490000
30
60.859001
70
192
0
VERTEX
8
OBJECT__78
10
16.957001
20
-16.962000
30
62.018002
70
192
0
VERTEX
8
OBJECT__78
10
10.934000
20
-18.938000
30
62.398998
70
192
0
VERTEX
8
OBJECT__78
10
6.211000
20
-23.166000
30
62.018002
70
192
0
VERTEX
8
OBJECT__78
10
0
20
0
30
0
70
128
71
1
72
2
73
3
0
VERTEX
8
OBJECT__78
10
0
20
0
30
0
70
128
71
3
72
4
73
1
0
SEQEND
8
OBJECT__78
0
POLYLINE
8
OBJECT__79
66
1
70
64
71
4
72
2
62
253
0
VERTEX
8
OBJECT__79
10
0.000000
20
-27.124001
30
60.859001
70
192
0
VERTEX
8
OBJECT__79
10
6.204000
20
-23.167999
30
62.018002
70
192
0
VERTEX
8
OBJECT__79
10
0.000000
20
-21.867001
30
62.398998
70
192
0
VERTEX
8
OBJECT__79
10
-6.204000
20
-23.167999
30
62.018002
70
192
0
VERTEX
8
OBJECT__79
10
0
20
0
30
0
70
128
71
1
72
2
73
3
0
VERTEX
8
OBJECT__79
10
0
20
0
30
0
70
128
71
3
72
4
73
1
0
SEQEND
8
OBJECT__79
0
POLYLINE
8
OBJECT__80
66
1
70
64
71
8
72
6
62
253
0
VERTEX
8
OBJECT__80
10
-8.195000
20
-28.677000
30
58.966000
70
192
0
VERTEX
8
OBJECT__80
10
-6.211000
20
-23.166000
30
62.018002
70
192
0
VERTEX
8
OBJECT__80
10
-13.562000
20
-23.490000
30
60.859001
70
192
0
VERTEX
8
OBJECT__80
10
-7.242000
20
-28.933001
30
58.966000
70
192
0
VERTEX
8
OBJECT__80
10
0.000000
20
-27.128000
30
60.856998
70
192
0
VERTEX
8
OBJECT__80
10
0.000000
20
-27.124001
30
60.859001
70
192
0
VERTEX
8
OBJECT__80
10
-13.564000
20
-23.493999
30
60.856998
70
192
0
VERTEX
8
OBJECT__80
10
-6.204000
20
-23.167999
30
62.018002
70
192
0
VERTEX
8
OBJECT__80
10
0
20
0
30
0
70
128
71
1
72
2
73
3
0
VERTEX
8
OBJECT__80
10
0
20
0
30
0
70
128
71
4
72
5
73
6
0
VERTEX
8
OBJECT__80
10
0
20
0
30
0
70
128
71
3
72
7
73
1
0
VERTEX
8
OBJECT__80
10
0
20
0
30
0
70
128
71
6
72
8
73
4
0
VERTEX
8
OBJECT__80
10
0
20
0
30
0
70
128
71
8
72
2
73
4
0
VERTEX
8
OBJECT__80
10
0
20
0
30
0
70
128
71
1
72
4
73
2
0
SEQEND
8
OBJECT__80
0
POLYLINE
8
OBJECT__81
66
1
70
64
71
8
72
6
62
253
0
VERTEX
8
OBJECT__81
10
28.933001
20
7.242000
30
58.966000
70
192
0
VERTEX
8
OBJECT__81
10
30.584000
20
1.079000
30
57.235001
70
192
0
VERTEX
8
OBJECT__81
10
30.584000
20
1.079000
30
55.266998
70
192
0
VERTEX
8
OBJECT__81
10
28.677000
20
8.195000
30
58.966000
70
192
0
VERTEX
8
OBJECT__81
10
28.670000
20
8.222000
30
52.966000
70
192
0
VERTEX
8
OBJECT__81
10
27.025999
20
14.358000
30
55.266998
70
192
0
VERTEX
8
OBJECT__81
10
28.940001
20
7.214000
30
52.966000
70
192
0
VERTEX
8
OBJECT__81
10
27.025999
20
14.358000
30
57.235001
70
192
0
VERTEX
8
OBJECT__81
10
0
20
0
30
0
70
128
71
1
72
2
73
3
0
VERTEX
8
OBJECT__81
10
0
20
0
30
0
70
128
71
4
72
5
73
6
0
VERTEX
8
OBJECT__81
10
0
20
0
30
0
70
128
71
3
72
7
73
1
0
VERTEX
8
OBJECT__81
10
0
20
0
30
0
70
128
71
6
72
8
73
4
0
VERTEX
8
OBJECT__81
10
0
20
0
30
0
70
128
71
4
72
1
73
5
0
VERTEX
8
OBJECT__81
10
0
20
0
30
0
70
128
71
7
72
5
73
1
0
SEQEND
8
OBJECT__81
0
POLYLINE
8
OBJECT__82
66
1
70
64
71
5
72
3
62
253
0
VERTEX
8
OBJECT__82
10
27.128000
20
0.000000
30
60.856998
70
192
0
VERTEX
8
OBJECT__82
10
28.933001
20
-7.242000
30
58.966000
70
192
0
VERTEX
8
OBJECT__82
10
30.584000
20
-1.079000
30
57.235001
70
192
0
VERTEX
8
OBJECT__82
10
30.584000
20
1.079000
30
57.235001
70
192
0
VERTEX
8
OBJECT__82
10
28.933001
20
7.242000
30
58.966000
70
192
0
VERTEX
8
OBJECT__82
10
0
20
0
30
0
70
128
71
1
72
2
73
3
0
VERTEX
8
OBJECT__82
10
0
20
0
30
0
70
128
71
3
72
4
73
1
0
VERTEX
8
OBJECT__82
10
0
20
0
30
0
70
128
71
4
72
5
73
1
0
SEQEND
8
OBJECT__82
0
POLYLINE
8
OBJECT__83
66
1
70
64
71
4
72
2
62
253
0
VERTEX
8
OBJECT__83
10
30.584000
20
-1.079000
30
55.266998
70
192
0
VERTEX
8
OBJECT__83
10
30.584000
20
1.079000
30
55.266998
70
192
0
VERTEX
8
OBJECT__83
10
30.584000
20
1.079000
30
57.235001
70
192
0
VERTEX
8
OBJECT__83
10
30.584000
20
-1.079000
30
57.235001
70
192
0
VERTEX
8
OBJECT__83
10
0
20
0
30
0
70
128
71
1
72
2
73
3
0
VERTEX
8
OBJECT__83
10
0
20
0
30
0
70
128
71
3
72
4
73
1
0
SEQEND
8
OBJECT__83
0
POLYLINE
8
OBJECT__84
66
1
70
64
71
8
72
6
62
253
0
VERTEX
8
OBJECT__84
10
28.677000
20
-8.195000
30
58.966000
70
192
0
VERTEX
8
OBJECT__84
10
23.166000
20
-6.211000
30
62.018002
70
192
0
VERTEX
8
OBJECT__84
10
23.490000
20
-13.562000
30
60.859001
70
192
0
VERTEX
8
OBJECT__84
10
28.933001
20
-7.242000
30
58.966000
70
192
0
VERTEX
8
OBJECT__84
10
27.128000
20
0.000000
30
60.856998
70
192
0
VERTEX
8
OBJECT__84
10
27.124001
20
0.000000
30
60.859001
70
192
0
VERTEX
8
OBJECT__84
10
23.493999
20
-13.564000
30
60.856998
70
192
0
VERTEX
8
OBJECT__84
10
23.167999
20
-6.204000
30
62.018002
70
192
0
VERTEX
8
OBJECT__84
10
0
20
0
30
0
70
128
71
1
72
2
73
3
0
VERTEX
8
OBJECT__84
10
0
20
0
30
0
70
128
71
4
72
5
73
6
0
VERTEX
8
OBJECT__84
10
0
20
0
30
0
70
128
71
3
72
7
73
1
0
VERTEX
8
OBJECT__84
10
0
20
0
30
0
70
128
71
6
72
8
73
4
0
VERTEX
8
OBJECT__84
10
0
20
0
30
0
70
128
71
8
72
2
73
4
0
VERTEX
8
OBJECT__84
10
0
20
0
30
0
70
128
71
1
72
4
73
2
0
SEQEND
8
OBJECT__84
0
POLYLINE
8
OBJECT__85
66
1
70
64
71
5
72
3
62
253
0
VERTEX
8
OBJECT__85
10
27.326000
20
0.000000
30
50.706001
70
192
0
VERTEX
8
OBJECT__85
10
30.584000
20
1.079000
30
55.266998
70
192
0
VERTEX
8
OBJECT__85
10
30.584000
20
-1.079000
30
55.266998
70
192
0
VERTEX
8
OBJECT__85
10
28.940001
20
7.214000
30
52.966000
70
192
0
VERTEX
8
OBJECT__85
10
28.940001
20
-7.214000
30
52.966000
70
192
0
VERTEX
8
OBJECT__85
10
0
20
0
30
0
70
128
71
1
72
2
73
3
0
VERTEX
8
OBJECT__85
10
0
20
0
30
0
70
128
71
1
72
4
73
2
0
VERTEX
8
OBJECT__85
10
0
20
0
30
0
70
128
71
3
72
5
73
1
0
SEQEND
8
OBJECT__85
0
POLYLINE
8
OBJECT__86
66
1
70
64
71
8
72
6
62
253
0
VERTEX
8
OBJECT__86
10
28.940001
20
7.214000
30
52.966000
70
192
0
VERTEX
8
OBJECT__86
10
26.429001
20
0.000000
30
50.134998
70
192
0
VERTEX
8
OBJECT__86
10
22.657000
20
3.063000
30
48.255001
70
192
0
VERTEX
8
OBJECT__86
10
28.670000
20
8.222000
30
52.966000
70
192
0
VERTEX
8
OBJECT__86
10
21.153000
20
8.675000
30
48.255001
70
192
0
VERTEX
8
OBJECT__86
10
22.888000
20
13.215000
30
50.134998
70
192
0
VERTEX
8
OBJECT__86
10
27.326000
20
0.000000
30
50.706001
70
192
0
VERTEX
8
OBJECT__86
10
23.665001
20
13.663000
30
50.706001
70
192
0
VERTEX
8
OBJECT__86
10
0
20
0
30
0
70
128
71
1
72
2
73
3
0
VERTEX
8
OBJECT__86
10
0
20
0
30
0
70
128
71
4
72
5
73
6
0
VERTEX
8
OBJECT__86
10
0
20
0
30
0
70
128
71
1
72
7
73
2
0
VERTEX
8
OBJECT__86
10
0
20
0
30
0
70
128
71
6
72
8
73
4
0
VERTEX
8
OBJECT__86
10
0
20
0
30
0
70
128
71
4
72
1
73
5
0
VERTEX
8
OBJECT__86
10
0
20
0
30
0
70
128
71
3
72
5
73
1
0
SEQEND
8
OBJECT__86
0
POLYLINE
8
OBJECT__87
66
1
70
64
71
3
72
1
62
253
0
VERTEX
8
OBJECT__87
10
26.429001
20
0.000000
30
50.134998
70
192
0
VERTEX
8
OBJECT__87
10
22.657000
20
-3.063000
30
48.255001
70
192
0
VERTEX
8
OBJECT__87
10
22.657000
20
3.063000
30
48.255001
70
192
0
VERTEX
8
OBJECT__87
10
0
20
0
30
0
70
128
71
1
72
2
73
3
0
SEQEND
8
OBJECT__87
0
POLYLINE
8
OBJECT__88
66
1
70
64
71
8
72
6
62
253
0
VERTEX
8
OBJECT__88
10
28.677000
20
-8.195000
30
58.966000
70
192
0
VERTEX
8
OBJECT__88
10
27.025999
20
-14.358000
30
57.235001
70
192
0
VERTEX
8
OBJECT__88
10
27.025999
20
-14.358000
30
55.266998
70
192
0
VERTEX
8
OBJECT__88
10
28.933001
20
-7.242000
30
58.966000
70
192
0
VERTEX
8
OBJECT__88
10
28.940001
20
-7.214000
30
52.966000
70
192
0
VERTEX
8
OBJECT__88
10
30.584000
20
-1.079000
30
55.266998
70
192
0
VERTEX
8
OBJECT__88
10
28.670000
20
-8.222000
30
52.966000
70
192
0
VERTEX
8
OBJECT__88
10
30.584000
20
-1.079000
30
57.235001
70
192
0
VERTEX
8
OBJECT__88
10
0
20
0
30
0
70
128
71
1
72
2
73
3
0
VERTEX
8
OBJECT__88
10
0
20
0
30
0
70
128
71
4
72
5
73
6
0
VERTEX
8
OBJECT__88
10
0
20
0
30
0
70
128
71
7
72
4
73
1
0
VERTEX
8
OBJECT__88
10
0
20
0
30
0
70
128
71
4
72
7
73
5
0
VERTEX
8
OBJECT__88
10
0
20
0
30
0
70
128
71
6
72
8
73
4
0
VERTEX
8
OBJECT__88
10
0
20
0
30
0
70
128
71
3
72
7
73
1
0
SEQEND
8
OBJECT__88
0
POLYLINE
8
OBJECT__89
66
1
70
64
71
5
72
3
62
253
0
VERTEX
8
OBJECT__89
10
23.493999
20
-13.564000
30
60.856998
70
192
0
VERTEX
8
OBJECT__89
10
21.436001
20
-20.738001
30
58.966000
70
192
0
VERTEX
8
OBJECT__89
10
25.947001
20
-16.226000
30
57.235001
70
192
0
VERTEX
8
OBJECT__89
10
27.025999
20
-14.358000
30
57.235001
70
192
0
VERTEX
8
OBJECT__89
10
28.677000
20
-8.195000
30
58.966000
70
192
0
VERTEX
8
OBJECT__89
10
0
20
0
30
0
70
128
71
1
72
2
73
3
0
VERTEX
8
OBJECT__89
10
0
20
0
30
0
70
128
71
3
72
4
73
1
0
VERTEX
8
OBJECT__89
10
0
20
0
30
0
70
128
71
4
72
5
73
1
0
SEQEND
8
OBJECT__89
0
POLYLINE
8
OBJECT__90
66
1
70
64
71
4
72
2
62
253
0
VERTEX
8
OBJECT__90
10
25.947001
20
-16.226000
30
55.266998
70
192
0
VERTEX
8
OBJECT__90
10
27.025999
20
-14.358000
30
55.266998
70
192
0
VERTEX
8
OBJECT__90
10
27.025999
20
-14.358000
30
57.235001
70
192
0
VERTEX
8
OBJECT__90
10
25.947001
20
-16.226000
30
57.235001
70
192
0
VERTEX
8
OBJECT__90
10
0
20
0
30
0
70
128
71
1
72
2
73
3
0
VERTEX
8
OBJECT__90
10
0
20
0
30
0
70
128
71
3
72
4
73
1
0
SEQEND
8
OBJECT__90
0
POLYLINE
8
OBJECT__91
66
1
70
64
71
8
72
6
62
253
0
VERTEX
8
OBJECT__91
10
20.738001
20
-21.436001
30
58.966000
70
192
0
VERTEX
8
OBJECT__91
10
16.957001
20
-16.962000
30
62.018002
70
192
0
VERTEX
8
OBJECT__91
10
13.562000
20
-23.490000
30
60.859001
70
192
0
VERTEX
8
OBJECT__91
10
21.436001
20
-20.738001
30
58.966000
70
192
0
VERTEX
8
OBJECT__91
10
23.493999
20
-13.564000
30
60.856998
70
192
0
VERTEX
8
OBJECT__91
10
23.490000
20
-13.562000
30
60.859001
70
192
0
VERTEX
8
OBJECT__91
10
13.564000
20
-23.493999
30
60.856998
70
192
0
VERTEX
8
OBJECT__91
10
16.962000
20
-16.957001
30
62.018002
70
192
0
VERTEX
8
OBJECT__91
10
0
20
0
30
0
70
128
71
1
72
2
73
3
0
VERTEX
8
OBJECT__91
10
0
20
0
30
0
70
128
71
4
72
5
73
6
0
VERTEX
8
OBJECT__91
10
0
20
0
30
0
70
128
71
3
72
7
73
1
0
VERTEX
8
OBJECT__91
10
0
20
0
30
0
70
128
71
6
72
8
73
4
0
VERTEX
8
OBJECT__91
10
0
20
0
30
0
70
128
71
8
72
2
73
4
0
VERTEX
8
OBJECT__91
10
0
20
0
30
0
70
128
71
1
72
4
73
2
0
SEQEND
8
OBJECT__91
0
POLYLINE
8
OBJECT__92
66
1
70
64
71
8
72
6
62
253
0
VERTEX
8
OBJECT__92
10
7.242000
20
-28.933001
30
58.966000
70
192
0
VERTEX
8
OBJECT__92
10
6.204000
20
-23.167999
30
62.018002
70
192
0
VERTEX
8
OBJECT__92
10
0.000000
20
-27.124001
30
60.859001
70
192
0
VERTEX
8
OBJECT__92
10
8.195000
20
-28.677000
30
58.966000
70
192
0
VERTEX
8
OBJECT__92
10
13.564000
20
-23.493999
30
60.856998
70
192
0
VERTEX
8
OBJECT__92
10
13.562000
20
-23.490000
30
60.859001
70
192
0
VERTEX
8
OBJECT__92
10
6.211000
20
-23.166000
30
62.018002
70
192
0
VERTEX
8
OBJECT__92
10
0.000000
20
-27.128000
30
60.856998
70
192
0
VERTEX
8
OBJECT__92
10
0
20
0
30
0
70
128
71
1
72
2
73
3
0
VERTEX
8
OBJECT__92
10
0
20
0
30
0
70
128
71
4
72
5
73
6
0
VERTEX
8
OBJECT__92
10
0
20
0
30
0
70
128
71
1
72
7
73
2
0
VERTEX
8
OBJECT__92
10
0
20
0
30
0
70
128
71
7
72
1
73
4
0
VERTEX
8
OBJECT__92
10
0
20
0
30
0
70
128
71
6
72
7
73
4
0
VERTEX
8
OBJECT__92
10
0
20
0
30
0
70
128
71
3
72
8
73
1
0
SEQEND
8
OBJECT__92
0
POLYLINE
8
OBJECT__93
66
1
70
64
71
5
72
3
62
253
0
VERTEX
8
OBJECT__93
10
23.665001
20
-13.663000
30
50.706001
70
192
0
VERTEX
8
OBJECT__93
10
28.670000
20
-8.222000
30
52.966000
70
192
0
VERTEX
8
OBJECT__93
10
27.025999
20
-14.358000
30
55.266998
70
192
0
VERTEX
8
OBJECT__93
10
25.947001
20
-16.226000
30
55.266998
70
192
0
VERTEX
8
OBJECT__93
10
21.455999
20
-20.718000
30
52.966000
70
192
0
VERTEX
8
OBJECT__93
10
0
20
0
30
0
70
128
71
1
72
2
73
3
0
VERTEX
8
OBJECT__93
10
0
20
0
30
0
70
128
71
3
72
4
73
1
0
VERTEX
8
OBJECT__93
10
0
20
0
30
0
70
128
71
4
72
5
73
1
0
SEQEND
8
OBJECT__93
0
POLYLINE
8
OBJECT__94
66
1
70
64
71
8
72
6
62
253
0
VERTEX
8
OBJECT__94
10
28.670000
20
-8.222000
30
52.966000
70
192
0
VERTEX
8
OBJECT__94
10
22.888000
20
-13.215000
30
50.134998
70
192
0
VERTEX
8
OBJECT__94
10
21.153000
20
-8.675000
30
48.255001
70
192
0
VERTEX
8
OBJECT__94
10
28.940001
20
-7.214000
30
52.966000
70
192
0
VERTEX
8
OBJECT__94
10
22.657000
20
-3.063000
30
48.255001
70
192
0
VERTEX
8
OBJECT__94
10
26.429001
20
0.000000
30
50.134998
70
192
0
VERTEX
8
OBJECT__94
10
23.665001
20
-13.663000
30
50.706001
70
192
0
VERTEX
8
OBJECT__94
10
27.326000
20
0.000000
30
50.706001
70
192
0
VERTEX
8
OBJECT__94
10
0
20
0
30
0
70
128
71
1
72
2
73
3
0
VERTEX
8
OBJECT__94
10
0
20
0
30
0
70
128
71
4
72
5
73
6
0
VERTEX
8
OBJECT__94
10
0
20
0
30
0
70
128
71
1
72
7
73
2
0
VERTEX
8
OBJECT__94
10
0
20
0
30
0
70
128
71
6
72
8
73
4
0
VERTEX
8
OBJECT__94
10
0
20
0
30
0
70
128
71
4
72
1
73
5
0
VERTEX
8
OBJECT__94
10
0
20
0
30
0
70
128
71
3
72
5
73
1
0
SEQEND
8
OBJECT__94
0
POLYLINE
8
OBJECT__95
66
1
70
64
71
3
72
1
62
253
0
VERTEX
8
OBJECT__95
10
18.090000
20
-13.981000
30
48.255001
70
192
0
VERTEX
8
OBJECT__95
10
21.153000
20
-8.675000
30
48.255001
70
192
0
VERTEX
8
OBJECT__95
10
22.888000
20
-13.215000
30
50.134998
70
192
0
VERTEX
8
OBJECT__95
10
0
20
0
30
0
70
128
71
1
72
2
73
3
0
SEQEND
8
OBJECT__95
0
POLYLINE
8
OBJECT__96
66
1
70
64
71
5
72
3
62
253
0
VERTEX
8
OBJECT__96
10
13.564000
20
-23.493999
30
60.856998
70
192
0
VERTEX
8
OBJECT__96
10
14.358000
20
-27.025999
30
57.235001
70
192
0
VERTEX
8
OBJECT__96
10
16.226000
20
-25.947001
30
57.235001
70
192
0
VERTEX
8
OBJECT__96
10
8.195000
20
-28.677000
30
58.966000
70
192
0
VERTEX
8
OBJECT__96
10
20.738001
20
-21.436001
30
58.966000
70
192
0
VERTEX
8
OBJECT__96
10
0
20
0
30
0
70
128
71
1
72
2
73
3
0
VERTEX
8
OBJECT__96
10
0
20
0
30
0
70
128
71
1
72
4
73
2
0
VERTEX
8
OBJECT__96
10
0
20
0
30
0
70
128
71
3
72
5
73
1
0
SEQEND
8
OBJECT__96
0
POLYLINE
8
OBJECT__97
66
1
70
64
71
8
72
6
62
253
0
VERTEX
8
OBJECT__97
10
20.738001
20
-21.436001
30
58.966000
70
192
0
VERTEX
8
OBJECT__97
10
16.226000
20
-25.947001
30
57.235001
70
192
0
VERTEX
8
OBJECT__97
10
16.226000
20
-25.947001
30
55.266998
70
192
0
VERTEX
8
OBJECT__97
10
21.436001
20
-20.738001
30
58.966000
70
192
0
VERTEX
8
OBJECT__97
10
21.455999
20
-20.718000
30
52.966000
70
192
0
VERTEX
8
OBJECT__97
10
25.947001
20
-16.226000
30
55.266998
70
192
0
VERTEX
8
OBJECT__97
10
20.718000
20
-21.455999
30
52.966000
70
192
0
VERTEX
8
OBJECT__97
10
25.947001
20
-16.226000
30
57.235001
70
192
0
VERTEX
8
OBJECT__97
10
0
20
0
30
0
70
128
71
1
72
2
73
3
0
VERTEX
8
OBJECT__97
10
0
20
0
30
0
70
128
71
4
72
5
73
6
0
VERTEX
8
OBJECT__97
10
0
20
0
30
0
70
128
71
7
72
4
73
1
0
VERTEX
8
OBJECT__97
10
0
20
0
30
0
70
128
71
4
72
7
73
5
0
VERTEX
8
OBJECT__97
10
0
20
0
30
0
70
128
71
6
72
8
73
4
0
VERTEX
8
OBJECT__97
10
0
20
0
30
0
70
128
71
3
72
7
73
1
0
SEQEND
8
OBJECT__97
0
POLYLINE
8
OBJECT__98
66
1
70
64
71
4
72
2
62
253
0
VERTEX
8
OBJECT__98
10
14.358000
20
-27.025999
30
55.266998
70
192
0
VERTEX
8
OBJECT__98
10
16.226000
20
-25.947001
30
55.266998
70
192
0
VERTEX
8
OBJECT__98
10
16.226000
20
-25.947001
30
57.235001
70
192
0
VERTEX
8
OBJECT__98
10
14.358000
20
-27.025999
30
57.235001
70
192
0
VERTEX
8
OBJECT__98
10
0
20
0
30
0
70
128
71
1
72
2
73
3
0
VERTEX
8
OBJECT__98
10
0
20
0
30
0
70
128
71
3
72
4
73
1
0
SEQEND
8
OBJECT__98
0
POLYLINE
8
OBJECT__99
66
1
70
64
71
5
72
3
62
253
0
VERTEX
8
OBJECT__99
10
13.663000
20
-23.665001
30
50.706001
70
192
0
VERTEX
8
OBJECT__99
10
16.226000
20
-25.947001
30
55.266998
70
192
0
VERTEX
8
OBJECT__99
10
14.358000
20
-27.025999
30
55.266998
70
192
0
VERTEX
8
OBJECT__99
10
20.718000
20
-21.455999
30
52.966000
70
192
0
VERTEX
8
OBJECT__99
10
8.222000
20
-28.670000
30
52.966000
70
192
0
VERTEX
8
OBJECT__99
10
0
20
0
30
0
70
128
71
1
72
2
73
3
0
VERTEX
8
OBJECT__99
10
0
20
0
30
0
70
128
71
1
72
4
73
2
0
VERTEX
8
OBJECT__99
10
0
20
0
30
0
70
128
71
3
72
5
73
1
0
SEQEND
8
OBJECT__99
0
POLYLINE
8
OBJECT__100
66
1
70
64
71
8
72
6
62
253
0
VERTEX
8
OBJECT__100
10
20.718000
20
-21.455999
30
52.966000
70
192
0
VERTEX
8
OBJECT__100
10
13.215000
20
-22.888000
30
50.134998
70
192
0
VERTEX
8
OBJECT__100
10
13.981000
20
-18.090000
30
48.255001
70
192
0
VERTEX
8
OBJECT__100
10
21.455999
20
-20.718000
30
52.966000
70
192
0
VERTEX
8
OBJECT__100
10
18.090000
20
-13.981000
30
48.255001
70
192
0
VERTEX
8
OBJECT__100
10
22.888000
20
-13.215000
30
50.134998
70
192
0
VERTEX
8
OBJECT__100
10
13.663000
20
-23.665001
30
50.706001
70
192
0
VERTEX
8
OBJECT__100
10
23.665001
20
-13.663000
30
50.706001
70
192
0
VERTEX
8
OBJECT__100
10
0
20
0
30
0
70
128
71
1
72
2
73
3
0
VERTEX
8
OBJECT__100
10
0
20
0
30
0
70
128
71
4
72
5
73
6
0
VERTEX
8
OBJECT__100
10
0
20
0
30
0
70
128
71
1
72
7
73
2
0
VERTEX
8
OBJECT__100
10
0
20
0
30
0
70
128
71
6
72
8
73
4
0
VERTEX
8
OBJECT__100
10
0
20
0
30
0
70
128
71
4
72
1
73
5
0
VERTEX
8
OBJECT__100
10
0
20
0
30
0
70
128
71
3
72
5
73
1
0
SEQEND
8
OBJECT__100
0
POLYLINE
8
OBJECT__101
66
1
70
64
71
3
72
1
62
253
0
VERTEX
8
OBJECT__101
10
13.215000
20
-22.888000
30
50.134998
70
192
0
VERTEX
8
OBJECT__101
10
8.675000
20
-21.153000
30
48.255001
70
192
0
VERTEX
8
OBJECT__101
10
13.981000
20
-18.090000
30
48.255001
70
192
0
VERTEX
8
OBJECT__101
10
0
20
0
30
0
70
128
71
1
72
2
73
3
0
SEQEND
8
OBJECT__101
0
POLYLINE
8
OBJECT__102
66
1
70
64
71
24
72
22
62
253
0
VERTEX
8
OBJECT__102
10
21.153000
20
-8.675000
30
48.255001
70
192
0
VERTEX
8
OBJECT__102
10
13.981000
20
-18.090000
30
48.255001
70
192
0
VERTEX
8
OBJECT__102
10
8.675000
20
-21.153000
30
48.255001
70
192
0
VERTEX
8
OBJECT__102
10
8.675000
20
21.153000
30
48.255001
70
192
0
VERTEX
8
OBJECT__102
10
-8.675000
20
21.153000
30
48.255001
70
192
0
VERTEX
8
OBJECT__102
10
-3.063000
20
22.657000
30
48.255001
70
192
0
VERTEX
8
OBJECT__102
10
-18.090000
20
13.981000
30
48.255001
70
192
0
VERTEX
8
OBJECT__102
10
-13.981000
20
18.090000
30
48.255001
70
192
0
VERTEX
8
OBJECT__102
10
-8.675000
20
-21.153000
30
48.255001
70
192
0
VERTEX
8
OBJECT__102
10
-13.981000
20
-18.090000
30
48.255001
70
192
0
VERTEX
8
OBJECT__102
10
3.063000
20
-22.657000
30
48.255001
70
192
0
VERTEX
8
OBJECT__102
10
-3.063000
20
-22.657000
30
48.255001
70
192
0
VERTEX
8
OBJECT__102
10
18.090000
20
-13.981000
30
48.255001
70
192
0
VERTEX
8
OBJECT__102
10
21.153000
20
8.675000
30
48.255001
70
192
0
VERTEX
8
OBJECT__102
10
-22.657000
20
-3.063000
30
48.255001
70
192
0
VERTEX
8
OBJECT__102
10
-22.657000
20
3.063000
30
48.255001
70
192
0
VERTEX
8
OBJECT__102
10
-18.090000
20
-13.981000
30
48.255001
70
192
0
VERTEX
8
OBJECT__102
10
-21.153000
20
-8.675000
30
48.255001
70
192
0
VERTEX
8
OBJECT__102
10
22.657000
20
3.063000
30
48.255001
70
192
0
VERTEX
8
OBJECT__102
10
13.981000
20
18.090000
30
48.255001
70
192
0
VERTEX
8
OBJECT__102
10
18.090000
20
13.981000
30
48.255001
70
192
0
VERTEX
8
OBJECT__102
10
3.063000
20
22.657000
30
48.255001
70
192
0
VERTEX
8
OBJECT__102
10
-21.153000
20
8.675000
30
48.255001
70
192
0
VERTEX
8
OBJECT__102
10
22.657000
20
-3.063000
30
48.255001
70
192
0
VERTEX
8
OBJECT__102
10
0
20
0
30
0
70
128
71
1
72
2
73
3
0
VERTEX
8
OBJECT__102
10
0
20
0
30
0
70
128
71
4
72
5
73
6
0
VERTEX
8
OBJECT__102
10
0
20
0
30
0
70
128
71
4
72
7
73
8
0
VERTEX
8
OBJECT__102
10
0
20
0
30
0
70
128
71
1
72
9
73
10
0
VERTEX
8
OBJECT__102
10
0
20
0
30
0
70
128
71
1
72
11
73
12
0
VERTEX
8
OBJECT__102
10
0
20
0
30
0
70
128
71
1
72
13
73
2
0
VERTEX
8
OBJECT__102
10
0
20
0
30
0
70
128
71
8
72
5
73
4
0
VERTEX
8
OBJECT__102
10
0
20
0
30
0
70
128
71
14
72
15
73
16
0
VERTEX
8
OBJECT__102
10
0
20
0
30
0
70
128
71
10
72
17
73
1
0
VERTEX
8
OBJECT__102
10
0
20
0
30
0
70
128
71
3
72
11
73
1
0
VERTEX
8
OBJECT__102
10
0
20
0
30
0
70
128
71
18
72
14
73
19
0
VERTEX
8
OBJECT__102
10
0
20
0
30
0
70
128
71
7
72
20
73
21
0
VERTEX
8
OBJECT__102
10
0
20
0
30
0
70
128
71
6
72
22
73
4
0
VERTEX
8
OBJECT__102
10
0
20
0
30
0
70
128
71
16
72
23
73
14
0
VERTEX
8
OBJECT__102
10
0
20
0
30
0
70
128
71
12
72
9
73
1
0
VERTEX
8
OBJECT__102
10
0
20
0
30
0
70
128
71
19
72
24
73
18
0
VERTEX
8
OBJECT__102
10
0
20
0
30
0
70
128
71
4
72
20
73
7
0
VERTEX
8
OBJECT__102
10
0
20
0
30
0
70
128
71
14
72
18
73
15
0
VERTEX
8
OBJECT__102
10
0
20
0
30
0
70
128
71
24
72
1
73
18
0
VERTEX
8
OBJECT__102
10
0
20
0
30
0
70
128
71
23
72
7
73
14
0
VERTEX
8
OBJECT__102
10
0
20
0
30
0
70
128
71
21
72
14
73
7
0
VERTEX
8
OBJECT__102
10
0
20
0
30
0
70
128
71
17
72
18
73
1
0
SEQEND
8
OBJECT__102
0
POLYLINE
8
OBJECT__103
66
1
70
64
71
3
72
1
62
253
0
VERTEX
8
OBJECT__103
10
-3.063000
20
-22.657000
30
48.255001
70
192
0
VERTEX
8
OBJECT__103
10
3.063000
20
-22.657000
30
48.255001
70
192
0
VERTEX
8
OBJECT__103
10
0.000000
20
-26.429001
30
50.134998
70
192
0
VERTEX
8
OBJECT__103
10
0
20
0
30
0
70
128
71
1
72
2
73
3
0
SEQEND
8
OBJECT__103
0
POLYLINE
8
OBJECT__104
66
1
70
64
71
8
72
6
62
253
0
VERTEX
8
OBJECT__104
10
7.214000
20
-28.940001
30
52.966000
70
192
0
VERTEX
8
OBJECT__104
10
0.000000
20
-27.326000
30
50.706001
70
192
0
VERTEX
8
OBJECT__104
10
0.000000
20
-26.429001
30
50.134998
70
192
0
VERTEX
8
OBJECT__104
10
8.222000
20
-28.670000
30
52.966000
70
192
0
VERTEX
8
OBJECT__104
10
3.063000
20
-22.657000
30
48.255001
70
192
0
VERTEX
8
OBJECT__104
10
8.675000
20
-21.153000
30
48.255001
70
192
0
VERTEX
8
OBJECT__104
10
13.215000
20
-22.888000
30
50.134998
70
192
0
VERTEX
8
OBJECT__104
10
13.663000
20
-23.665001
30
50.706001
70
192
0
VERTEX
8
OBJECT__104
10
0
20
0
30
0
70
128
71
1
72
2
73
3
0
VERTEX
8
OBJECT__104
10
0
20
0
30
0
70
128
71
4
72
5
73
6
0
VERTEX
8
OBJECT__104
10
0
20
0
30
0
70
128
71
5
72
4
73
1
0
VERTEX
8
OBJECT__104
10
0
20
0
30
0
70
128
71
6
72
7
73
4
0
VERTEX
8
OBJECT__104
10
0
20
0
30
0
70
128
71
7
72
8
73
4
0
VERTEX
8
OBJECT__104
10
0
20
0
30
0
70
128
71
3
72
5
73
1
0
SEQEND
8
OBJECT__104
0
POLYLINE
8
OBJECT__105
66
1
70
64
71
8
72
6
62
253
0
VERTEX
8
OBJECT__105
10
-8.222000
20
-28.670000
30
52.966000
70
192
0
VERTEX
8
OBJECT__105
10
-13.663000
20
-23.665001
30
50.706001
70
192
0
VERTEX
8
OBJECT__105
10
-13.215000
20
-22.888000
30
50.134998
70
192
0
VERTEX
8
OBJECT__105
10
-7.214000
20
-28.940001
30
52.966000
70
192
0
VERTEX
8
OBJECT__105
10
-8.675000
20
-21.153000
30
48.255001
70
192
0
VERTEX
8
OBJECT__105
10
-3.063000
20
-22.657000
30
48.255001
70
192
0
VERTEX
8
OBJECT__105
10
0.000000
20
-26.429001
30
50.134998
70
192
0
VERTEX
8
OBJECT__105
10
0.000000
20
-27.326000
30
50.706001
70
192
0
VERTEX
8
OBJECT__105
10
0
20
0
30
0
70
128
71
1
72
2
73
3
0
VERTEX
8
OBJECT__105
10
0
20
0
30
0
70
128
71
4
72
5
73
6
0
VERTEX
8
OBJECT__105
10
0
20
0
30
0
70
128
71
5
72
4
73
1
0
VERTEX
8
OBJECT__105
10
0
20
0
30
0
70
128
71
6
72
7
73
4
0
VERTEX
8
OBJECT__105
10
0
20
0
30
0
70
128
71
7
72
8
73
4
0
VERTEX
8
OBJECT__105
10
0
20
0
30
0
70
128
71
3
72
5
73
1
0
SEQEND
8
OBJECT__105
0
POLYLINE
8
OBJECT__106
66
1
70
64
71
8
72
6
62
253
0
VERTEX
8
OBJECT__106
10
7.242000
20
-28.933001
30
58.966000
70
192
0
VERTEX
8
OBJECT__106
10
1.079000
20
-30.584000
30
57.235001
70
192
0
VERTEX
8
OBJECT__106
10
1.079000
20
-30.584000
30
55.266998
70
192
0
VERTEX
8
OBJECT__106
10
8.195000
20
-28.677000
30
58.966000
70
192
0
VERTEX
8
OBJECT__106
10
8.222000
20
-28.670000
30
52.966000
70
192
0
VERTEX
8
OBJECT__106
10
14.358000
20
-27.025999
30
55.266998
70
192
0
VERTEX
8
OBJECT__106
10
7.214000
20
-28.940001
30
52.966000
70
192
0
VERTEX
8
OBJECT__106
10
14.358000
20
-27.025999
30
57.235001
70
192
0
VERTEX
8
OBJECT__106
10
0
20
0
30
0
70
128
71
1
72
2
73
3
0
VERTEX
8
OBJECT__106
10
0
20
0
30
0
70
128
71
4
72
5
73
6
0
VERTEX
8
OBJECT__106
10
0
20
0
30
0
70
128
71
7
72
4
73
1
0
VERTEX
8
OBJECT__106
10
0
20
0
30
0
70
128
71
4
72
7
73
5
0
VERTEX
8
OBJECT__106
10
0
20
0
30
0
70
128
71
6
72
8
73
4
0
VERTEX
8
OBJECT__106
10
0
20
0
30
0
70
128
71
3
72
7
73
1
0
SEQEND
8
OBJECT__106
0
POLYLINE
8
OBJECT__107
66
1
70
64
71
8
72
6
62
253
0
VERTEX
8
OBJECT__107
10
-8.195000
20
-28.677000
30
58.966000
70
192
0
VERTEX
8
OBJECT__107
10
-14.358000
20
-27.025999
30
57.235001
70
192
0
VERTEX
8
OBJECT__107
10
-14.358000
20
-27.025999
30
55.266998
70
192
0
VERTEX
8
OBJECT__107
10
-7.242000
20
-28.933001
30
58.966000
70
192
0
VERTEX
8
OBJECT__107
10
-7.214000
20
-28.940001
30
52.966000
70
192
0
VERTEX
8
OBJECT__107
10
-1.079000
20
-30.584000
30
55.266998
70
192
0
VERTEX
8
OBJECT__107
10
-8.222000
20
-28.670000
30
52.966000
70
192
0
VERTEX
8
OBJECT__107
10
-1.079000
20
-30.584000
30
57.235001
70
192
0
VERTEX
8
OBJECT__107
10
0
20
0
30
0
70
128
71
1
72
2
73
3
0
VERTEX
8
OBJECT__107
10
0
20
0
30
0
70
128
71
4
72
5
73
6
0
VERTEX
8
OBJECT__107
10
0
20
0
30
0
70
128
71
3
72
7
73
1
0
VERTEX
8
OBJECT__107
10
0
20
0
30
0
70
128
71
6
72
8
73
4
0
VERTEX
8
OBJECT__107
10
0
20
0
30
0
70
128
71
4
72
1
73
5
0
VERTEX
8
OBJECT__107
10
0
20
0
30
0
70
128
71
7
72
5
73
1
0
SEQEND
8
OBJECT__107
0
POLYLINE
8
OBJECT__108
66
1
70
64
71
5
72
3
62
253
0
VERTEX
8
OBJECT__108
10
0.000000
20
-27.128000
30
60.856998
70
192
0
VERTEX
8
OBJECT__108
10
-7.242000
20
-28.933001
30
58.966000
70
192
0
VERTEX
8
OBJECT__108
10
-1.079000
20
-30.584000
30
57.235001
70
192
0
VERTEX
8
OBJECT__108
10
1.079000
20
-30.584000
30
57.235001
70
192
0
VERTEX
8
OBJECT__108
10
7.242000
20
-28.933001
30
58.966000
70
192
0
VERTEX
8
OBJECT__108
10
0
20
0
30
0
70
128
71
1
72
2
73
3
0
VERTEX
8
OBJECT__108
10
0
20
0
30
0
70
128
71
3
72
4
73
1
0
VERTEX
8
OBJECT__108
10
0
20
0
30
0
70
128
71
4
72
5
73
1
0
SEQEND
8
OBJECT__108
0
POLYLINE
8
OBJECT__109
66
1
70
64
71
5
72
3
62
253
0
VERTEX
8
OBJECT__109
10
0.000000
20
-27.326000
30
50.706001
70
192
0
VERTEX
8
OBJECT__109
10
7.214000
20
-28.940001
30
52.966000
70
192
0
VERTEX
8
OBJECT__109
10
1.079000
20
-30.584000
30
55.266998
70
192
0
VERTEX
8
OBJECT__109
10
-1.079000
20
-30.584000
30
55.266998
70
192
0
VERTEX
8
OBJECT__109
10
-7.214000
20
-28.940001
30
52.966000
70
192
0
VERTEX
8
OBJECT__109
10
0
20
0
30
0
70
128
71
1
72
2
73
3
0
VERTEX
8
OBJECT__109
10
0
20
0
30
0
70
128
71
3
72
4
73
1
0
VERTEX
8
OBJECT__109
10
0
20
0
30
0
70
128
71
4
72
5
73
1
0
SEQEND
8
OBJECT__109
0
POLYLINE
8
OBJECT__110
66
1
70
64
71
4
72
2
62
253
0
VERTEX
8
OBJECT__110
10
-1.079000
20
-30.584000
30
55.266998
70
192
0
VERTEX
8
OBJECT__110
10
1.079000
20
-30.584000
30
55.266998
70
192
0
VERTEX
8
OBJECT__110
10
1.079000
20
-30.584000
30
57.235001
70
192
0
VERTEX
8
OBJECT__110
10
-1.079000
20
-30.584000
30
57.235001
70
192
0
VERTEX
8
OBJECT__110
10
0
20
0
30
0
70
128
71
1
72
2
73
3
0
VERTEX
8
OBJECT__110
10
0
20
0
30
0
70
128
71
3
72
4
73
1
0
SEQEND
8
OBJECT__110
0
POLYLINE
8
OBJECT__111
66
1
70
64
71
20
72
18
62
253
0
VERTEX
8
OBJECT__111
10
-6.267000
20
9.525000
30
6.240000
70
192
0
VERTEX
8
OBJECT__111
10
-2.835000
20
11.044000
30
6.240000
70
192
0
VERTEX
8
OBJECT__111
10
0.905000
20
11.366000
30
6.240000
70
192
0
VERTEX
8
OBJECT__111
10
7.695000
20
8.413000
30
6.240000
70
192
0
VERTEX
8
OBJECT__111
10
10.010000
20
5.459000
30
6.240000
70
192
0
VERTEX
8
OBJECT__111
10
4.546000
20
10.456000
30
6.240000
70
192
0
VERTEX
8
OBJECT__111
10
-8.975000
20
-7.032000
30
6.240000
70
192
0
VERTEX
8
OBJECT__111
10
0.978000
20
-11.360000
30
6.240000
70
192
0
VERTEX
8
OBJECT__111
10
-2.763000
20
-11.062000
30
6.240000
70
192
0
VERTEX
8
OBJECT__111
10
7.749000
20
-8.363000
30
6.240000
70
192
0
VERTEX
8
OBJECT__111
10
4.614000
20
-10.427000
30
6.240000
70
192
0
VERTEX
8
OBJECT__111
10
11.252000
20
-1.840000
30
6.240000
70
192
0
VERTEX
8
OBJECT__111
10
10.045000
20
-5.394000
30
6.240000
70
192
0
VERTEX
8
OBJECT__111
10
11.240000
20
1.913000
30
6.240000
70
192
0
VERTEX
8
OBJECT__111
10
-10.796000
20
3.667000
30
6.240000
70
192
0
VERTEX
8
OBJECT__111
10
-9.020000
20
6.974000
30
6.240000
70
192
0
VERTEX
8
OBJECT__111
10
-11.402000
20
-0.037000
30
6.240000
70
192
0
VERTEX
8
OBJECT__111
10
-6.205000
20
-9.565000
30
6.240000
70
192
0
VERTEX
8
OBJECT__111
10
-11.360000
20
-0.978000
30
6.240000
70
192
0
VERTEX
8
OBJECT__111
10
-10.772000
20
-3.737000
30
6.240000
70
192
0
VERTEX
8
OBJECT__111
10
0
20
0
30
0
70
128
71
1
72
2
73
3
0
VERTEX
8
OBJECT__111
10
0
20
0
30
0
70
128
71
1
72
4
73
5
0
VERTEX
8
OBJECT__111
10
0
20
0
30
0
70
128
71
3
72
6
73
1
0
VERTEX
8
OBJECT__111
10
0
20
0
30
0
70
128
71
7
72
8
73
9
0
VERTEX
8
OBJECT__111
10
0
20
0
30
0
70
128
71
7
72
10
73
11
0
VERTEX
8
OBJECT__111
10
0
20
0
30
0
70
128
71
7
72
12
73
13
0
VERTEX
8
OBJECT__111
10
0
20
0
30
0
70
128
71
6
72
4
73
1
0
VERTEX
8
OBJECT__111
10
0
20
0
30
0
70
128
71
14
72
15
73
16
0
VERTEX
8
OBJECT__111
10
0
20
0
30
0
70
128
71
11
72
8
73
7
0
VERTEX
8
OBJECT__111
10
0
20
0
30
0
70
128
71
7
72
14
73
12
0
VERTEX
8
OBJECT__111
10
0
20
0
30
0
70
128
71
16
72
1
73
14
0
VERTEX
8
OBJECT__111
10
0
20
0
30
0
70
128
71
13
72
10
73
7
0
VERTEX
8
OBJECT__111
10
0
20
0
30
0
70
128
71
14
72
17
73
15
0
VERTEX
8
OBJECT__111
10
0
20
0
30
0
70
128
71
9
72
18
73
7
0
VERTEX
8
OBJECT__111
10
0
20
0
30
0
70
128
71
14
72
19
73
17
0
VERTEX
8
OBJECT__111
10
0
20
0
30
0
70
128
71
7
72
20
73
14
0
VERTEX
8
OBJECT__111
10
0
20
0
30
0
70
128
71
20
72
19
73
14
0
VERTEX
8
OBJECT__111
10
0
20
0
30
0
70
128
71
5
72
14
73
1
0
SEQEND
8
OBJECT__111
0
POLYLINE
8
OBJECT__112
66
1
70
64
71
77
72
96
62
253
0
VERTEX
8
OBJECT__112
10
4.677000
20
-10.570000
30
6.316000
70
192
0
VERTEX
8
OBJECT__112
10
0.992000
20
-11.516000
30
6.316000
70
192
0
VERTEX
8
OBJECT__112
10
0.978000
20
-11.360000
30
6.240000
70
192
0
VERTEX
8
OBJECT__112
10
7.856000
20
-8.479000
30
6.316000
70
192
0
VERTEX
8
OBJECT__112
10
4.614000
20
-10.427000
30
6.240000
70
192
0
VERTEX
8
OBJECT__112
10
10.183000
20
-5.468000
30
6.316000
70
192
0
VERTEX
8
OBJECT__112
10
7.749000
20
-8.363000
30
6.240000
70
192
0
VERTEX
8
OBJECT__112
10
10.045000
20
-5.394000
30
6.240000
70
192
0
VERTEX
8
OBJECT__112
10
11.252000
20
-1.840000
30
6.240000
70
192
0
VERTEX
8
OBJECT__112
10
11.407000
20
-1.866000
30
6.316000
70
192
0
VERTEX
8
OBJECT__112
10
11.240000
20
1.913000
30
6.240000
70
192
0
VERTEX
8
OBJECT__112
10
10.148000
20
5.534000
30
6.316000
70
192
0
VERTEX
8
OBJECT__112
10
11.395000
20
1.939000
30
6.316000
70
192
0
VERTEX
8
OBJECT__112
10
7.801000
20
8.529000
30
6.316000
70
192
0
VERTEX
8
OBJECT__112
10
10.010000
20
5.459000
30
6.240000
70
192
0
VERTEX
8
OBJECT__112
10
4.609000
20
10.600000
30
6.316000
70
192
0
VERTEX
8
OBJECT__112
10
7.695000
20
8.413000
30
6.240000
70
192
0
VERTEX
8
OBJECT__112
10
0.917000
20
11.522000
30
6.316000
70
192
0
VERTEX
8
OBJECT__112
10
4.546000
20
10.456000
30
6.240000
70
192
0
VERTEX
8
OBJECT__112
10
-2.874000
20
11.196000
30
6.316000
70
192
0
VERTEX
8
OBJECT__112
10
0.905000
20
11.366000
30
6.240000
70
192
0
VERTEX
8
OBJECT__112
10
-2.835000
20
11.044000
30
6.240000
70
192
0
VERTEX
8
OBJECT__112
10
-6.267000
20
9.525000
30
6.240000
70
192
0
VERTEX
8
OBJECT__112
10
-6.353000
20
9.656000
30
6.316000
70
192
0
VERTEX
8
OBJECT__112
10
-9.020000
20
6.974000
30
6.240000
70
192
0
VERTEX
8
OBJECT__112
10
-10.944000
20
3.718000
30
6.316000
70
192
0
VERTEX
8
OBJECT__112
10
-9.144000
20
7.070000
30
6.316000
70
192
0
VERTEX
8
OBJECT__112
10
-11.558000
20
-0.037000
30
6.316000
70
192
0
VERTEX
8
OBJECT__112
10
-10.796000
20
3.667000
30
6.240000
70
192
0
VERTEX
8
OBJECT__112
10
-10.920000
20
-3.788000
30
6.316000
70
192
0
VERTEX
8
OBJECT__112
10
-11.360000
20
-0.978000
30
6.240000
70
192
0
VERTEX
8
OBJECT__112
10
-11.402000
20
-0.037000
30
6.240000
70
192
0
VERTEX
8
OBJECT__112
10
-9.098000
20
-7.129000
30
6.316000
70
192
0
VERTEX
8
OBJECT__112
10
-10.772000
20
-3.737000
30
6.240000
70
192
0
VERTEX
8
OBJECT__112
10
-6.291000
20
-9.697000
30
6.316000
70
192
0
VERTEX
8
OBJECT__112
10
-8.975000
20
-7.032000
30
6.240000
70
192
0
VERTEX
8
OBJECT__112
10
-2.801000
20
-11.214000
30
6.316000
70
192
0
VERTEX
8
OBJECT__112
10
-6.205000
20
-9.565000
30
6.240000
70
192
0
VERTEX
8
OBJECT__112
10
-2.763000
20
-11.062000
30
6.240000
70
192
0
VERTEX
8
OBJECT__112
10
4.509000
20
-10.652000
30
6.486000
70
192
0
VERTEX
8
OBJECT__112
10
4.693000
20
-10.605000
30
6.486000
70
192
0
VERTEX
8
OBJECT__112
10
7.565000
20
-8.715000
30
6.486000
70
192
0
VERTEX
8
OBJECT__112
10
7.882000
20
-8.506000
30
6.486000
70
192
0
VERTEX
8
OBJECT__112
10
9.868000
20
-5.937000
30
6.486000
70
192
0
VERTEX
8
OBJECT__112
10
10.217000
20
-5.486000
30
6.486000
70
192
0
VERTEX
8
OBJECT__112
10
11.200000
20
-2.591000
30
6.486000
70
192
0
VERTEX
8
OBJECT__112
10
11.444000
20
-1.872000
30
6.486000
70
192
0
VERTEX
8
OBJECT__112
10
11.435000
20
0.995000
30
6.486000
70
192
0
VERTEX
8
OBJECT__112
10
11.432000
20
1.946000
30
6.486000
70
192
0
VERTEX
8
OBJECT__112
10
10.555000
20
4.473000
30
6.486000
70
192
0
VERTEX
8
OBJECT__112
10
10.181000
20
5.552000
30
6.486000
70
192
0
VERTEX
8
OBJECT__112
10
8.649000
20
7.507000
30
6.486000
70
192
0
VERTEX
8
OBJECT__112
10
7.826000
20
8.557000
30
6.486000
70
192
0
VERTEX
8
OBJECT__112
10
5.903000
20
9.805000
30
6.486000
70
192
0
VERTEX
8
OBJECT__112
10
4.624000
20
10.635000
30
6.486000
70
192
0
VERTEX
8
OBJECT__112
10
2.586000
20
11.144000
30
6.486000
70
192
0
VERTEX
8
OBJECT__112
10
0.920000
20
11.560000
30
6.486000
70
192
0
VERTEX
8
OBJECT__112
10
-0.981000
20
11.396000
30
6.486000
70
192
0
VERTEX
8
OBJECT__112
10
-2.883000
20
11.232000
30
6.486000
70
192
0
VERTEX
8
OBJECT__112
10
-6.374000
20
9.688000
30
6.486000
70
192
0
VERTEX
8
OBJECT__112
10
-4.453000
20
10.537000
30
6.486000
70
192
0
VERTEX
8
OBJECT__112
10
-9.174000
20
7.093000
30
6.486000
70
192
0
VERTEX
8
OBJECT__112
10
-7.493000
20
8.651000
30
6.486000
70
192
0
VERTEX
8
OBJECT__112
10
-10.980000
20
3.730000
30
6.486000
70
192
0
VERTEX
8
OBJECT__112
10
-9.805000
20
5.918000
30
6.486000
70
192
0
VERTEX
8
OBJECT__112
10
-11.596000
20
-0.038000
30
6.486000
70
192
0
VERTEX
8
OBJECT__112
10
-11.165000
20
2.603000
30
6.486000
70
192
0
VERTEX
8
OBJECT__112
10
-10.956000
20
-3.801000
30
6.486000
70
192
0
VERTEX
8
OBJECT__112
10
-11.554000
20
-0.995000
30
6.486000
70
192
0
VERTEX
8
OBJECT__112
10
-9.128000
20
-7.152000
30
6.486000
70
192
0
VERTEX
8
OBJECT__112
10
-10.592000
20
-4.468000
30
6.486000
70
192
0
VERTEX
8
OBJECT__112
10
-6.311000
20
-9.729000
30
6.486000
70
192
0
VERTEX
8
OBJECT__112
10
-8.708000
20
-7.537000
30
6.486000
70
192
0
VERTEX
8
OBJECT__112
10
-2.810000
20
-11.251000
30
6.486000
70
192
0
VERTEX
8
OBJECT__112
10
-5.963000
20
-9.880000
30
6.486000
70
192
0
VERTEX
8
OBJECT__112
10
0.995000
20
-11.554000
30
6.486000
70
192
0
VERTEX
8
OBJECT__112
10
-2.622000
20
-11.266000
30
6.486000
70
192
0
VERTEX
8
OBJECT__112
10
0
20
0
30
0
70
128
71
1
72
2
73
3
0
VERTEX
8
OBJECT__112
10
0
20
0
30
0
70
128
71
4
72
1
73
5
0
VERTEX
8
OBJECT__112
10
0
20
0
30
0
70
128
71
6
72
4
73
7
0
VERTEX
8
OBJECT__112
10
0
20
0
30
0
70
128
71
6
72
8
73
9
0
VERTEX
8
OBJECT__112
10
0
20
0
30
0
70
128
71
10
72
9
73
11
0
VERTEX
8
OBJECT__112
10
0
20
0
30
0
70
128
71
12
72
13
73
11
0
VERTEX
8
OBJECT__112
10
0
20
0
30
0
70
128
71
14
72
12
73
15
0
VERTEX
8
OBJECT__112
10
0
20
0
30
0
70
128
71
16
72
14
73
17
0
VERTEX
8
OBJECT__112
10
0
20
0
30
0
70
128
71
18
72
16
73
19
0
VERTEX
8
OBJECT__112
10
0
20
0
30
0
70
128
71
20
72
18
73
21
0
VERTEX
8
OBJECT__112
10
0
20
0
30
0
70
128
71
20
72
22
73
23
0
VERTEX
8
OBJECT__112
10
0
20
0
30
0
70
128
71
24
72
23
73
25
0
VERTEX
8
OBJECT__112
10
0
20
0
30
0
70
128
71
26
72
27
73
25
0
VERTEX
8
OBJECT__112
10
0
20
0
30
0
70
128
71
28
72
26
73
29
0
VERTEX
8
OBJECT__112
10
0
20
0
30
0
70
128
71
30
72
28
73
31
0
VERTEX
8
OBJECT__112
10
0
20
0
30
0
70
128
71
28
72
32
73
31
0
VERTEX
8
OBJECT__112
10
0
20
0
30
0
70
128
71
33
72
30
73
34
0
VERTEX
8
OBJECT__112
10
0
20
0
30
0
70
128
71
35
72
33
73
36
0
VERTEX
8
OBJECT__112
10
0
20
0
30
0
70
128
71
37
72
35
73
38
0
VERTEX
8
OBJECT__112
10
0
20
0
30
0
70
128
71
37
72
39
73
3
0
VERTEX
8
OBJECT__112
10
0
20
0
30
0
70
128
71
2
72
1
73
40
0
VERTEX
8
OBJECT__112
10
0
20
0
30
0
70
128
71
1
72
41
73
40
0
VERTEX
8
OBJECT__112
10
0
20
0
30
0
70
128
71
1
72
4
73
42
0
VERTEX
8
OBJECT__112
10
0
20
0
30
0
70
128
71
4
72
43
73
42
0
VERTEX
8
OBJECT__112
10
0
20
0
30
0
70
128
71
4
72
6
73
44
0
VERTEX
8
OBJECT__112
10
0
20
0
30
0
70
128
71
6
72
45
73
44
0
VERTEX
8
OBJECT__112
10
0
20
0
30
0
70
128
71
6
72
10
73
46
0
VERTEX
8
OBJECT__112
10
0
20
0
30
0
70
128
71
10
72
47
73
46
0
VERTEX
8
OBJECT__112
10
0
20
0
30
0
70
128
71
10
72
13
73
48
0
VERTEX
8
OBJECT__112
10
0
20
0
30
0
70
128
71
13
72
49
73
48
0
VERTEX
8
OBJECT__112
10
0
20
0
30
0
70
128
71
13
72
12
73
50
0
VERTEX
8
OBJECT__112
10
0
20
0
30
0
70
128
71
12
72
51
73
50
0
VERTEX
8
OBJECT__112
10
0
20
0
30
0
70
128
71
12
72
14
73
52
0
VERTEX
8
OBJECT__112
10
0
20
0
30
0
70
128
71
14
72
53
73
52
0
VERTEX
8
OBJECT__112
10
0
20
0
30
0
70
128
71
14
72
16
73
54
0
VERTEX
8
OBJECT__112
10
0
20
0
30
0
70
128
71
16
72
55
73
54
0
VERTEX
8
OBJECT__112
10
0
20
0
30
0
70
128
71
16
72
18
73
56
0
VERTEX
8
OBJECT__112
10
0
20
0
30
0
70
128
71
18
72
57
73
56
0
VERTEX
8
OBJECT__112
10
0
20
0
30
0
70
128
71
18
72
20
73
58
0
VERTEX
8
OBJECT__112
10
0
20
0
30
0
70
128
71
20
72
59
73
58
0
VERTEX
8
OBJECT__112
10
0
20
0
30
0
70
128
71
24
72
60
73
61
0
VERTEX
8
OBJECT__112
10
0
20
0
30
0
70
128
71
61
72
20
73
24
0
VERTEX
8
OBJECT__112
10
0
20
0
30
0
70
128
71
27
72
62
73
63
0
VERTEX
8
OBJECT__112
10
0
20
0
30
0
70
128
71
63
72
24
73
27
0
VERTEX
8
OBJECT__112
10
0
20
0
30
0
70
128
71
26
72
64
73
65
0
VERTEX
8
OBJECT__112
10
0
20
0
30
0
70
128
71
65
72
27
73
26
0
VERTEX
8
OBJECT__112
10
0
20
0
30
0
70
128
71
28
72
66
73
67
0
VERTEX
8
OBJECT__112
10
0
20
0
30
0
70
128
71
67
72
26
73
28
0
VERTEX
8
OBJECT__112
10
0
20
0
30
0
70
128
71
30
72
68
73
69
0
VERTEX
8
OBJECT__112
10
0
20
0
30
0
70
128
71
69
72
28
73
30
0
VERTEX
8
OBJECT__112
10
0
20
0
30
0
70
128
71
33
72
70
73
71
0
VERTEX
8
OBJECT__112
10
0
20
0
30
0
70
128
71
71
72
30
73
33
0
VERTEX
8
OBJECT__112
10
0
20
0
30
0
70
128
71
35
72
72
73
73
0
VERTEX
8
OBJECT__112
10
0
20
0
30
0
70
128
71
73
72
33
73
35
0
VERTEX
8
OBJECT__112
10
0
20
0
30
0
70
128
71
37
72
74
73
75
0
VERTEX
8
OBJECT__112
10
0
20
0
30
0
70
128
71
75
72
35
73
37
0
VERTEX
8
OBJECT__112
10
0
20
0
30
0
70
128
71
2
72
76
73
77
0
VERTEX
8
OBJECT__112
10
0
20
0
30
0
70
128
71
77
72
37
73
2
0
VERTEX
8
OBJECT__112
10
0
20
0
30
0
70
128
71
77
72
74
73
37
0
VERTEX
8
OBJECT__112
10
0
20
0
30
0
70
128
71
75
72
72
73
35
0
VERTEX
8
OBJECT__112
10
0
20
0
30
0
70
128
71
73
72
70
73
33
0
VERTEX
8
OBJECT__112
10
0
20
0
30
0
70
128
71
71
72
68
73
30
0
VERTEX
8
OBJECT__112
10
0
20
0
30
0
70
128
71
69
72
66
73
28
0
VERTEX
8
OBJECT__112
10
0
20
0
30
0
70
128
71
67
72
64
73
26
0
VERTEX
8
OBJECT__112
10
0
20
0
30
0
70
128
71
65
72
62
73
27
0
VERTEX
8
OBJECT__112
10
0
20
0
30
0
70
128
71
63
72
60
73
24
0
VERTEX
8
OBJECT__112
10
0
20
0
30
0
70
128
71
61
72
59
73
20
0
VERTEX
8
OBJECT__112
10
0
20
0
30
0
70
128
71
58
72
57
73
18
0
VERTEX
8
OBJECT__112
10
0
20
0
30
0
70
128
71
56
72
55
73
16
0
VERTEX
8
OBJECT__112
10
0
20
0
30
0
70
128
71
54
72
53
73
14
0
VERTEX
8
OBJECT__112
10
0
20
0
30
0
70
128
71
52
72
51
73
12
0
VERTEX
8
OBJECT__112
10
0
20
0
30
0
70
128
71
50
72
49
73
13
0
VERTEX
8
OBJECT__112
10
0
20
0
30
0
70
128
71
48
72
47
73
10
0
VERTEX
8
OBJECT__112
10
0
20
0
30
0
70
128
71
46
72
45
73
6
0
VERTEX
8
OBJECT__112
10
0
20
0
30
0
70
128
71
44
72
43
73
4
0
VERTEX
8
OBJECT__112
10
0
20
0
30
0
70
128
71
42
72
41
73
1
0
VERTEX
8
OBJECT__112
10
0
20
0
30
0
70
128
71
40
72
76
73
2
0
VERTEX
8
OBJECT__112
10
0
20
0
30
0
70
128
71
3
72
2
73
37
0
VERTEX
8
OBJECT__112
10
0
20
0
30
0
70
128
71
38
72
39
73
37
0
VERTEX
8
OBJECT__112
10
0
20
0
30
0
70
128
71
36
72
38
73
35
0
VERTEX
8
OBJECT__112
10
0
20
0
30
0
70
128
71
34
72
36
73
33
0
VERTEX
8
OBJECT__112
10
0
20
0
30
0
70
128
71
31
72
34
73
30
0
VERTEX
8
OBJECT__112
10
0
20
0
30
0
70
128
71
29
72
32
73
28
0
VERTEX
8
OBJECT__112
10
0
20
0
30
0
70
128
71
25
72
29
73
26
0
VERTEX
8
OBJECT__112
10
0
20
0
30
0
70
128
71
25
72
27
73
24
0
VERTEX
8
OBJECT__112
10
0
20
0
30
0
70
128
71
23
72
24
73
20
0
VERTEX
8
OBJECT__112
10
0
20
0
30
0
70
128
71
21
72
22
73
20
0
VERTEX
8
OBJECT__112
10
0
20
0
30
0
70
128
71
19
72
21
73
18
0
VERTEX
8
OBJECT__112
10
0
20
0
30
0
70
128
71
17
72
19
73
16
0
VERTEX
8
OBJECT__112
10
0
20
0
30
0
70
128
71
15
72
17
73
14
0
VERTEX
8
OBJECT__112
10
0
20
0
30
0
70
128
71
11
72
15
73
12
0
VERTEX
8
OBJECT__112
10
0
20
0
30
0
70
128
71
11
72
13
73
10
0
VERTEX
8
OBJECT__112
10
0
20
0
30
0
70
128
71
9
72
10
73
6
0
VERTEX
8
OBJECT__112
10
0
20
0
30
0
70
128
71
7
72
8
73
6
0
VERTEX
8
OBJECT__112
10
0
20
0
30
0
70
128
71
5
72
7
73
4
0
VERTEX
8
OBJECT__112
10
0
20
0
30
0
70
128
71
3
72
5
73
1
0
SEQEND
8
OBJECT__112
0
POLYLINE
8
OBJECT__114
66
1
70
64
71
98
72
138
62
253
0
VERTEX
8
OBJECT__114
10
4.509000
20
-10.652000
30
6.486000
70
192
0
VERTEX
8
OBJECT__114
10
4.282000
20
-10.126000
30
11.439000
70
192
0
VERTEX
8
OBJECT__114
10
0.943000
20
-10.953000
30
11.439000
70
192
0
VERTEX
8
OBJECT__114
10
4.693000
20
-10.605000
30
6.486000
70
192
0
VERTEX
8
OBJECT__114
10
7.565000
20
-8.715000
30
6.486000
70
192
0
VERTEX
8
OBJECT__114
10
7.201000
20
-8.307000
30
11.439000
70
192
0
VERTEX
8
OBJECT__114
10
9.416000
20
-5.675000
30
11.439000
70
192
0
VERTEX
8
OBJECT__114
10
7.882000
20
-8.506000
30
6.486000
70
192
0
VERTEX
8
OBJECT__114
10
10.709000
20
-2.488000
30
11.439000
70
192
0
VERTEX
8
OBJECT__114
10
10.217000
20
-5.486000
30
6.486000
70
192
0
VERTEX
8
OBJECT__114
10
9.868000
20
-5.937000
30
6.486000
70
192
0
VERTEX
8
OBJECT__114
10
10.953000
20
0.943000
30
11.439000
70
192
0
VERTEX
8
OBJECT__114
10
11.444000
20
-1.872000
30
6.486000
70
192
0
VERTEX
8
OBJECT__114
10
11.200000
20
-2.591000
30
6.486000
70
192
0
VERTEX
8
OBJECT__114
10
10.126000
20
4.282000
30
11.439000
70
192
0
VERTEX
8
OBJECT__114
10
11.432000
20
1.946000
30
6.486000
70
192
0
VERTEX
8
OBJECT__114
10
11.435000
20
0.995000
30
6.486000
70
192
0
VERTEX
8
OBJECT__114
10
8.307000
20
7.201000
30
11.439000
70
192
0
VERTEX
8
OBJECT__114
10
10.181000
20
5.552000
30
6.486000
70
192
0
VERTEX
8
OBJECT__114
10
10.555000
20
4.473000
30
6.486000
70
192
0
VERTEX
8
OBJECT__114
10
5.675000
20
9.416000
30
11.439000
70
192
0
VERTEX
8
OBJECT__114
10
7.826000
20
8.557000
30
6.486000
70
192
0
VERTEX
8
OBJECT__114
10
8.649000
20
7.507000
30
6.486000
70
192
0
VERTEX
8
OBJECT__114
10
2.488000
20
10.709000
30
11.439000
70
192
0
VERTEX
8
OBJECT__114
10
4.624000
20
10.635000
30
6.486000
70
192
0
VERTEX
8
OBJECT__114
10
5.903000
20
9.805000
30
6.486000
70
192
0
VERTEX
8
OBJECT__114
10
-0.943000
20
10.953000
30
11.439000
70
192
0
VERTEX
8
OBJECT__114
10
0.920000
20
11.560000
30
6.486000
70
192
0
VERTEX
8
OBJECT__114
10
2.586000
20
11.144000
30
6.486000
70
192
0
VERTEX
8
OBJECT__114
10
-0.981000
20
11.396000
30
6.486000
70
192
0
VERTEX
8
OBJECT__114
10
-2.883000
20
11.232000
30
6.486000
70
192
0
VERTEX
8
OBJECT__114
10
-4.282000
20
10.126000
30
11.439000
70
192
0
VERTEX
8
OBJECT__114
10
-4.453000
20
10.537000
30
6.486000
70
192
0
VERTEX
8
OBJECT__114
10
-6.374000
20
9.688000
30
6.486000
70
192
0
VERTEX
8
OBJECT__114
10
-7.201000
20
8.307000
30
11.439000
70
192
0
VERTEX
8
OBJECT__114
10
-7.493000
20
8.651000
30
6.486000
70
192
0
VERTEX
8
OBJECT__114
10
-9.174000
20
7.093000
30
6.486000
70
192
0
VERTEX
8
OBJECT__114
10
-9.416000
20
5.675000
30
11.439000
70
192
0
VERTEX
8
OBJECT__114
10
-9.805000
20
5.918000
30
6.486000
70
192
0
VERTEX
8
OBJECT__114
10
-10.980000
20
3.730000
30
6.486000
70
192
0
VERTEX
8
OBJECT__114
10
-10.709000
20
2.488000
30
11.439000
70
192
0
VERTEX
8
OBJECT__114
10
-11.165000
20
2.603000
30
6.486000
70
192
0
VERTEX
8
OBJECT__114
10
-11.596000
20
-0.038000
30
6.486000
70
192
0
VERTEX
8
OBJECT__114
10
-10.953000
20
-0.943000
30
11.439000
70
192
0
VERTEX
8
OBJECT__114
10
-11.554000
20
-0.995000
30
6.486000
70
192
0
VERTEX
8
OBJECT__114
10
-10.956000
20
-3.801000
30
6.486000
70
192
0
VERTEX
8
OBJECT__114
10
-10.126000
20
-4.282000
30
11.439000
70
192
0
VERTEX
8
OBJECT__114
10
-10.592000
20
-4.468000
30
6.486000
70
192
0
VERTEX
8
OBJECT__114
10
-9.128000
20
-7.152000
30
6.486000
70
192
0
VERTEX
8
OBJECT__114
10
-8.307000
20
-7.201000
30
11.439000
70
192
0
VERTEX
8
OBJECT__114
10
-8.708000
20
-7.537000
30
6.486000
70
192
0
VERTEX
8
OBJECT__114
10
-6.311000
20
-9.729000
30
6.486000
70
192
0
VERTEX
8
OBJECT__114
10
-5.675000
20
-9.416000
30
11.439000
70
192
0
VERTEX
8
OBJECT__114
10
-2.810000
20
-11.251000
30
6.486000
70
192
0
VERTEX
8
OBJECT__114
10
-2.488000
20
-10.709000
30
11.439000
70
192
0
VERTEX
8
OBJECT__114
10
-5.963000
20
-9.880000
30
6.486000
70
192
0
VERTEX
8
OBJECT__114
10
-2.622000
20
-11.266000
30
6.486000
70
192
0
VERTEX
8
OBJECT__114
10
0.995000
20
-11.554000
30
6.486000
70
192
0
VERTEX
8
OBJECT__114
10
4.475000
20
-10.583000
30
16.403999
70
192
0
VERTEX
8
OBJECT__114
10
7.526000
20
-8.682000
30
16.403999
70
192
0
VERTEX
8
OBJECT__114
10
9.841000
20
-5.931000
30
16.403999
70
192
0
VERTEX
8
OBJECT__114
10
11.192000
20
-2.600000
30
16.403999
70
192
0
VERTEX
8
OBJECT__114
10
11.448000
20
0.986000
30
16.403999
70
192
0
VERTEX
8
OBJECT__114
10
10.583000
20
4.475000
30
16.403999
70
192
0
VERTEX
8
OBJECT__114
10
8.682000
20
7.526000
30
16.403999
70
192
0
VERTEX
8
OBJECT__114
10
5.931000
20
9.841000
30
16.403999
70
192
0
VERTEX
8
OBJECT__114
10
2.600000
20
11.192000
30
16.403999
70
192
0
VERTEX
8
OBJECT__114
10
-0.986000
20
11.448000
30
16.403999
70
192
0
VERTEX
8
OBJECT__114
10
-4.475000
20
10.583000
30
16.403999
70
192
0
VERTEX
8
OBJECT__114
10
-7.526000
20
8.682000
30
16.403999
70
192
0
VERTEX
8
OBJECT__114
10
-9.841000
20
5.931000
30
16.403999
70
192
0
VERTEX
8
OBJECT__114
10
-11.192000
20
2.600000
30
16.403999
70
192
0
VERTEX
8
OBJECT__114
10
-11.448000
20
-0.986000
30
16.403999
70
192
0
VERTEX
8
OBJECT__114
10
-10.583000
20
-4.475000
30
16.403999
70
192
0
VERTEX
8
OBJECT__114
10
-8.682000
20
-7.526000
30
16.403999
70
192
0
VERTEX
8
OBJECT__114
10
-5.931000
20
-9.841000
30
16.403999
70
192
0
VERTEX
8
OBJECT__114
10
-2.600000
20
-11.192000
30
16.403999
70
192
0
VERTEX
8
OBJECT__114
10
0.986000
20
-11.448000
30
16.403999
70
192
0
VERTEX
8
OBJECT__114
10
5.087000
20
-12.029000
30
21.139999
70
192
0
VERTEX
8
OBJECT__114
10
1.121000
20
-13.012000
30
21.139999
70
192
0
VERTEX
8
OBJECT__114
10
8.555000
20
-9.868000
30
21.139999
70
192
0
VERTEX
8
OBJECT__114
10
11.186000
20
-6.742000
30
21.139999
70
192
0
VERTEX
8
OBJECT__114
10
12.722000
20
-2.955000
30
21.139999
70
192
0
VERTEX
8
OBJECT__114
10
12.029000
20
5.087000
30
21.139999
70
192
0
VERTEX
8
OBJECT__114
10
13.012000
20
1.121000
30
21.139999
70
192
0
VERTEX
8
OBJECT__114
10
9.868000
20
8.555000
30
21.139999
70
192
0
VERTEX
8
OBJECT__114
10
6.742000
20
11.186000
30
21.139999
70
192
0
VERTEX
8
OBJECT__114
10
2.955000
20
12.722000
30
21.139999
70
192
0
VERTEX
8
OBJECT__114
10
-1.121000
20
13.012000
30
21.139999
70
192
0
VERTEX
8
OBJECT__114
10
-5.087000
20
12.029000
30
21.139999
70
192
0
VERTEX
8
OBJECT__114
10
-8.555000
20
9.868000
30
21.139999
70
192
0
VERTEX
8
OBJECT__114
10
-11.186000
20
6.742000
30
21.139999
70
192
0
VERTEX
8
OBJECT__114
10
-12.722000
20
2.955000
30
21.139999
70
192
0
VERTEX
8
OBJECT__114
10
-12.029000
20
-5.087000
30
21.139999
70
192
0
VERTEX
8
OBJECT__114
10
-13.012000
20
-1.121000
30
21.139999
70
192
0
VERTEX
8
OBJECT__114
10
-9.868000
20
-8.555000
30
21.139999
70
192
0
VERTEX
8
OBJECT__114
10
-2.955000
20
-12.722000
30
21.139999
70
192
0
VERTEX
8
OBJECT__114
10
-6.742000
20
-11.186000
30
21.139999
70
192
0
VERTEX
8
OBJECT__114
10
0
20
0
30
0
70
128
71
1
72
2
73
3
0
VERTEX
8
OBJECT__114
10
0
20
0
30
0
70
128
71
4
72
5
73
6
0
VERTEX
8
OBJECT__114
10
0
20
0
30
0
70
128
71
2
72
1
73
4
0
VERTEX
8
OBJECT__114
10
0
20
0
30
0
70
128
71
7
72
6
73
8
0
VERTEX
8
OBJECT__114
10
0
20
0
30
0
70
128
71
6
72
5
73
8
0
VERTEX
8
OBJECT__114
10
0
20
0
30
0
70
128
71
9
72
7
73
10
0
VERTEX
8
OBJECT__114
10
0
20
0
30
0
70
128
71
7
72
11
73
10
0
VERTEX
8
OBJECT__114
10
0
20
0
30
0
70
128
71
12
72
9
73
13
0
VERTEX
8
OBJECT__114
10
0
20
0
30
0
70
128
71
9
72
14
73
13
0
VERTEX
8
OBJECT__114
10
0
20
0
30
0
70
128
71
15
72
12
73
16
0
VERTEX
8
OBJECT__114
10
0
20
0
30
0
70
128
71
12
72
17
73
16
0
VERTEX
8
OBJECT__114
10
0
20
0
30
0
70
128
71
18
72
15
73
19
0
VERTEX
8
OBJECT__114
10
0
20
0
30
0
70
128
71
15
72
20
73
19
0
VERTEX
8
OBJECT__114
10
0
20
0
30
0
70
128
71
21
72
18
73
22
0
VERTEX
8
OBJECT__114
10
0
20
0
30
0
70
128
71
18
72
23
73
22
0
VERTEX
8
OBJECT__114
10
0
20
0
30
0
70
128
71
24
72
21
73
25
0
VERTEX
8
OBJECT__114
10
0
20
0
30
0
70
128
71
21
72
26
73
25
0
VERTEX
8
OBJECT__114
10
0
20
0
30
0
70
128
71
27
72
24
73
28
0
VERTEX
8
OBJECT__114
10
0
20
0
30
0
70
128
71
24
72
29
73
28
0
VERTEX
8
OBJECT__114
10
0
20
0
30
0
70
128
71
27
72
30
73
31
0
VERTEX
8
OBJECT__114
10
0
20
0
30
0
70
128
71
31
72
32
73
27
0
VERTEX
8
OBJECT__114
10
0
20
0
30
0
70
128
71
32
72
33
73
34
0
VERTEX
8
OBJECT__114
10
0
20
0
30
0
70
128
71
34
72
35
73
32
0
VERTEX
8
OBJECT__114
10
0
20
0
30
0
70
128
71
35
72
36
73
37
0
VERTEX
8
OBJECT__114
10
0
20
0
30
0
70
128
71
37
72
38
73
35
0
VERTEX
8
OBJECT__114
10
0
20
0
30
0
70
128
71
38
72
39
73
40
0
VERTEX
8
OBJECT__114
10
0
20
0
30
0
70
128
71
40
72
41
73
38
0
VERTEX
8
OBJECT__114
10
0
20
0
30
0
70
128
71
41
72
42
73
43
0
VERTEX
8
OBJECT__114
10
0
20
0
30
0
70
128
71
43
72
44
73
41
0
VERTEX
8
OBJECT__114
10
0
20
0
30
0
70
128
71
44
72
45
73
46
0
VERTEX
8
OBJECT__114
10
0
20
0
30
0
70
128
71
46
72
47
73
44
0
VERTEX
8
OBJECT__114
10
0
20
0
30
0
70
128
71
47
72
48
73
49
0
VERTEX
8
OBJECT__114
10
0
20
0
30
0
70
128
71
49
72
50
73
47
0
VERTEX
8
OBJECT__114
10
0
20
0
30
0
70
128
71
50
72
51
73
52
0
VERTEX
8
OBJECT__114
10
0
20
0
30
0
70
128
71
52
72
53
73
50
0
VERTEX
8
OBJECT__114
10
0
20
0
30
0
70
128
71
54
72
55
73
53
0
VERTEX
8
OBJECT__114
10
0
20
0
30
0
70
128
71
53
72
56
73
54
0
VERTEX
8
OBJECT__114
10
0
20
0
30
0
70
128
71
57
72
58
73
3
0
VERTEX
8
OBJECT__114
10
0
20
0
30
0
70
128
71
3
72
2
73
59
0
VERTEX
8
OBJECT__114
10
0
20
0
30
0
70
128
71
2
72
6
73
60
0
VERTEX
8
OBJECT__114
10
0
20
0
30
0
70
128
71
6
72
7
73
61
0
VERTEX
8
OBJECT__114
10
0
20
0
30
0
70
128
71
7
72
9
73
62
0
VERTEX
8
OBJECT__114
10
0
20
0
30
0
70
128
71
9
72
12
73
63
0
VERTEX
8
OBJECT__114
10
0
20
0
30
0
70
128
71
12
72
15
73
64
0
VERTEX
8
OBJECT__114
10
0
20
0
30
0
70
128
71
15
72
18
73
65
0
VERTEX
8
OBJECT__114
10
0
20
0
30
0
70
128
71
18
72
21
73
66
0
VERTEX
8
OBJECT__114
10
0
20
0
30
0
70
128
71
21
72
24
73
67
0
VERTEX
8
OBJECT__114
10
0
20
0
30
0
70
128
71
24
72
27
73
68
0
VERTEX
8
OBJECT__114
10
0
20
0
30
0
70
128
71
27
72
32
73
69
0
VERTEX
8
OBJECT__114
10
0
20
0
30
0
70
128
71
32
72
35
73
70
0
VERTEX
8
OBJECT__114
10
0
20
0
30
0
70
128
71
35
72
38
73
71
0
VERTEX
8
OBJECT__114
10
0
20
0
30
0
70
128
71
38
72
41
73
72
0
VERTEX
8
OBJECT__114
10
0
20
0
30
0
70
128
71
41
72
44
73
73
0
VERTEX
8
OBJECT__114
10
0
20
0
30
0
70
128
71
44
72
47
73
74
0
VERTEX
8
OBJECT__114
10
0
20
0
30
0
70
128
71
47
72
50
73
75
0
VERTEX
8
OBJECT__114
10
0
20
0
30
0
70
128
71
50
72
53
73
76
0
VERTEX
8
OBJECT__114
10
0
20
0
30
0
70
128
71
53
72
55
73
77
0
VERTEX
8
OBJECT__114
10
0
20
0
30
0
70
128
71
55
72
3
73
78
0
VERTEX
8
OBJECT__114
10
0
20
0
30
0
70
128
71
79
72
80
73
78
0
VERTEX
8
OBJECT__114
10
0
20
0
30
0
70
128
71
81
72
79
73
59
0
VERTEX
8
OBJECT__114
10
0
20
0
30
0
70
128
71
81
72
60
73
61
0
VERTEX
8
OBJECT__114
10
0
20
0
30
0
70
128
71
82
72
61
73
62
0
VERTEX
8
OBJECT__114
10
0
20
0
30
0
70
128
71
83
72
62
73
63
0
VERTEX
8
OBJECT__114
10
0
20
0
30
0
70
128
71
84
72
85
73
63
0
VERTEX
8
OBJECT__114
10
0
20
0
30
0
70
128
71
86
72
84
73
64
0
VERTEX
8
OBJECT__114
10
0
20
0
30
0
70
128
71
87
72
86
73
65
0
VERTEX
8
OBJECT__114
10
0
20
0
30
0
70
128
71
88
72
87
73
66
0
VERTEX
8
OBJECT__114
10
0
20
0
30
0
70
128
71
89
72
88
73
67
0
VERTEX
8
OBJECT__114
10
0
20
0
30
0
70
128
71
90
72
89
73
68
0
VERTEX
8
OBJECT__114
10
0
20
0
30
0
70
128
71
91
72
90
73
69
0
VERTEX
8
OBJECT__114
10
0
20
0
30
0
70
128
71
91
72
70
73
71
0
VERTEX
8
OBJECT__114
10
0
20
0
30
0
70
128
71
92
72
71
73
72
0
VERTEX
8
OBJECT__114
10
0
20
0
30
0
70
128
71
93
72
72
73
73
0
VERTEX
8
OBJECT__114
10
0
20
0
30
0
70
128
71
94
72
95
73
73
0
VERTEX
8
OBJECT__114
10
0
20
0
30
0
70
128
71
96
72
94
73
74
0
VERTEX
8
OBJECT__114
10
0
20
0
30
0
70
128
71
96
72
75
73
76
0
VERTEX
8
OBJECT__114
10
0
20
0
30
0
70
128
71
97
72
98
73
76
0
VERTEX
8
OBJECT__114
10
0
20
0
30
0
70
128
71
97
72
77
73
78
0
VERTEX
8
OBJECT__114
10
0
20
0
30
0
70
128
71
78
72
80
73
97
0
VERTEX
8
OBJECT__114
10
0
20
0
30
0
70
128
71
76
72
77
73
97
0
VERTEX
8
OBJECT__114
10
0
20
0
30
0
70
128
71
76
72
98
73
96
0
VERTEX
8
OBJECT__114
10
0
20
0
30
0
70
128
71
74
72
75
73
96
0
VERTEX
8
OBJECT__114
10
0
20
0
30
0
70
128
71
73
72
74
73
94
0
VERTEX
8
OBJECT__114
10
0
20
0
30
0
70
128
71
73
72
95
73
93
0
VERTEX
8
OBJECT__114
10
0
20
0
30
0
70
128
71
72
72
93
73
92
0
VERTEX
8
OBJECT__114
10
0
20
0
30
0
70
128
71
71
72
92
73
91
0
VERTEX
8
OBJECT__114
10
0
20
0
30
0
70
128
71
69
72
70
73
91
0
VERTEX
8
OBJECT__114
10
0
20
0
30
0
70
128
71
68
72
69
73
90
0
VERTEX
8
OBJECT__114
10
0
20
0
30
0
70
128
71
67
72
68
73
89
0
VERTEX
8
OBJECT__114
10
0
20
0
30
0
70
128
71
66
72
67
73
88
0
VERTEX
8
OBJECT__114
10
0
20
0
30
0
70
128
71
65
72
66
73
87
0
VERTEX
8
OBJECT__114
10
0
20
0
30
0
70
128
71
64
72
65
73
86
0
VERTEX
8
OBJECT__114
10
0
20
0
30
0
70
128
71
63
72
64
73
84
0
VERTEX
8
OBJECT__114
10
0
20
0
30
0
70
128
71
63
72
85
73
83
0
VERTEX
8
OBJECT__114
10
0
20
0
30
0
70
128
71
62
72
83
73
82
0
VERTEX
8
OBJECT__114
10
0
20
0
30
0
70
128
71
61
72
82
73
81
0
VERTEX
8
OBJECT__114
10
0
20
0
30
0
70
128
71
59
72
60
73
81
0
VERTEX
8
OBJECT__114
10
0
20
0
30
0
70
128
71
78
72
59
73
79
0
VERTEX
8
OBJECT__114
10
0
20
0
30
0
70
128
71
78
72
77
73
55
0
VERTEX
8
OBJECT__114
10
0
20
0
30
0
70
128
71
77
72
76
73
53
0
VERTEX
8
OBJECT__114
10
0
20
0
30
0
70
128
71
76
72
75
73
50
0
VERTEX
8
OBJECT__114
10
0
20
0
30
0
70
128
71
75
72
74
73
47
0
VERTEX
8
OBJECT__114
10
0
20
0
30
0
70
128
71
74
72
73
73
44
0
VERTEX
8
OBJECT__114
10
0
20
0
30
0
70
128
71
73
72
72
73
41
0
VERTEX
8
OBJECT__114
10
0
20
0
30
0
70
128
71
72
72
71
73
38
0
VERTEX
8
OBJECT__114
10
0
20
0
30
0
70
128
71
71
72
70
73
35
0
VERTEX
8
OBJECT__114
10
0
20
0
30
0
70
128
71
70
72
69
73
32
0
VERTEX
8
OBJECT__114
10
0
20
0
30
0
70
128
71
69
72
68
73
27
0
VERTEX
8
OBJECT__114
10
0
20
0
30
0
70
128
71
68
72
67
73
24
0
VERTEX
8
OBJECT__114
10
0
20
0
30
0
70
128
71
67
72
66
73
21
0
VERTEX
8
OBJECT__114
10
0
20
0
30
0
70
128
71
66
72
65
73
18
0
VERTEX
8
OBJECT__114
10
0
20
0
30
0
70
128
71
65
72
64
73
15
0
VERTEX
8
OBJECT__114
10
0
20
0
30
0
70
128
71
64
72
63
73
12
0
VERTEX
8
OBJECT__114
10
0
20
0
30
0
70
128
71
63
72
62
73
9
0
VERTEX
8
OBJECT__114
10
0
20
0
30
0
70
128
71
62
72
61
73
7
0
VERTEX
8
OBJECT__114
10
0
20
0
30
0
70
128
71
61
72
60
73
6
0
VERTEX
8
OBJECT__114
10
0
20
0
30
0
70
128
71
60
72
59
73
2
0
VERTEX
8
OBJECT__114
10
0
20
0
30
0
70
128
71
59
72
78
73
3
0
VERTEX
8
OBJECT__114
10
0
20
0
30
0
70
128
71
3
72
55
73
57
0
VERTEX
8
OBJECT__114
10
0
20
0
30
0
70
128
71
54
72
57
73
55
0
VERTEX
8
OBJECT__114
10
0
20
0
30
0
70
128
71
52
72
56
73
53
0
VERTEX
8
OBJECT__114
10
0
20
0
30
0
70
128
71
49
72
51
73
50
0
VERTEX
8
OBJECT__114
10
0
20
0
30
0
70
128
71
46
72
48
73
47
0
VERTEX
8
OBJECT__114
10
0
20
0
30
0
70
128
71
43
72
45
73
44
0
VERTEX
8
OBJECT__114
10
0
20
0
30
0
70
128
71
40
72
42
73
41
0
VERTEX
8
OBJECT__114
10
0
20
0
30
0
70
128
71
37
72
39
73
38
0
VERTEX
8
OBJECT__114
10
0
20
0
30
0
70
128
71
34
72
36
73
35
0
VERTEX
8
OBJECT__114
10
0
20
0
30
0
70
128
71
31
72
33
73
32
0
VERTEX
8
OBJECT__114
10
0
20
0
30
0
70
128
71
28
72
30
73
27
0
VERTEX
8
OBJECT__114
10
0
20
0
30
0
70
128
71
25
72
29
73
24
0
VERTEX
8
OBJECT__114
10
0
20
0
30
0
70
128
71
22
72
26
73
21
0
VERTEX
8
OBJECT__114
10
0
20
0
30
0
70
128
71
19
72
23
73
18
0
VERTEX
8
OBJECT__114
10
0
20
0
30
0
70
128
71
16
72
20
73
15
0
VERTEX
8
OBJECT__114
10
0
20
0
30
0
70
128
71
13
72
17
73
12
0
VERTEX
8
OBJECT__114
10
0
20
0
30
0
70
128
71
10
72
14
73
9
0
VERTEX
8
OBJECT__114
10
0
20
0
30
0
70
128
71
8
72
11
73
7
0
VERTEX
8
OBJECT__114
10
0
20
0
30
0
70
128
71
6
72
2
73
4
0
VERTEX
8
OBJECT__114
10
0
20
0
30
0
70
128
71
3
72
58
73
1
0
SEQEND
8
OBJECT__114
0
POLYLINE
8
OBJECT__115
66
1
70
64
71
78
72
98
62
253
0
VERTEX
8
OBJECT__115
10
5.092000
20
-12.041000
30
21.695000
70
192
0
VERTEX
8
OBJECT__115
10
1.122000
20
-13.025000
30
21.695000
70
192
0
VERTEX
8
OBJECT__115
10
1.121000
20
-13.012000
30
21.139999
70
192
0
VERTEX
8
OBJECT__115
10
8.563000
20
-9.878000
30
21.695000
70
192
0
VERTEX
8
OBJECT__115
10
5.087000
20
-12.029000
30
21.139999
70
192
0
VERTEX
8
OBJECT__115
10
11.197000
20
-6.748000
30
21.695000
70
192
0
VERTEX
8
OBJECT__115
10
8.555000
20
-9.868000
30
21.139999
70
192
0
VERTEX
8
OBJECT__115
10
12.734000
20
-2.958000
30
21.695000
70
192
0
VERTEX
8
OBJECT__115
10
11.186000
20
-6.742000
30
21.139999
70
192
0
VERTEX
8
OBJECT__115
10
13.025000
20
1.122000
30
21.695000
70
192
0
VERTEX
8
OBJECT__115
10
12.722000
20
-2.955000
30
21.139999
70
192
0
VERTEX
8
OBJECT__115
10
13.012000
20
1.121000
30
21.139999
70
192
0
VERTEX
8
OBJECT__115
10
12.029000
20
5.087000
30
21.139999
70
192
0
VERTEX
8
OBJECT__115
10
9.878000
20
8.563000
30
21.695000
70
192
0
VERTEX
8
OBJECT__115
10
12.041000
20
5.092000
30
21.695000
70
192
0
VERTEX
8
OBJECT__115
10
6.748000
20
11.197000
30
21.695000
70
192
0
VERTEX
8
OBJECT__115
10
9.868000
20
8.555000
30
21.139999
70
192
0
VERTEX
8
OBJECT__115
10
2.958000
20
12.734000
30
21.695000
70
192
0
VERTEX
8
OBJECT__115
10
6.742000
20
11.186000
30
21.139999
70
192
0
VERTEX
8
OBJECT__115
10
-1.122000
20
13.025000
30
21.695000
70
192
0
VERTEX
8
OBJECT__115
10
2.955000
20
12.722000
30
21.139999
70
192
0
VERTEX
8
OBJECT__115
10
-5.092000
20
12.041000
30
21.695000
70
192
0
VERTEX
8
OBJECT__115
10
-1.121000
20
13.012000
30
21.139999
70
192
0
VERTEX
8
OBJECT__115
10
-8.563000
20
9.878000
30
21.695000
70
192
0
VERTEX
8
OBJECT__115
10
-5.087000
20
12.029000
30
21.139999
70
192
0
VERTEX
8
OBJECT__115
10
-11.197000
20
6.748000
30
21.695000
70
192
0
VERTEX
8
OBJECT__115
10
-8.555000
20
9.868000
30
21.139999
70
192
0
VERTEX
8
OBJECT__115
10
-12.734000
20
2.958000
30
21.695000
70
192
0
VERTEX
8
OBJECT__115
10
-11.186000
20
6.742000
30
21.139999
70
192
0
VERTEX
8
OBJECT__115
10
-13.025000
20
-1.122000
30
21.695000
70
192
0
VERTEX
8
OBJECT__115
10
-12.722000
20
2.955000
30
21.139999
70
192
0
VERTEX
8
OBJECT__115
10
-13.012000
20
-1.121000
30
21.139999
70
192
0
VERTEX
8
OBJECT__115
10
-12.029000
20
-5.087000
30
21.139999
70
192
0
VERTEX
8
OBJECT__115
10
-12.041000
20
-5.092000
30
21.695000
70
192
0
VERTEX
8
OBJECT__115
10
-9.868000
20
-8.555000
30
21.139999
70
192
0
VERTEX
8
OBJECT__115
10
-9.878000
20
-8.563000
30
21.695000
70
192
0
VERTEX
8
OBJECT__115
10
-6.742000
20
-11.186000
30
21.139999
70
192
0
VERTEX
8
OBJECT__115
10
-6.748000
20
-11.197000
30
21.695000
70
192
0
VERTEX
8
OBJECT__115
10
-2.955000
20
-12.722000
30
21.139999
70
192
0
VERTEX
8
OBJECT__115
10
-2.958000
20
-12.734000
30
21.695000
70
192
0
VERTEX
8
OBJECT__115
10
4.938000
20
-11.677000
30
22.084000
70
192
0
VERTEX
8
OBJECT__115
10
2.098000
20
-12.381000
30
22.084000
70
192
0
VERTEX
8
OBJECT__115
10
8.304000
20
-9.579000
30
22.084000
70
192
0
VERTEX
8
OBJECT__115
10
5.999000
20
-11.016000
30
22.084000
70
192
0
VERTEX
8
OBJECT__115
10
10.858000
20
-6.544000
30
22.084000
70
192
0
VERTEX
8
OBJECT__115
10
9.244000
20
-8.463000
30
22.084000
70
192
0
VERTEX
8
OBJECT__115
10
12.349000
20
-2.869000
30
22.084000
70
192
0
VERTEX
8
OBJECT__115
10
11.485000
20
-4.998000
30
22.084000
70
192
0
VERTEX
8
OBJECT__115
10
12.631000
20
1.088000
30
22.084000
70
192
0
VERTEX
8
OBJECT__115
10
12.482000
20
-0.995000
30
22.084000
70
192
0
VERTEX
8
OBJECT__115
10
12.129000
20
3.114000
30
22.084000
70
192
0
VERTEX
8
OBJECT__115
10
11.677000
20
4.938000
30
22.084000
70
192
0
VERTEX
8
OBJECT__115
10
10.462000
20
6.888000
30
22.084000
70
192
0
VERTEX
8
OBJECT__115
10
9.579000
20
8.304000
30
22.084000
70
192
0
VERTEX
8
OBJECT__115
10
7.661000
20
9.918000
30
22.084000
70
192
0
VERTEX
8
OBJECT__115
10
6.544000
20
10.858000
30
22.084000
70
192
0
VERTEX
8
OBJECT__115
10
4.027000
20
11.879000
30
22.084000
70
192
0
VERTEX
8
OBJECT__115
10
2.869000
20
12.349000
30
22.084000
70
192
0
VERTEX
8
OBJECT__115
10
-0.050000
20
12.557000
30
22.084000
70
192
0
VERTEX
8
OBJECT__115
10
-1.088000
20
12.631000
30
22.084000
70
192
0
VERTEX
8
OBJECT__115
10
-4.130000
20
11.877000
30
22.084000
70
192
0
VERTEX
8
OBJECT__115
10
-4.938000
20
11.677000
30
22.084000
70
192
0
VERTEX
8
OBJECT__115
10
-7.775000
20
9.909000
30
22.084000
70
192
0
VERTEX
8
OBJECT__115
10
-8.304000
20
9.579000
30
22.084000
70
192
0
VERTEX
8
OBJECT__115
10
-10.591000
20
6.862000
30
22.084000
70
192
0
VERTEX
8
OBJECT__115
10
-10.858000
20
6.544000
30
22.084000
70
192
0
VERTEX
8
OBJECT__115
10
-12.271000
20
3.061000
30
22.084000
70
192
0
VERTEX
8
OBJECT__115
10
-12.349000
20
2.869000
30
22.084000
70
192
0
VERTEX
8
OBJECT__115
10
-12.631000
20
-1.088000
30
22.084000
70
192
0
VERTEX
8
OBJECT__115
10
-11.677000
20
-4.938000
30
22.084000
70
192
0
VERTEX
8
OBJECT__115
10
-9.579000
20
-8.304000
30
22.084000
70
192
0
VERTEX
8
OBJECT__115
10
-11.567000
20
-5.114000
30
22.084000
70
192
0
VERTEX
8
OBJECT__115
10
-6.544000
20
-10.858000
30
22.084000
70
192
0
VERTEX
8
OBJECT__115
10
-9.262000
20
-8.572000
30
22.084000
70
192
0
VERTEX
8
OBJECT__115
10
-2.869000
20
-12.349000
30
22.084000
70
192
0
VERTEX
8
OBJECT__115
10
-5.967000
20
-11.092000
30
22.084000
70
192
0
VERTEX
8
OBJECT__115
10
1.088000
20
-12.631000
30
22.084000
70
192
0
VERTEX
8
OBJECT__115
10
-2.039000
20
-12.408000
30
22.084000
70
192
0
VERTEX
8
OBJECT__115
10
0
20
0
30
0
70
128
71
1
72
2
73
3
0
VERTEX
8
OBJECT__115
10
0
20
0
30
0
70
128
71
4
72
1
73
5
0
VERTEX
8
OBJECT__115
10
0
20
0
30
0
70
128
71
6
72
4
73
7
0
VERTEX
8
OBJECT__115
10
0
20
0
30
0
70
128
71
8
72
6
73
9
0
VERTEX
8
OBJECT__115
10
0
20
0
30
0
70
128
71
10
72
8
73
11
0
VERTEX
8
OBJECT__115
10
0
20
0
30
0
70
128
71
10
72
12
73
13
0
VERTEX
8
OBJECT__115
10
0
20
0
30
0
70
128
71
14
72
15
73
13
0
VERTEX
8
OBJECT__115
10
0
20
0
30
0
70
128
71
16
72
14
73
17
0
VERTEX
8
OBJECT__115
10
0
20
0
30
0
70
128
71
18
72
16
73
19
0
VERTEX
8
OBJECT__115
10
0
20
0
30
0
70
128
71
20
72
18
73
21
0
VERTEX
8
OBJECT__115
10
0
20
0
30
0
70
128
71
22
72
20
73
23
0
VERTEX
8
OBJECT__115
10
0
20
0
30
0
70
128
71
24
72
22
73
25
0
VERTEX
8
OBJECT__115
10
0
20
0
30
0
70
128
71
26
72
24
73
27
0
VERTEX
8
OBJECT__115
10
0
20
0
30
0
70
128
71
28
72
26
73
29
0
VERTEX
8
OBJECT__115
10
0
20
0
30
0
70
128
71
30
72
28
73
31
0
VERTEX
8
OBJECT__115
10
0
20
0
30
0
70
128
71
30
72
32
73
33
0
VERTEX
8
OBJECT__115
10
0
20
0
30
0
70
128
71
34
72
33
73
35
0
VERTEX
8
OBJECT__115
10
0
20
0
30
0
70
128
71
36
72
35
73
37
0
VERTEX
8
OBJECT__115
10
0
20
0
30
0
70
128
71
38
72
37
73
39
0
VERTEX
8
OBJECT__115
10
0
20
0
30
0
70
128
71
40
72
39
73
3
0
VERTEX
8
OBJECT__115
10
0
20
0
30
0
70
128
71
1
72
41
73
42
0
VERTEX
8
OBJECT__115
10
0
20
0
30
0
70
128
71
42
72
2
73
1
0
VERTEX
8
OBJECT__115
10
0
20
0
30
0
70
128
71
4
72
43
73
44
0
VERTEX
8
OBJECT__115
10
0
20
0
30
0
70
128
71
44
72
1
73
4
0
VERTEX
8
OBJECT__115
10
0
20
0
30
0
70
128
71
6
72
45
73
46
0
VERTEX
8
OBJECT__115
10
0
20
0
30
0
70
128
71
46
72
4
73
6
0
VERTEX
8
OBJECT__115
10
0
20
0
30
0
70
128
71
8
72
47
73
48
0
VERTEX
8
OBJECT__115
10
0
20
0
30
0
70
128
71
48
72
6
73
8
0
VERTEX
8
OBJECT__115
10
0
20
0
30
0
70
128
71
10
72
49
73
50
0
VERTEX
8
OBJECT__115
10
0
20
0
30
0
70
128
71
50
72
8
73
10
0
VERTEX
8
OBJECT__115
10
0
20
0
30
0
70
128
71
10
72
15
73
51
0
VERTEX
8
OBJECT__115
10
0
20
0
30
0
70
128
71
15
72
52
73
51
0
VERTEX
8
OBJECT__115
10
0
20
0
30
0
70
128
71
15
72
14
73
53
0
VERTEX
8
OBJECT__115
10
0
20
0
30
0
70
128
71
14
72
54
73
53
0
VERTEX
8
OBJECT__115
10
0
20
0
30
0
70
128
71
14
72
16
73
55
0
VERTEX
8
OBJECT__115
10
0
20
0
30
0
70
128
71
16
72
56
73
55
0
VERTEX
8
OBJECT__115
10
0
20
0
30
0
70
128
71
16
72
18
73
57
0
VERTEX
8
OBJECT__115
10
0
20
0
30
0
70
128
71
18
72
58
73
57
0
VERTEX
8
OBJECT__115
10
0
20
0
30
0
70
128
71
18
72
20
73
59
0
VERTEX
8
OBJECT__115
10
0
20
0
30
0
70
128
71
20
72
60
73
59
0
VERTEX
8
OBJECT__115
10
0
20
0
30
0
70
128
71
20
72
22
73
61
0
VERTEX
8
OBJECT__115
10
0
20
0
30
0
70
128
71
22
72
62
73
61
0
VERTEX
8
OBJECT__115
10
0
20
0
30
0
70
128
71
22
72
24
73
63
0
VERTEX
8
OBJECT__115
10
0
20
0
30
0
70
128
71
24
72
64
73
63
0
VERTEX
8
OBJECT__115
10
0
20
0
30
0
70
128
71
24
72
26
73
65
0
VERTEX
8
OBJECT__115
10
0
20
0
30
0
70
128
71
26
72
66
73
65
0
VERTEX
8
OBJECT__115
10
0
20
0
30
0
70
128
71
26
72
28
73
67
0
VERTEX
8
OBJECT__115
10
0
20
0
30
0
70
128
71
28
72
68
73
67
0
VERTEX
8
OBJECT__115
10
0
20
0
30
0
70
128
71
28
72
30
73
69
0
VERTEX
8
OBJECT__115
10
0
20
0
30
0
70
128
71
34
72
70
73
69
0
VERTEX
8
OBJECT__115
10
0
20
0
30
0
70
128
71
36
72
71
73
72
0
VERTEX
8
OBJECT__115
10
0
20
0
30
0
70
128
71
72
72
34
73
36
0
VERTEX
8
OBJECT__115
10
0
20
0
30
0
70
128
71
38
72
73
73
74
0
VERTEX
8
OBJECT__115
10
0
20
0
30
0
70
128
71
74
72
36
73
38
0
VERTEX
8
OBJECT__115
10
0
20
0
30
0
70
128
71
40
72
75
73
76
0
VERTEX
8
OBJECT__115
10
0
20
0
30
0
70
128
71
76
72
38
73
40
0
VERTEX
8
OBJECT__115
10
0
20
0
30
0
70
128
71
2
72
77
73
78
0
VERTEX
8
OBJECT__115
10
0
20
0
30
0
70
128
71
78
72
40
73
2
0
VERTEX
8
OBJECT__115
10
0
20
0
30
0
70
128
71
78
72
75
73
40
0
VERTEX
8
OBJECT__115
10
0
20
0
30
0
70
128
71
76
72
73
73
38
0
VERTEX
8
OBJECT__115
10
0
20
0
30
0
70
128
71
74
72
71
73
36
0
VERTEX
8
OBJECT__115
10
0
20
0
30
0
70
128
71
72
72
70
73
34
0
VERTEX
8
OBJECT__115
10
0
20
0
30
0
70
128
71
69
72
30
73
34
0
VERTEX
8
OBJECT__115
10
0
20
0
30
0
70
128
71
69
72
68
73
28
0
VERTEX
8
OBJECT__115
10
0
20
0
30
0
70
128
71
67
72
66
73
26
0
VERTEX
8
OBJECT__115
10
0
20
0
30
0
70
128
71
65
72
64
73
24
0
VERTEX
8
OBJECT__115
10
0
20
0
30
0
70
128
71
63
72
62
73
22
0
VERTEX
8
OBJECT__115
10
0
20
0
30
0
70
128
71
61
72
60
73
20
0
VERTEX
8
OBJECT__115
10
0
20
0
30
0
70
128
71
59
72
58
73
18
0
VERTEX
8
OBJECT__115
10
0
20
0
30
0
70
128
71
57
72
56
73
16
0
VERTEX
8
OBJECT__115
10
0
20
0
30
0
70
128
71
55
72
54
73
14
0
VERTEX
8
OBJECT__115
10
0
20
0
30
0
70
128
71
53
72
52
73
15
0
VERTEX
8
OBJECT__115
10
0
20
0
30
0
70
128
71
51
72
49
73
10
0
VERTEX
8
OBJECT__115
10
0
20
0
30
0
70
128
71
50
72
47
73
8
0
VERTEX
8
OBJECT__115
10
0
20
0
30
0
70
128
71
48
72
45
73
6
0
VERTEX
8
OBJECT__115
10
0
20
0
30
0
70
128
71
46
72
43
73
4
0
VERTEX
8
OBJECT__115
10
0
20
0
30
0
70
128
71
44
72
41
73
1
0
VERTEX
8
OBJECT__115
10
0
20
0
30
0
70
128
71
42
72
77
73
2
0
VERTEX
8
OBJECT__115
10
0
20
0
30
0
70
128
71
3
72
2
73
40
0
VERTEX
8
OBJECT__115
10
0
20
0
30
0
70
128
71
39
72
40
73
38
0
VERTEX
8
OBJECT__115
10
0
20
0
30
0
70
128
71
37
72
38
73
36
0
VERTEX
8
OBJECT__115
10
0
20
0
30
0
70
128
71
35
72
36
73
34
0
VERTEX
8
OBJECT__115
10
0
20
0
30
0
70
128
71
33
72
34
73
30
0
VERTEX
8
OBJECT__115
10
0
20
0
30
0
70
128
71
31
72
32
73
30
0
VERTEX
8
OBJECT__115
10
0
20
0
30
0
70
128
71
29
72
31
73
28
0
VERTEX
8
OBJECT__115
10
0
20
0
30
0
70
128
71
27
72
29
73
26
0
VERTEX
8
OBJECT__115
10
0
20
0
30
0
70
128
71
25
72
27
73
24
0
VERTEX
8
OBJECT__115
10
0
20
0
30
0
70
128
71
23
72
25
73
22
0
VERTEX
8
OBJECT__115
10
0
20
0
30
0
70
128
71
21
72
23
73
20
0
VERTEX
8
OBJECT__115
10
0
20
0
30
0
70
128
71
19
72
21
73
18
0
VERTEX
8
OBJECT__115
10
0
20
0
30
0
70
128
71
17
72
19
73
16
0
VERTEX
8
OBJECT__115
10
0
20
0
30
0
70
128
71
13
72
17
73
14
0
VERTEX
8
OBJECT__115
10
0
20
0
30
0
70
128
71
13
72
15
73
10
0
VERTEX
8
OBJECT__115
10
0
20
0
30
0
70
128
71
11
72
12
73
10
0
VERTEX
8
OBJECT__115
10
0
20
0
30
0
70
128
71
9
72
11
73
8
0
VERTEX
8
OBJECT__115
10
0
20
0
30
0
70
128
71
7
72
9
73
6
0
VERTEX
8
OBJECT__115
10
0
20
0
30
0
70
128
71
5
72
7
73
4
0
VERTEX
8
OBJECT__115
10
0
20
0
30
0
70
128
71
3
72
5
73
1
0
SEQEND
8
OBJECT__115
0
POLYLINE
8
OBJECT__116
66
1
70
64
71
71
72
71
62
253
0
VERTEX
8
OBJECT__116
10
-12.631000
20
-1.088000
30
22.084000
70
192
0
VERTEX
8
OBJECT__116
10
-11.677000
20
-4.938000
30
22.084000
70
192
0
VERTEX
8
OBJECT__116
10
-6.042000
20
-1.937000
30
23.881001
70
192
0
VERTEX
8
OBJECT__116
10
-11.567000
20
-5.114000
30
22.084000
70
192
0
VERTEX
8
OBJECT__116
10
-5.703000
20
-2.509000
30
23.881001
70
192
0
VERTEX
8
OBJECT__116
10
-9.579000
20
-8.304000
30
22.084000
70
192
0
VERTEX
8
OBJECT__116
10
-4.640000
20
-4.304000
30
23.881001
70
192
0
VERTEX
8
OBJECT__116
10
-6.544000
20
-10.858000
30
22.084000
70
192
0
VERTEX
8
OBJECT__116
10
-2.929000
20
-5.481000
30
23.881001
70
192
0
VERTEX
8
OBJECT__116
10
-4.603000
20
-4.367000
30
23.881001
70
192
0
VERTEX
8
OBJECT__116
10
-9.262000
20
-8.572000
30
22.084000
70
192
0
VERTEX
8
OBJECT__116
10
-5.967000
20
-11.092000
30
22.084000
70
192
0
VERTEX
8
OBJECT__116
10
-2.869000
20
-12.349000
30
22.084000
70
192
0
VERTEX
8
OBJECT__116
10
-1.002000
20
-6.106000
30
23.881001
70
192
0
VERTEX
8
OBJECT__116
10
-2.252000
20
-5.931000
30
23.881001
70
192
0
VERTEX
8
OBJECT__116
10
-2.039000
20
-12.408000
30
22.084000
70
192
0
VERTEX
8
OBJECT__116
10
1.088000
20
-12.631000
30
22.084000
70
192
0
VERTEX
8
OBJECT__116
10
0.544000
20
-6.321000
30
23.881001
70
192
0
VERTEX
8
OBJECT__116
10
2.098000
20
-12.381000
30
22.084000
70
192
0
VERTEX
8
OBJECT__116
10
1.035000
20
-6.164000
30
23.881001
70
192
0
VERTEX
8
OBJECT__116
10
4.938000
20
-11.677000
30
22.084000
70
192
0
VERTEX
8
OBJECT__116
10
3.024000
20
-5.526000
30
23.881001
70
192
0
VERTEX
8
OBJECT__116
10
8.304000
20
-9.579000
30
22.084000
70
192
0
VERTEX
8
OBJECT__116
10
4.583000
20
-4.178000
30
23.881001
70
192
0
VERTEX
8
OBJECT__116
10
3.233000
20
-5.459000
30
23.881001
70
192
0
VERTEX
8
OBJECT__116
10
5.999000
20
-11.016000
30
22.084000
70
192
0
VERTEX
8
OBJECT__116
10
9.244000
20
-8.463000
30
22.084000
70
192
0
VERTEX
8
OBJECT__116
10
10.858000
20
-6.544000
30
22.084000
70
192
0
VERTEX
8
OBJECT__116
10
5.282000
20
-3.516000
30
23.881001
70
192
0
VERTEX
8
OBJECT__116
10
11.485000
20
-4.998000
30
22.084000
70
192
0
VERTEX
8
OBJECT__116
10
5.676000
20
-2.476000
30
23.881001
70
192
0
VERTEX
8
OBJECT__116
10
12.349000
20
-2.869000
30
22.084000
70
192
0
VERTEX
8
OBJECT__116
10
6.284000
20
-0.876000
30
23.881001
70
192
0
VERTEX
8
OBJECT__116
10
12.482000
20
-0.995000
30
22.084000
70
192
0
VERTEX
8
OBJECT__116
10
6.252000
20
-0.510000
30
23.881001
70
192
0
VERTEX
8
OBJECT__116
10
12.631000
20
1.088000
30
22.084000
70
192
0
VERTEX
8
OBJECT__116
10
6.073000
20
1.571000
30
23.881001
70
192
0
VERTEX
8
OBJECT__116
10
11.677000
20
4.938000
30
22.084000
70
192
0
VERTEX
8
OBJECT__116
10
10.462000
20
6.888000
30
22.084000
70
192
0
VERTEX
8
OBJECT__116
10
5.169000
20
3.410000
30
23.881001
70
192
0
VERTEX
8
OBJECT__116
10
6.042000
20
1.937000
30
23.881001
70
192
0
VERTEX
8
OBJECT__116
10
12.129000
20
3.114000
30
22.084000
70
192
0
VERTEX
8
OBJECT__116
10
9.579000
20
8.304000
30
22.084000
70
192
0
VERTEX
8
OBJECT__116
10
4.603000
20
4.367000
30
23.881001
70
192
0
VERTEX
8
OBJECT__116
10
7.661000
20
9.918000
30
22.084000
70
192
0
VERTEX
8
OBJECT__116
10
3.801000
20
4.900000
30
23.881001
70
192
0
VERTEX
8
OBJECT__116
10
6.544000
20
10.858000
30
22.084000
70
192
0
VERTEX
8
OBJECT__116
10
4.027000
20
11.879000
30
22.084000
70
192
0
VERTEX
8
OBJECT__116
10
2.252000
20
5.931000
30
23.881001
70
192
0
VERTEX
8
OBJECT__116
10
2.034000
20
5.962000
30
23.881001
70
192
0
VERTEX
8
OBJECT__116
10
2.869000
20
12.349000
30
22.084000
70
192
0
VERTEX
8
OBJECT__116
10
-0.050000
20
12.557000
30
22.084000
70
192
0
VERTEX
8
OBJECT__116
10
-0.034000
20
6.250000
30
23.881001
70
192
0
VERTEX
8
OBJECT__116
10
-1.088000
20
12.631000
30
22.084000
70
192
0
VERTEX
8
OBJECT__116
10
-0.544000
20
6.321000
30
23.881001
70
192
0
VERTEX
8
OBJECT__116
10
-4.130000
20
11.877000
30
22.084000
70
192
0
VERTEX
8
OBJECT__116
10
-2.031000
20
5.844000
30
23.881001
70
192
0
VERTEX
8
OBJECT__116
10
-4.938000
20
11.677000
30
22.084000
70
192
0
VERTEX
8
OBJECT__116
10
-7.775000
20
9.909000
30
22.084000
70
192
0
VERTEX
8
OBJECT__116
10
-3.233000
20
5.459000
30
23.881001
70
192
0
VERTEX
8
OBJECT__116
10
-3.823000
20
4.899000
30
23.881001
70
192
0
VERTEX
8
OBJECT__116
10
-8.304000
20
9.579000
30
22.084000
70
192
0
VERTEX
8
OBJECT__116
10
-10.591000
20
6.862000
30
22.084000
70
192
0
VERTEX
8
OBJECT__116
10
-5.282000
20
3.516000
30
23.881001
70
192
0
VERTEX
8
OBJECT__116
10
-5.307000
20
3.447000
30
23.881001
70
192
0
VERTEX
8
OBJECT__116
10
-12.271000
20
3.061000
30
22.084000
70
192
0
VERTEX
8
OBJECT__116
10
-6.048000
20
1.497000
30
23.881001
70
192
0
VERTEX
8
OBJECT__116
10
-10.858000
20
6.544000
30
22.084000
70
192
0
VERTEX
8
OBJECT__116
10
-6.284000
20
0.876000
30
23.881001
70
192
0
VERTEX
8
OBJECT__116
10
-6.321000
20
-0.544000
30
23.881001
70
192
0
VERTEX
8
OBJECT__116
10
-12.349000
20
2.869000
30
22.084000
70
192
0
VERTEX
8
OBJECT__116
10
0
20
0
30
0
70
128
71
1
72
2
73
3
0
VERTEX
8
OBJECT__116
10
0
20
0
30
0
70
128
71
3
72
2
73
4
0
VERTEX
8
OBJECT__116
10
0
20
0
30
0
70
128
71
4
72
5
73
3
0
VERTEX
8
OBJECT__116
10
0
20
0
30
0
70
128
71
4
72
6
73
7
0
VERTEX
8
OBJECT__116
10
0
20
0
30
0
70
128
71
7
72
5
73
4
0
VERTEX
8
OBJECT__116
10
0
20
0
30
0
70
128
71
8
72
9
73
10
0
VERTEX
8
OBJECT__116
10
0
20
0
30
0
70
128
71
10
72
11
73
8
0
VERTEX
8
OBJECT__116
10
0
20
0
30
0
70
128
71
8
72
12
73
9
0
VERTEX
8
OBJECT__116
10
0
20
0
30
0
70
128
71
13
72
14
73
15
0
VERTEX
8
OBJECT__116
10
0
20
0
30
0
70
128
71
15
72
12
73
13
0
VERTEX
8
OBJECT__116
10
0
20
0
30
0
70
128
71
13
72
16
73
14
0
VERTEX
8
OBJECT__116
10
0
20
0
30
0
70
128
71
16
72
17
73
18
0
VERTEX
8
OBJECT__116
10
0
20
0
30
0
70
128
71
19
72
20
73
18
0
VERTEX
8
OBJECT__116
10
0
20
0
30
0
70
128
71
18
72
17
73
19
0
VERTEX
8
OBJECT__116
10
0
20
0
30
0
70
128
71
21
72
22
73
20
0
VERTEX
8
OBJECT__116
10
0
20
0
30
0
70
128
71
20
72
19
73
21
0
VERTEX
8
OBJECT__116
10
0
20
0
30
0
70
128
71
23
72
24
73
25
0
VERTEX
8
OBJECT__116
10
0
20
0
30
0
70
128
71
25
72
26
73
23
0
VERTEX
8
OBJECT__116
10
0
20
0
30
0
70
128
71
23
72
27
73
24
0
VERTEX
8
OBJECT__116
10
0
20
0
30
0
70
128
71
27
72
28
73
29
0
VERTEX
8
OBJECT__116
10
0
20
0
30
0
70
128
71
30
72
31
73
29
0
VERTEX
8
OBJECT__116
10
0
20
0
30
0
70
128
71
29
72
28
73
30
0
VERTEX
8
OBJECT__116
10
0
20
0
30
0
70
128
71
32
72
33
73
31
0
VERTEX
8
OBJECT__116
10
0
20
0
30
0
70
128
71
31
72
30
73
32
0
VERTEX
8
OBJECT__116
10
0
20
0
30
0
70
128
71
34
72
35
73
33
0
VERTEX
8
OBJECT__116
10
0
20
0
30
0
70
128
71
36
72
37
73
35
0
VERTEX
8
OBJECT__116
10
0
20
0
30
0
70
128
71
35
72
34
73
36
0
VERTEX
8
OBJECT__116
10
0
20
0
30
0
70
128
71
38
72
39
73
40
0
VERTEX
8
OBJECT__116
10
0
20
0
30
0
70
128
71
41
72
42
73
38
0
VERTEX
8
OBJECT__116
10
0
20
0
30
0
70
128
71
40
72
41
73
38
0
VERTEX
8
OBJECT__116
10
0
20
0
30
0
70
128
71
39
72
43
73
44
0
VERTEX
8
OBJECT__116
10
0
20
0
30
0
70
128
71
45
72
46
73
44
0
VERTEX
8
OBJECT__116
10
0
20
0
30
0
70
128
71
44
72
43
73
45
0
VERTEX
8
OBJECT__116
10
0
20
0
30
0
70
128
71
47
72
48
73
49
0
VERTEX
8
OBJECT__116
10
0
20
0
30
0
70
128
71
46
72
45
73
47
0
VERTEX
8
OBJECT__116
10
0
20
0
30
0
70
128
71
48
72
50
73
49
0
VERTEX
8
OBJECT__116
10
0
20
0
30
0
70
128
71
51
72
52
73
53
0
VERTEX
8
OBJECT__116
10
0
20
0
30
0
70
128
71
50
72
48
73
51
0
VERTEX
8
OBJECT__116
10
0
20
0
30
0
70
128
71
52
72
54
73
55
0
VERTEX
8
OBJECT__116
10
0
20
0
30
0
70
128
71
56
72
57
73
55
0
VERTEX
8
OBJECT__116
10
0
20
0
30
0
70
128
71
55
72
54
73
56
0
VERTEX
8
OBJECT__116
10
0
20
0
30
0
70
128
71
58
72
59
73
60
0
VERTEX
8
OBJECT__116
10
0
20
0
30
0
70
128
71
57
72
56
73
58
0
VERTEX
8
OBJECT__116
10
0
20
0
30
0
70
128
71
59
72
61
73
60
0
VERTEX
8
OBJECT__116
10
0
20
0
30
0
70
128
71
62
72
63
73
64
0
VERTEX
8
OBJECT__116
10
0
20
0
30
0
70
128
71
61
72
59
73
62
0
VERTEX
8
OBJECT__116
10
0
20
0
30
0
70
128
71
63
72
65
73
64
0
VERTEX
8
OBJECT__116
10
0
20
0
30
0
70
128
71
66
72
67
73
65
0
VERTEX
8
OBJECT__116
10
0
20
0
30
0
70
128
71
65
72
63
73
68
0
VERTEX
8
OBJECT__116
10
0
20
0
30
0
70
128
71
69
72
67
73
66
0
VERTEX
8
OBJECT__116
10
0
20
0
30
0
70
128
71
1
72
70
73
69
0
VERTEX
8
OBJECT__116
10
0
20
0
30
0
70
128
71
69
72
71
73
1
0
VERTEX
8
OBJECT__116
10
0
20
0
30
0
70
128
71
66
72
71
73
69
0
VERTEX
8
OBJECT__116
10
0
20
0
30
0
70
128
71
65
72
68
73
66
0
VERTEX
8
OBJECT__116
10
0
20
0
30
0
70
128
71
64
72
61
73
62
0
VERTEX
8
OBJECT__116
10
0
20
0
30
0
70
128
71
60
72
57
73
58
0
VERTEX
8
OBJECT__116
10
0
20
0
30
0
70
128
71
55
72
53
73
52
0
VERTEX
8
OBJECT__116
10
0
20
0
30
0
70
128
71
53
72
50
73
51
0
VERTEX
8
OBJECT__116
10
0
20
0
30
0
70
128
71
49
72
46
73
47
0
VERTEX
8
OBJECT__116
10
0
20
0
30
0
70
128
71
44
72
40
73
39
0
VERTEX
8
OBJECT__116
10
0
20
0
30
0
70
128
71
41
72
37
73
42
0
VERTEX
8
OBJECT__116
10
0
20
0
30
0
70
128
71
36
72
42
73
37
0
VERTEX
8
OBJECT__116
10
0
20
0
30
0
70
128
71
32
72
34
73
33
0
VERTEX
8
OBJECT__116
10
0
20
0
30
0
70
128
71
29
72
24
73
27
0
VERTEX
8
OBJECT__116
10
0
20
0
30
0
70
128
71
25
72
22
73
26
0
VERTEX
8
OBJECT__116
10
0
20
0
30
0
70
128
71
21
72
26
73
22
0
VERTEX
8
OBJECT__116
10
0
20
0
30
0
70
128
71
18
72
14
73
16
0
VERTEX
8
OBJECT__116
10
0
20
0
30
0
70
128
71
15
72
9
73
12
0
VERTEX
8
OBJECT__116
10
0
20
0
30
0
70
128
71
10
72
7
73
11
0
VERTEX
8
OBJECT__116
10
0
20
0
30
0
70
128
71
6
72
11
73
7
0
VERTEX
8
OBJECT__116
10
0
20
0
30
0
70
128
71
3
72
70
73
1
0
SEQEND
8
OBJECT__116
0
POLYLINE
8
OBJECT__117
66
1
70
64
71
62
72
76
62
253
0
VERTEX
8
OBJECT__117
10
3.149000
20
-5.318000
30
23.837999
70
192
0
VERTEX
8
OBJECT__117
10
0.530000
20
-6.158000
30
23.837999
70
192
0
VERTEX
8
OBJECT__117
10
1.035000
20
-6.164000
30
23.881001
70
192
0
VERTEX
8
OBJECT__117
10
0.544000
20
-6.321000
30
23.881001
70
192
0
VERTEX
8
OBJECT__117
10
3.024000
20
-5.526000
30
23.881001
70
192
0
VERTEX
8
OBJECT__117
10
3.233000
20
-5.459000
30
23.881001
70
192
0
VERTEX
8
OBJECT__117
10
4.583000
20
-4.178000
30
23.881001
70
192
0
VERTEX
8
OBJECT__117
10
5.145000
20
-3.425000
30
23.837999
70
192
0
VERTEX
8
OBJECT__117
10
6.121000
20
-0.853000
30
23.837999
70
192
0
VERTEX
8
OBJECT__117
10
5.676000
20
-2.476000
30
23.881001
70
192
0
VERTEX
8
OBJECT__117
10
5.282000
20
-3.516000
30
23.881001
70
192
0
VERTEX
8
OBJECT__117
10
6.252000
20
-0.510000
30
23.881001
70
192
0
VERTEX
8
OBJECT__117
10
6.073000
20
1.571000
30
23.881001
70
192
0
VERTEX
8
OBJECT__117
10
6.284000
20
-0.876000
30
23.881001
70
192
0
VERTEX
8
OBJECT__117
10
5.885000
20
1.887000
30
23.837999
70
192
0
VERTEX
8
OBJECT__117
10
6.042000
20
1.937000
30
23.881001
70
192
0
VERTEX
8
OBJECT__117
10
5.169000
20
3.410000
30
23.881001
70
192
0
VERTEX
8
OBJECT__117
10
4.484000
20
4.254000
30
23.837999
70
192
0
VERTEX
8
OBJECT__117
10
2.194000
20
5.778000
30
23.837999
70
192
0
VERTEX
8
OBJECT__117
10
3.801000
20
4.900000
30
23.881001
70
192
0
VERTEX
8
OBJECT__117
10
4.603000
20
4.367000
30
23.881001
70
192
0
VERTEX
8
OBJECT__117
10
2.034000
20
5.962000
30
23.881001
70
192
0
VERTEX
8
OBJECT__117
10
-0.034000
20
6.250000
30
23.881001
70
192
0
VERTEX
8
OBJECT__117
10
-0.530000
20
6.158000
30
23.837999
70
192
0
VERTEX
8
OBJECT__117
10
2.252000
20
5.931000
30
23.881001
70
192
0
VERTEX
8
OBJECT__117
10
-0.544000
20
6.321000
30
23.881001
70
192
0
VERTEX
8
OBJECT__117
10
-2.031000
20
5.844000
30
23.881001
70
192
0
VERTEX
8
OBJECT__117
10
-3.149000
20
5.318000
30
23.837999
70
192
0
VERTEX
8
OBJECT__117
10
-5.145000
20
3.425000
30
23.837999
70
192
0
VERTEX
8
OBJECT__117
10
-3.823000
20
4.899000
30
23.881001
70
192
0
VERTEX
8
OBJECT__117
10
-3.233000
20
5.459000
30
23.881001
70
192
0
VERTEX
8
OBJECT__117
10
-5.307000
20
3.447000
30
23.881001
70
192
0
VERTEX
8
OBJECT__117
10
-6.048000
20
1.497000
30
23.881001
70
192
0
VERTEX
8
OBJECT__117
10
-6.121000
20
0.853000
30
23.837999
70
192
0
VERTEX
8
OBJECT__117
10
-5.282000
20
3.516000
30
23.881001
70
192
0
VERTEX
8
OBJECT__117
10
-6.284000
20
0.876000
30
23.881001
70
192
0
VERTEX
8
OBJECT__117
10
-6.321000
20
-0.544000
30
23.881001
70
192
0
VERTEX
8
OBJECT__117
10
-5.885000
20
-1.887000
30
23.837999
70
192
0
VERTEX
8
OBJECT__117
10
-4.484000
20
-4.254000
30
23.837999
70
192
0
VERTEX
8
OBJECT__117
10
-5.703000
20
-2.509000
30
23.881001
70
192
0
VERTEX
8
OBJECT__117
10
-6.042000
20
-1.937000
30
23.881001
70
192
0
VERTEX
8
OBJECT__117
10
-4.640000
20
-4.304000
30
23.881001
70
192
0
VERTEX
8
OBJECT__117
10
-4.603000
20
-4.367000
30
23.881001
70
192
0
VERTEX
8
OBJECT__117
10
-2.929000
20
-5.481000
30
23.881001
70
192
0
VERTEX
8
OBJECT__117
10
-2.194000
20
-5.778000
30
23.837999
70
192
0
VERTEX
8
OBJECT__117
10
-1.002000
20
-6.106000
30
23.881001
70
192
0
VERTEX
8
OBJECT__117
10
-2.252000
20
-5.931000
30
23.881001
70
192
0
VERTEX
8
OBJECT__117
10
3.113000
20
-5.256000
30
23.684999
70
192
0
VERTEX
8
OBJECT__117
10
5.085000
20
-3.385000
30
23.684999
70
192
0
VERTEX
8
OBJECT__117
10
6.050000
20
-0.843000
30
23.684999
70
192
0
VERTEX
8
OBJECT__117
10
6.086000
20
0.524000
30
23.684999
70
192
0
VERTEX
8
OBJECT__117
10
5.817000
20
1.865000
30
23.684999
70
192
0
VERTEX
8
OBJECT__117
10
4.431000
20
4.204000
30
23.684999
70
192
0
VERTEX
8
OBJECT__117
10
2.168000
20
5.711000
30
23.684999
70
192
0
VERTEX
8
OBJECT__117
10
-0.524000
20
6.086000
30
23.684999
70
192
0
VERTEX
8
OBJECT__117
10
-3.113000
20
5.256000
30
23.684999
70
192
0
VERTEX
8
OBJECT__117
10
-5.085000
20
3.385000
30
23.684999
70
192
0
VERTEX
8
OBJECT__117
10
-6.050000
20
0.843000
30
23.684999
70
192
0
VERTEX
8
OBJECT__117
10
-5.817000
20
-1.865000
30
23.684999
70
192
0
VERTEX
8
OBJECT__117
10
-4.431000
20
-4.204000
30
23.684999
70
192
0
VERTEX
8
OBJECT__117
10
-2.168000
20
-5.711000
30
23.684999
70
192
0
VERTEX
8
OBJECT__117
10
0.524000
20
-6.086000
30
23.684999
70
192
0
VERTEX
8
OBJECT__117
10
0
20
0
30
0
70
128
71
1
72
2
73
3
0
VERTEX
8
OBJECT__117
10
0
20
0
30
0
70
128
71
2
72
4
73
3
0
VERTEX
8
OBJECT__117
10
0
20
0
30
0
70
128
71
3
72
5
73
1
0
VERTEX
8
OBJECT__117
10
0
20
0
30
0
70
128
71
1
72
6
73
7
0
VERTEX
8
OBJECT__117
10
0
20
0
30
0
70
128
71
7
72
8
73
1
0
VERTEX
8
OBJECT__117
10
0
20
0
30
0
70
128
71
9
72
8
73
10
0
VERTEX
8
OBJECT__117
10
0
20
0
30
0
70
128
71
8
72
11
73
10
0
VERTEX
8
OBJECT__117
10
0
20
0
30
0
70
128
71
9
72
12
73
13
0
VERTEX
8
OBJECT__117
10
0
20
0
30
0
70
128
71
9
72
14
73
12
0
VERTEX
8
OBJECT__117
10
0
20
0
30
0
70
128
71
13
72
15
73
9
0
VERTEX
8
OBJECT__117
10
0
20
0
30
0
70
128
71
15
72
16
73
17
0
VERTEX
8
OBJECT__117
10
0
20
0
30
0
70
128
71
17
72
18
73
15
0
VERTEX
8
OBJECT__117
10
0
20
0
30
0
70
128
71
19
72
18
73
20
0
VERTEX
8
OBJECT__117
10
0
20
0
30
0
70
128
71
18
72
21
73
20
0
VERTEX
8
OBJECT__117
10
0
20
0
30
0
70
128
71
19
72
22
73
23
0
VERTEX
8
OBJECT__117
10
0
20
0
30
0
70
128
71
23
72
24
73
19
0
VERTEX
8
OBJECT__117
10
0
20
0
30
0
70
128
71
19
72
25
73
22
0
VERTEX
8
OBJECT__117
10
0
20
0
30
0
70
128
71
24
72
26
73
27
0
VERTEX
8
OBJECT__117
10
0
20
0
30
0
70
128
71
27
72
28
73
24
0
VERTEX
8
OBJECT__117
10
0
20
0
30
0
70
128
71
29
72
28
73
30
0
VERTEX
8
OBJECT__117
10
0
20
0
30
0
70
128
71
28
72
31
73
30
0
VERTEX
8
OBJECT__117
10
0
20
0
30
0
70
128
71
29
72
32
73
33
0
VERTEX
8
OBJECT__117
10
0
20
0
30
0
70
128
71
33
72
34
73
29
0
VERTEX
8
OBJECT__117
10
0
20
0
30
0
70
128
71
29
72
35
73
32
0
VERTEX
8
OBJECT__117
10
0
20
0
30
0
70
128
71
34
72
36
73
37
0
VERTEX
8
OBJECT__117
10
0
20
0
30
0
70
128
71
37
72
38
73
34
0
VERTEX
8
OBJECT__117
10
0
20
0
30
0
70
128
71
39
72
38
73
40
0
VERTEX
8
OBJECT__117
10
0
20
0
30
0
70
128
71
38
72
41
73
40
0
VERTEX
8
OBJECT__117
10
0
20
0
30
0
70
128
71
40
72
42
73
39
0
VERTEX
8
OBJECT__117
10
0
20
0
30
0
70
128
71
39
72
43
73
44
0
VERTEX
8
OBJECT__117
10
0
20
0
30
0
70
128
71
44
72
45
73
39
0
VERTEX
8
OBJECT__117
10
0
20
0
30
0
70
128
71
2
72
45
73
46
0
VERTEX
8
OBJECT__117
10
0
20
0
30
0
70
128
71
45
72
47
73
46
0
VERTEX
8
OBJECT__117
10
0
20
0
30
0
70
128
71
2
72
1
73
48
0
VERTEX
8
OBJECT__117
10
0
20
0
30
0
70
128
71
1
72
8
73
49
0
VERTEX
8
OBJECT__117
10
0
20
0
30
0
70
128
71
8
72
9
73
50
0
VERTEX
8
OBJECT__117
10
0
20
0
30
0
70
128
71
9
72
15
73
51
0
VERTEX
8
OBJECT__117
10
0
20
0
30
0
70
128
71
15
72
52
73
51
0
VERTEX
8
OBJECT__117
10
0
20
0
30
0
70
128
71
15
72
18
73
53
0
VERTEX
8
OBJECT__117
10
0
20
0
30
0
70
128
71
18
72
19
73
54
0
VERTEX
8
OBJECT__117
10
0
20
0
30
0
70
128
71
24
72
55
73
54
0
VERTEX
8
OBJECT__117
10
0
20
0
30
0
70
128
71
24
72
28
73
56
0
VERTEX
8
OBJECT__117
10
0
20
0
30
0
70
128
71
28
72
29
73
57
0
VERTEX
8
OBJECT__117
10
0
20
0
30
0
70
128
71
29
72
34
73
58
0
VERTEX
8
OBJECT__117
10
0
20
0
30
0
70
128
71
38
72
59
73
58
0
VERTEX
8
OBJECT__117
10
0
20
0
30
0
70
128
71
38
72
39
73
60
0
VERTEX
8
OBJECT__117
10
0
20
0
30
0
70
128
71
39
72
45
73
61
0
VERTEX
8
OBJECT__117
10
0
20
0
30
0
70
128
71
45
72
2
73
62
0
VERTEX
8
OBJECT__117
10
0
20
0
30
0
70
128
71
62
72
61
73
45
0
VERTEX
8
OBJECT__117
10
0
20
0
30
0
70
128
71
61
72
60
73
39
0
VERTEX
8
OBJECT__117
10
0
20
0
30
0
70
128
71
60
72
59
73
38
0
VERTEX
8
OBJECT__117
10
0
20
0
30
0
70
128
71
58
72
34
73
38
0
VERTEX
8
OBJECT__117
10
0
20
0
30
0
70
128
71
58
72
57
73
29
0
VERTEX
8
OBJECT__117
10
0
20
0
30
0
70
128
71
57
72
56
73
28
0
VERTEX
8
OBJECT__117
10
0
20
0
30
0
70
128
71
56
72
55
73
24
0
VERTEX
8
OBJECT__117
10
0
20
0
30
0
70
128
71
54
72
19
73
24
0
VERTEX
8
OBJECT__117
10
0
20
0
30
0
70
128
71
54
72
53
73
18
0
VERTEX
8
OBJECT__117
10
0
20
0
30
0
70
128
71
53
72
52
73
15
0
VERTEX
8
OBJECT__117
10
0
20
0
30
0
70
128
71
51
72
50
73
9
0
VERTEX
8
OBJECT__117
10
0
20
0
30
0
70
128
71
50
72
49
73
8
0
VERTEX
8
OBJECT__117
10
0
20
0
30
0
70
128
71
49
72
48
73
1
0
VERTEX
8
OBJECT__117
10
0
20
0
30
0
70
128
71
48
72
62
73
2
0
VERTEX
8
OBJECT__117
10
0
20
0
30
0
70
128
71
46
72
4
73
2
0
VERTEX
8
OBJECT__117
10
0
20
0
30
0
70
128
71
44
72
47
73
45
0
VERTEX
8
OBJECT__117
10
0
20
0
30
0
70
128
71
42
72
43
73
39
0
VERTEX
8
OBJECT__117
10
0
20
0
30
0
70
128
71
37
72
41
73
38
0
VERTEX
8
OBJECT__117
10
0
20
0
30
0
70
128
71
33
72
36
73
34
0
VERTEX
8
OBJECT__117
10
0
20
0
30
0
70
128
71
30
72
35
73
29
0
VERTEX
8
OBJECT__117
10
0
20
0
30
0
70
128
71
27
72
31
73
28
0
VERTEX
8
OBJECT__117
10
0
20
0
30
0
70
128
71
23
72
26
73
24
0
VERTEX
8
OBJECT__117
10
0
20
0
30
0
70
128
71
20
72
25
73
19
0
VERTEX
8
OBJECT__117
10
0
20
0
30
0
70
128
71
17
72
21
73
18
0
VERTEX
8
OBJECT__117
10
0
20
0
30
0
70
128
71
13
72
16
73
15
0
VERTEX
8
OBJECT__117
10
0
20
0
30
0
70
128
71
10
72
14
73
9
0
VERTEX
8
OBJECT__117
10
0
20
0
30
0
70
128
71
7
72
11
73
8
0
VERTEX
8
OBJECT__117
10
0
20
0
30
0
70
128
71
5
72
6
73
1
0
SEQEND
8
OBJECT__117
0
POLYLINE
8
OBJECT__118
66
1
70
64
71
15
72
13
62
253
0
VERTEX
8
OBJECT__118
10
5.817000
20
1.865000
30
23.684999
70
192
0
VERTEX
8
OBJECT__118
10
-5.085000
20
3.385000
30
23.684999
70
192
0
VERTEX
8
OBJECT__118
10
-6.050000
20
0.843000
30
23.684999
70
192
0
VERTEX
8
OBJECT__118
10
2.168000
20
5.711000
30
23.684999
70
192
0
VERTEX
8
OBJECT__118
10
-0.524000
20
6.086000
30
23.684999
70
192
0
VERTEX
8
OBJECT__118
10
-5.817000
20
-1.865000
30
23.684999
70
192
0
VERTEX
8
OBJECT__118
10
-2.168000
20
-5.711000
30
23.684999
70
192
0
VERTEX
8
OBJECT__118
10
0.524000
20
-6.086000
30
23.684999
70
192
0
VERTEX
8
OBJECT__118
10
-3.113000
20
5.256000
30
23.684999
70
192
0
VERTEX
8
OBJECT__118
10
4.431000
20
4.204000
30
23.684999
70
192
0
VERTEX
8
OBJECT__118
10
3.113000
20
-5.256000
30
23.684999
70
192
0
VERTEX
8
OBJECT__118
10
5.085000
20
-3.385000
30
23.684999
70
192
0
VERTEX
8
OBJECT__118
10
-4.431000
20
-4.204000
30
23.684999
70
192
0
VERTEX
8
OBJECT__118
10
6.086000
20
0.524000
30
23.684999
70
192
0
VERTEX
8
OBJECT__118
10
6.050000
20
-0.843000
30
23.684999
70
192
0
VERTEX
8
OBJECT__118
10
0
20
0
30
0
70
128
71
1
72
2
73
3
0
VERTEX
8
OBJECT__118
10
0
20
0
30
0
70
128
71
1
72
4
73
5
0
VERTEX
8
OBJECT__118
10
0
20
0
30
0
70
128
71
6
72
7
73
8
0
VERTEX
8
OBJECT__118
10
0
20
0
30
0
70
128
71
1
72
9
73
2
0
VERTEX
8
OBJECT__118
10
0
20
0
30
0
70
128
71
1
72
10
73
4
0
VERTEX
8
OBJECT__118
10
0
20
0
30
0
70
128
71
6
72
11
73
12
0
VERTEX
8
OBJECT__118
10
0
20
0
30
0
70
128
71
6
72
13
73
7
0
VERTEX
8
OBJECT__118
10
0
20
0
30
0
70
128
71
5
72
9
73
1
0
VERTEX
8
OBJECT__118
10
0
20
0
30
0
70
128
71
8
72
11
73
6
0
VERTEX
8
OBJECT__118
10
0
20
0
30
0
70
128
71
6
72
14
73
1
0
VERTEX
8
OBJECT__118
10
0
20
0
30
0
70
128
71
12
72
15
73
6
0
VERTEX
8
OBJECT__118
10
0
20
0
30
0
70
128
71
15
72
14
73
6
0
VERTEX
8
OBJECT__118
10
0
20
0
30
0
70
128
71
3
72
6
73
1
0
SEQEND
8
OBJECT__118
0
POLYLINE
8
OBJECT__119
66
1
70
64
71
105
72
157
62
253
0
VERTEX
8
OBJECT__119
10
-11.418000
20
-2.814000
30
40.500000
70
192
0
VERTEX
8
OBJECT__119
10
-11.760000
20
0.000000
30
40.500000
70
192
0
VERTEX
8
OBJECT__119
10
-6.000000
20
0.000000
30
39.060001
70
192
0
VERTEX
8
OBJECT__119
10
-10.413000
20
-5.465000
30
40.500000
70
192
0
VERTEX
8
OBJECT__119
10
-5.826000
20
-1.436000
30
39.060001
70
192
0
VERTEX
8
OBJECT__119
10
-5.313000
20
-2.788000
30
39.060001
70
192
0
VERTEX
8
OBJECT__119
10
-4.491000
20
-3.979000
30
39.060001
70
192
0
VERTEX
8
OBJECT__119
10
-6.680000
20
-9.678000
30
40.500000
70
192
0
VERTEX
8
OBJECT__119
10
-8.802000
20
-7.798000
30
40.500000
70
192
0
VERTEX
8
OBJECT__119
10
-3.408000
20
-4.938000
30
39.060001
70
192
0
VERTEX
8
OBJECT__119
10
-2.128000
20
-5.610000
30
39.060001
70
192
0
VERTEX
8
OBJECT__119
10
-1.417000
20
-11.674000
30
40.500000
70
192
0
VERTEX
8
OBJECT__119
10
-4.170000
20
-10.996000
30
40.500000
70
192
0
VERTEX
8
OBJECT__119
10
-0.723000
20
-5.956000
30
39.060001
70
192
0
VERTEX
8
OBJECT__119
10
0.723000
20
-5.956000
30
39.060001
70
192
0
VERTEX
8
OBJECT__119
10
1.417000
20
-11.674000
30
40.500000
70
192
0
VERTEX
8
OBJECT__119
10
2.128000
20
-5.610000
30
39.060001
70
192
0
VERTEX
8
OBJECT__119
10
6.680000
20
-9.678000
30
40.500000
70
192
0
VERTEX
8
OBJECT__119
10
4.170000
20
-10.996000
30
40.500000
70
192
0
VERTEX
8
OBJECT__119
10
3.408000
20
-4.938000
30
39.060001
70
192
0
VERTEX
8
OBJECT__119
10
4.491000
20
-3.979000
30
39.060001
70
192
0
VERTEX
8
OBJECT__119
10
8.802000
20
-7.798000
30
40.500000
70
192
0
VERTEX
8
OBJECT__119
10
5.313000
20
-2.788000
30
39.060001
70
192
0
VERTEX
8
OBJECT__119
10
11.418000
20
-2.814000
30
40.500000
70
192
0
VERTEX
8
OBJECT__119
10
10.413000
20
-5.465000
30
40.500000
70
192
0
VERTEX
8
OBJECT__119
10
11.760000
20
0.000000
30
40.500000
70
192
0
VERTEX
8
OBJECT__119
10
5.826000
20
-1.436000
30
39.060001
70
192
0
VERTEX
8
OBJECT__119
10
6.000000
20
0.000000
30
39.060001
70
192
0
VERTEX
8
OBJECT__119
10
5.826000
20
1.436000
30
39.060001
70
192
0
VERTEX
8
OBJECT__119
10
10.413000
20
5.465000
30
40.500000
70
192
0
VERTEX
8
OBJECT__119
10
11.418000
20
2.814000
30
40.500000
70
192
0
VERTEX
8
OBJECT__119
10
8.802000
20
7.798000
30
40.500000
70
192
0
VERTEX
8
OBJECT__119
10
5.313000
20
2.788000
30
39.060001
70
192
0
VERTEX
8
OBJECT__119
10
6.680000
20
9.678000
30
40.500000
70
192
0
VERTEX
8
OBJECT__119
10
4.491000
20
3.979000
30
39.060001
70
192
0
VERTEX
8
OBJECT__119
10
4.170000
20
10.996000
30
40.500000
70
192
0
VERTEX
8
OBJECT__119
10
3.408000
20
4.938000
30
39.060001
70
192
0
VERTEX
8
OBJECT__119
10
1.417000
20
11.674000
30
40.500000
70
192
0
VERTEX
8
OBJECT__119
10
2.128000
20
5.610000
30
39.060001
70
192
0
VERTEX
8
OBJECT__119
10
0.723000
20
5.956000
30
39.060001
70
192
0
VERTEX
8
OBJECT__119
10
0.000000
20
6.000000
30
39.060001
70
192
0
VERTEX
8
OBJECT__119
10
-1.417000
20
11.674000
30
40.500000
70
192
0
VERTEX
8
OBJECT__119
10
-4.170000
20
10.996000
30
40.500000
70
192
0
VERTEX
8
OBJECT__119
10
-0.723000
20
5.956000
30
39.060001
70
192
0
VERTEX
8
OBJECT__119
10
-2.128000
20
5.610000
30
39.060001
70
192
0
VERTEX
8
OBJECT__119
10
-3.408000
20
4.938000
30
39.060001
70
192
0
VERTEX
8
OBJECT__119
10
-8.802000
20
7.798000
30
40.500000
70
192
0
VERTEX
8
OBJECT__119
10
-6.680000
20
9.678000
30
40.500000
70
192
0
VERTEX
8
OBJECT__119
10
-4.491000
20
3.979000
30
39.060001
70
192
0
VERTEX
8
OBJECT__119
10
-5.313000
20
2.788000
30
39.060001
70
192
0
VERTEX
8
OBJECT__119
10
-11.418000
20
2.814000
30
40.500000
70
192
0
VERTEX
8
OBJECT__119
10
-10.413000
20
5.465000
30
40.500000
70
192
0
VERTEX
8
OBJECT__119
10
-5.826000
20
1.436000
30
39.060001
70
192
0
VERTEX
8
OBJECT__119
10
-16.712000
20
-4.119000
30
42.848999
70
192
0
VERTEX
8
OBJECT__119
10
-15.241000
20
-7.999000
30
42.848999
70
192
0
VERTEX
8
OBJECT__119
10
-12.883000
20
-11.414000
30
42.848999
70
192
0
VERTEX
8
OBJECT__119
10
-9.778000
20
-14.165000
30
42.848999
70
192
0
VERTEX
8
OBJECT__119
10
-6.104000
20
-16.094000
30
42.848999
70
192
0
VERTEX
8
OBJECT__119
10
-2.075000
20
-17.087000
30
42.848999
70
192
0
VERTEX
8
OBJECT__119
10
2.075000
20
-17.087000
30
42.848999
70
192
0
VERTEX
8
OBJECT__119
10
6.104000
20
-16.094000
30
42.848999
70
192
0
VERTEX
8
OBJECT__119
10
9.778000
20
-14.165000
30
42.848999
70
192
0
VERTEX
8
OBJECT__119
10
12.883000
20
-11.414000
30
42.848999
70
192
0
VERTEX
8
OBJECT__119
10
15.241000
20
-7.999000
30
42.848999
70
192
0
VERTEX
8
OBJECT__119
10
16.712000
20
-4.119000
30
42.848999
70
192
0
VERTEX
8
OBJECT__119
10
17.212000
20
0.000000
30
42.848999
70
192
0
VERTEX
8
OBJECT__119
10
16.712000
20
4.119000
30
42.848999
70
192
0
VERTEX
8
OBJECT__119
10
15.241000
20
7.999000
30
42.848999
70
192
0
VERTEX
8
OBJECT__119
10
12.883000
20
11.414000
30
42.848999
70
192
0
VERTEX
8
OBJECT__119
10
9.778000
20
14.165000
30
42.848999
70
192
0
VERTEX
8
OBJECT__119
10
6.104000
20
16.094000
30
42.848999
70
192
0
VERTEX
8
OBJECT__119
10
2.075000
20
17.087000
30
42.848999
70
192
0
VERTEX
8
OBJECT__119
10
-2.075000
20
17.087000
30
42.848999
70
192
0
VERTEX
8
OBJECT__119
10
-6.104000
20
16.094000
30
42.848999
70
192
0
VERTEX
8
OBJECT__119
10
-9.778000
20
14.165000
30
42.848999
70
192
0
VERTEX
8
OBJECT__119
10
-12.883000
20
11.414000
30
42.848999
70
192
0
VERTEX
8
OBJECT__119
10
-15.241000
20
7.999000
30
42.848999
70
192
0
VERTEX
8
OBJECT__119
10
-16.712000
20
4.119000
30
42.848999
70
192
0
VERTEX
8
OBJECT__119
10
-17.212000
20
0.000000
30
42.848999
70
192
0
VERTEX
8
OBJECT__119
10
-21.569000
20
-5.316000
30
46.046001
70
192
0
VERTEX
8
OBJECT__119
10
-22.215000
20
0.000000
30
46.046001
70
192
0
VERTEX
8
OBJECT__119
10
-19.670000
20
-10.324000
30
46.046001
70
192
0
VERTEX
8
OBJECT__119
10
-12.619000
20
-18.282000
30
46.046001
70
192
0
VERTEX
8
OBJECT__119
10
-16.628000
20
-14.731000
30
46.046001
70
192
0
VERTEX
8
OBJECT__119
10
-7.878000
20
-20.771000
30
46.046001
70
192
0
VERTEX
8
OBJECT__119
10
2.678000
20
-22.052999
30
46.046001
70
192
0
VERTEX
8
OBJECT__119
10
-2.678000
20
-22.052999
30
46.046001
70
192
0
VERTEX
8
OBJECT__119
10
12.619000
20
-18.282000
30
46.046001
70
192
0
VERTEX
8
OBJECT__119
10
7.878000
20
-20.771000
30
46.046001
70
192
0
VERTEX
8
OBJECT__119
10
19.670000
20
-10.324000
30
46.046001
70
192
0
VERTEX
8
OBJECT__119
10
16.628000
20
-14.731000
30
46.046001
70
192
0
VERTEX
8
OBJECT__119
10
21.569000
20
-5.316000
30
46.046001
70
192
0
VERTEX
8
OBJECT__119
10
21.569000
20
5.316000
30
46.046001
70
192
0
VERTEX
8
OBJECT__119
10
22.215000
20
0.000000
30
46.046001
70
192
0
VERTEX
8
OBJECT__119
10
19.670000
20
10.324000
30
46.046001
70
192
0
VERTEX
8
OBJECT__119
10
16.628000
20
14.731000
30
46.046001
70
192
0
VERTEX
8
OBJECT__119
10
7.878000
20
20.771000
30
46.046001
70
192
0
VERTEX
8
OBJECT__119
10
12.619000
20
18.282000
30
46.046001
70
192
0
VERTEX
8
OBJECT__119
10
2.678000
20
22.052999
30
46.046001
70
192
0
VERTEX
8
OBJECT__119
10
-2.678000
20
22.052999
30
46.046001
70
192
0
VERTEX
8
OBJECT__119
10
-7.878000
20
20.771000
30
46.046001
70
192
0
VERTEX
8
OBJECT__119
10
-12.619000
20
18.282000
30
46.046001
70
192
0
VERTEX
8
OBJECT__119
10
-16.628000
20
14.731000
30
46.046001
70
192
0
VERTEX
8
OBJECT__119
10
-21.569000
20
5.316000
30
46.046001
70
192
0
VERTEX
8
OBJECT__119
10
-19.670000
20
10.324000
30
46.046001
70
192
0
VERTEX
8
OBJECT__119
10
0
20
0
30
0
70
128
71
1
72
2
73
3
0
VERTEX
8
OBJECT__119
10
0
20
0
30
0
70
128
71
4
72
1
73
5
0
VERTEX
8
OBJECT__119
10
0
20
0
30
0
70
128
71
4
72
6
73
7
0
VERTEX
8
OBJECT__119
10
0
20
0
30
0
70
128
71
8
72
9
73
7
0
VERTEX
8
OBJECT__119
10
0
20
0
30
0
70
128
71
8
72
10
73
11
0
VERTEX
8
OBJECT__119
10
0
20
0
30
0
70
128
71
12
72
13
73
11
0
VERTEX
8
OBJECT__119
10
0
20
0
30
0
70
128
71
12
72
14
73
15
0
VERTEX
8
OBJECT__119
10
0
20
0
30
0
70
128
71
16
72
15
73
17
0
VERTEX
8
OBJECT__119
10
0
20
0
30
0
70
128
71
18
72
19
73
17
0
VERTEX
8
OBJECT__119
10
0
20
0
30
0
70
128
71
18
72
20
73
21
0
VERTEX
8
OBJECT__119
10
0
20
0
30
0
70
128
71
22
72
21
73
23
0
VERTEX
8
OBJECT__119
10
0
20
0
30
0
70
128
71
24
72
25
73
23
0
VERTEX
8
OBJECT__119
10
0
20
0
30
0
70
128
71
26
72
24
73
27
0
VERTEX
8
OBJECT__119
10
0
20
0
30
0
70
128
71
26
72
28
73
29
0
VERTEX
8
OBJECT__119
10
0
20
0
30
0
70
128
71
30
72
31
73
29
0
VERTEX
8
OBJECT__119
10
0
20
0
30
0
70
128
71
32
72
30
73
33
0
VERTEX
8
OBJECT__119
10
0
20
0
30
0
70
128
71
34
72
32
73
35
0
VERTEX
8
OBJECT__119
10
0
20
0
30
0
70
128
71
36
72
34
73
37
0
VERTEX
8
OBJECT__119
10
0
20
0
30
0
70
128
71
38
72
36
73
39
0
VERTEX
8
OBJECT__119
10
0
20
0
30
0
70
128
71
38
72
40
73
41
0
VERTEX
8
OBJECT__119
10
0
20
0
30
0
70
128
71
41
72
42
73
38
0
VERTEX
8
OBJECT__119
10
0
20
0
30
0
70
128
71
43
72
42
73
44
0
VERTEX
8
OBJECT__119
10
0
20
0
30
0
70
128
71
43
72
45
73
46
0
VERTEX
8
OBJECT__119
10
0
20
0
30
0
70
128
71
47
72
48
73
46
0
VERTEX
8
OBJECT__119
10
0
20
0
30
0
70
128
71
47
72
49
73
50
0
VERTEX
8
OBJECT__119
10
0
20
0
30
0
70
128
71
51
72
52
73
50
0
VERTEX
8
OBJECT__119
10
0
20
0
30
0
70
128
71
51
72
53
73
3
0
VERTEX
8
OBJECT__119
10
0
20
0
30
0
70
128
71
2
72
1
73
54
0
VERTEX
8
OBJECT__119
10
0
20
0
30
0
70
128
71
1
72
4
73
55
0
VERTEX
8
OBJECT__119
10
0
20
0
30
0
70
128
71
4
72
9
73
56
0
VERTEX
8
OBJECT__119
10
0
20
0
30
0
70
128
71
9
72
8
73
57
0
VERTEX
8
OBJECT__119
10
0
20
0
30
0
70
128
71
8
72
13
73
58
0
VERTEX
8
OBJECT__119
10
0
20
0
30
0
70
128
71
13
72
12
73
59
0
VERTEX
8
OBJECT__119
10
0
20
0
30
0
70
128
71
12
72
16
73
60
0
VERTEX
8
OBJECT__119
10
0
20
0
30
0
70
128
71
16
72
19
73
61
0
VERTEX
8
OBJECT__119
10
0
20
0
30
0
70
128
71
19
72
18
73
62
0
VERTEX
8
OBJECT__119
10
0
20
0
30
0
70
128
71
18
72
22
73
63
0
VERTEX
8
OBJECT__119
10
0
20
0
30
0
70
128
71
22
72
25
73
64
0
VERTEX
8
OBJECT__119
10
0
20
0
30
0
70
128
71
25
72
24
73
65
0
VERTEX
8
OBJECT__119
10
0
20
0
30
0
70
128
71
24
72
26
73
66
0
VERTEX
8
OBJECT__119
10
0
20
0
30
0
70
128
71
26
72
31
73
67
0
VERTEX
8
OBJECT__119
10
0
20
0
30
0
70
128
71
31
72
30
73
68
0
VERTEX
8
OBJECT__119
10
0
20
0
30
0
70
128
71
30
72
32
73
69
0
VERTEX
8
OBJECT__119
10
0
20
0
30
0
70
128
71
32
72
34
73
70
0
VERTEX
8
OBJECT__119
10
0
20
0
30
0
70
128
71
34
72
36
73
71
0
VERTEX
8
OBJECT__119
10
0
20
0
30
0
70
128
71
36
72
38
73
72
0
VERTEX
8
OBJECT__119
10
0
20
0
30
0
70
128
71
38
72
42
73
73
0
VERTEX
8
OBJECT__119
10
0
20
0
30
0
70
128
71
42
72
43
73
74
0
VERTEX
8
OBJECT__119
10
0
20
0
30
0
70
128
71
43
72
48
73
75
0
VERTEX
8
OBJECT__119
10
0
20
0
30
0
70
128
71
48
72
47
73
76
0
VERTEX
8
OBJECT__119
10
0
20
0
30
0
70
128
71
47
72
52
73
77
0
VERTEX
8
OBJECT__119
10
0
20
0
30
0
70
128
71
52
72
51
73
78
0
VERTEX
8
OBJECT__119
10
0
20
0
30
0
70
128
71
51
72
2
73
79
0
VERTEX
8
OBJECT__119
10
0
20
0
30
0
70
128
71
80
72
81
73
79
0
VERTEX
8
OBJECT__119
10
0
20
0
30
0
70
128
71
82
72
80
73
54
0
VERTEX
8
OBJECT__119
10
0
20
0
30
0
70
128
71
82
72
55
73
56
0
VERTEX
8
OBJECT__119
10
0
20
0
30
0
70
128
71
83
72
84
73
56
0
VERTEX
8
OBJECT__119
10
0
20
0
30
0
70
128
71
85
72
83
73
57
0
VERTEX
8
OBJECT__119
10
0
20
0
30
0
70
128
71
85
72
58
73
59
0
VERTEX
8
OBJECT__119
10
0
20
0
30
0
70
128
71
86
72
87
73
59
0
VERTEX
8
OBJECT__119
10
0
20
0
30
0
70
128
71
86
72
60
73
61
0
VERTEX
8
OBJECT__119
10
0
20
0
30
0
70
128
71
88
72
89
73
61
0
VERTEX
8
OBJECT__119
10
0
20
0
30
0
70
128
71
88
72
62
73
63
0
VERTEX
8
OBJECT__119
10
0
20
0
30
0
70
128
71
90
72
91
73
63
0
VERTEX
8
OBJECT__119
10
0
20
0
30
0
70
128
71
92
72
90
73
64
0
VERTEX
8
OBJECT__119
10
0
20
0
30
0
70
128
71
92
72
65
73
66
0
VERTEX
8
OBJECT__119
10
0
20
0
30
0
70
128
71
93
72
94
73
66
0
VERTEX
8
OBJECT__119
10
0
20
0
30
0
70
128
71
95
72
93
73
67
0
VERTEX
8
OBJECT__119
10
0
20
0
30
0
70
128
71
96
72
95
73
68
0
VERTEX
8
OBJECT__119
10
0
20
0
30
0
70
128
71
96
72
69
73
70
0
VERTEX
8
OBJECT__119
10
0
20
0
30
0
70
128
71
97
72
98
73
70
0
VERTEX
8
OBJECT__119
10
0
20
0
30
0
70
128
71
99
72
97
73
71
0
VERTEX
8
OBJECT__119
10
0
20
0
30
0
70
128
71
100
72
99
73
72
0
VERTEX
8
OBJECT__119
10
0
20
0
30
0
70
128
71
101
72
100
73
73
0
VERTEX
8
OBJECT__119
10
0
20
0
30
0
70
128
71
102
72
101
73
74
0
VERTEX
8
OBJECT__119
10
0
20
0
30
0
70
128
71
103
72
102
73
75
0
VERTEX
8
OBJECT__119
10
0
20
0
30
0
70
128
71
103
72
76
73
77
0
VERTEX
8
OBJECT__119
10
0
20
0
30
0
70
128
71
104
72
105
73
77
0
VERTEX
8
OBJECT__119
10
0
20
0
30
0
70
128
71
104
72
78
73
79
0
VERTEX
8
OBJECT__119
10
0
20
0
30
0
70
128
71
79
72
81
73
104
0
VERTEX
8
OBJECT__119
10
0
20
0
30
0
70
128
71
77
72
78
73
104
0
VERTEX
8
OBJECT__119
10
0
20
0
30
0
70
128
71
77
72
105
73
103
0
VERTEX
8
OBJECT__119
10
0
20
0
30
0
70
128
71
75
72
76
73
103
0
VERTEX
8
OBJECT__119
10
0
20
0
30
0
70
128
71
74
72
75
73
102
0
VERTEX
8
OBJECT__119
10
0
20
0
30
0
70
128
71
73
72
74
73
101
0
VERTEX
8
OBJECT__119
10
0
20
0
30
0
70
128
71
72
72
73
73
100
0
VERTEX
8
OBJECT__119
10
0
20
0
30
0
70
128
71
71
72
72
73
99
0
VERTEX
8
OBJECT__119
10
0
20
0
30
0
70
128
71
70
72
71
73
97
0
VERTEX
8
OBJECT__119
10
0
20
0
30
0
70
128
71
70
72
98
73
96
0
VERTEX
8
OBJECT__119
10
0
20
0
30
0
70
128
71
68
72
69
73
96
0
VERTEX
8
OBJECT__119
10
0
20
0
30
0
70
128
71
67
72
68
73
95
0
VERTEX
8
OBJECT__119
10
0
20
0
30
0
70
128
71
66
72
67
73
93
0
VERTEX
8
OBJECT__119
10
0
20
0
30
0
70
128
71
66
72
94
73
92
0
VERTEX
8
OBJECT__119
10
0
20
0
30
0
70
128
71
64
72
65
73
92
0
VERTEX
8
OBJECT__119
10
0
20
0
30
0
70
128
71
63
72
64
73
90
0
VERTEX
8
OBJECT__119
10
0
20
0
30
0
70
128
71
63
72
91
73
88
0
VERTEX
8
OBJECT__119
10
0
20
0
30
0
70
128
71
61
72
62
73
88
0
VERTEX
8
OBJECT__119
10
0
20
0
30
0
70
128
71
61
72
89
73
86
0
VERTEX
8
OBJECT__119
10
0
20
0
30
0
70
128
71
59
72
60
73
86
0
VERTEX
8
OBJECT__119
10
0
20
0
30
0
70
128
71
59
72
87
73
85
0
VERTEX
8
OBJECT__119
10
0
20
0
30
0
70
128
71
57
72
58
73
85
0
VERTEX
8
OBJECT__119
10
0
20
0
30
0
70
128
71
56
72
57
73
83
0
VERTEX
8
OBJECT__119
10
0
20
0
30
0
70
128
71
56
72
84
73
82
0
VERTEX
8
OBJECT__119
10
0
20
0
30
0
70
128
71
54
72
55
73
82
0
VERTEX
8
OBJECT__119
10
0
20
0
30
0
70
128
71
79
72
54
73
80
0
VERTEX
8
OBJECT__119
10
0
20
0
30
0
70
128
71
79
72
78
73
51
0
VERTEX
8
OBJECT__119
10
0
20
0
30
0
70
128
71
78
72
77
73
52
0
VERTEX
8
OBJECT__119
10
0
20
0
30
0
70
128
71
77
72
76
73
47
0
VERTEX
8
OBJECT__119
10
0
20
0
30
0
70
128
71
76
72
75
73
48
0
VERTEX
8
OBJECT__119
10
0
20
0
30
0
70
128
71
75
72
74
73
43
0
VERTEX
8
OBJECT__119
10
0
20
0
30
0
70
128
71
74
72
73
73
42
0
VERTEX
8
OBJECT__119
10
0
20
0
30
0
70
128
71
73
72
72
73
38
0
VERTEX
8
OBJECT__119
10
0
20
0
30
0
70
128
71
72
72
71
73
36
0
VERTEX
8
OBJECT__119
10
0
20
0
30
0
70
128
71
71
72
70
73
34
0
VERTEX
8
OBJECT__119
10
0
20
0
30
0
70
128
71
70
72
69
73
32
0
VERTEX
8
OBJECT__119
10
0
20
0
30
0
70
128
71
69
72
68
73
30
0
VERTEX
8
OBJECT__119
10
0
20
0
30
0
70
128
71
68
72
67
73
31
0
VERTEX
8
OBJECT__119
10
0
20
0
30
0
70
128
71
67
72
66
73
26
0
VERTEX
8
OBJECT__119
10
0
20
0
30
0
70
128
71
66
72
65
73
24
0
VERTEX
8
OBJECT__119
10
0
20
0
30
0
70
128
71
65
72
64
73
25
0
VERTEX
8
OBJECT__119
10
0
20
0
30
0
70
128
71
64
72
63
73
22
0
VERTEX
8
OBJECT__119
10
0
20
0
30
0
70
128
71
63
72
62
73
18
0
VERTEX
8
OBJECT__119
10
0
20
0
30
0
70
128
71
62
72
61
73
19
0
VERTEX
8
OBJECT__119
10
0
20
0
30
0
70
128
71
61
72
60
73
16
0
VERTEX
8
OBJECT__119
10
0
20
0
30
0
70
128
71
60
72
59
73
12
0
VERTEX
8
OBJECT__119
10
0
20
0
30
0
70
128
71
59
72
58
73
13
0
VERTEX
8
OBJECT__119
10
0
20
0
30
0
70
128
71
58
72
57
73
8
0
VERTEX
8
OBJECT__119
10
0
20
0
30
0
70
128
71
57
72
56
73
9
0
VERTEX
8
OBJECT__119
10
0
20
0
30
0
70
128
71
56
72
55
73
4
0
VERTEX
8
OBJECT__119
10
0
20
0
30
0
70
128
71
55
72
54
73
1
0
VERTEX
8
OBJECT__119
10
0
20
0
30
0
70
128
71
54
72
79
73
2
0
VERTEX
8
OBJECT__119
10
0
20
0
30
0
70
128
71
3
72
2
73
51
0
VERTEX
8
OBJECT__119
10
0
20
0
30
0
70
128
71
50
72
53
73
51
0
VERTEX
8
OBJECT__119
10
0
20
0
30
0
70
128
71
50
72
52
73
47
0
VERTEX
8
OBJECT__119
10
0
20
0
30
0
70
128
71
46
72
49
73
47
0
VERTEX
8
OBJECT__119
10
0
20
0
30
0
70
128
71
46
72
48
73
43
0
VERTEX
8
OBJECT__119
10
0
20
0
30
0
70
128
71
44
72
45
73
43
0
VERTEX
8
OBJECT__119
10
0
20
0
30
0
70
128
71
41
72
44
73
42
0
VERTEX
8
OBJECT__119
10
0
20
0
30
0
70
128
71
39
72
40
73
38
0
VERTEX
8
OBJECT__119
10
0
20
0
30
0
70
128
71
37
72
39
73
36
0
VERTEX
8
OBJECT__119
10
0
20
0
30
0
70
128
71
35
72
37
73
34
0
VERTEX
8
OBJECT__119
10
0
20
0
30
0
70
128
71
33
72
35
73
32
0
VERTEX
8
OBJECT__119
10
0
20
0
30
0
70
128
71
29
72
33
73
30
0
VERTEX
8
OBJECT__119
10
0
20
0
30
0
70
128
71
29
72
31
73
26
0
VERTEX
8
OBJECT__119
10
0
20
0
30
0
70
128
71
27
72
28
73
26
0
VERTEX
8
OBJECT__119
10
0
20
0
30
0
70
128
71
23
72
27
73
24
0
VERTEX
8
OBJECT__119
10
0
20
0
30
0
70
128
71
23
72
25
73
22
0
VERTEX
8
OBJECT__119
10
0
20
0
30
0
70
128
71
21
72
22
73
18
0
VERTEX
8
OBJECT__119
10
0
20
0
30
0
70
128
71
17
72
20
73
18
0
VERTEX
8
OBJECT__119
10
0
20
0
30
0
70
128
71
17
72
19
73
16
0
VERTEX
8
OBJECT__119
10
0
20
0
30
0
70
128
71
15
72
16
73
12
0
VERTEX
8
OBJECT__119
10
0
20
0
30
0
70
128
71
11
72
14
73
12
0
VERTEX
8
OBJECT__119
10
0
20
0
30
0
70
128
71
11
72
13
73
8
0
VERTEX
8
OBJECT__119
10
0
20
0
30
0
70
128
71
7
72
10
73
8
0
VERTEX
8
OBJECT__119
10
0
20
0
30
0
70
128
71
7
72
9
73
4
0
VERTEX
8
OBJECT__119
10
0
20
0
30
0
70
128
71
5
72
6
73
4
0
VERTEX
8
OBJECT__119
10
0
20
0
30
0
70
128
71
3
72
5
73
1
0
SEQEND
8
OBJECT__119
0
POLYLINE
8
OBJECT__120
66
1
70
64
71
68
72
68
62
253
0
VERTEX
8
OBJECT__120
10
-22.544001
20
0.000000
30
46.615002
70
192
0
VERTEX
8
OBJECT__120
10
-22.215000
20
0.000000
30
46.046001
70
192
0
VERTEX
8
OBJECT__120
10
-21.569000
20
-5.316000
30
46.046001
70
192
0
VERTEX
8
OBJECT__120
10
-19.670000
20
-10.324000
30
46.046001
70
192
0
VERTEX
8
OBJECT__120
10
-19.962000
20
-10.477000
30
46.615002
70
192
0
VERTEX
8
OBJECT__120
10
-21.033001
20
-7.653000
30
46.615002
70
192
0
VERTEX
8
OBJECT__120
10
-16.628000
20
-14.731000
30
46.046001
70
192
0
VERTEX
8
OBJECT__120
10
-17.216000
20
-14.454000
30
46.615002
70
192
0
VERTEX
8
OBJECT__120
10
-16.874001
20
-14.949000
30
46.615002
70
192
0
VERTEX
8
OBJECT__120
10
-12.806000
20
-18.552999
30
46.615002
70
192
0
VERTEX
8
OBJECT__120
10
-7.878000
20
-20.771000
30
46.046001
70
192
0
VERTEX
8
OBJECT__120
10
-7.994000
20
-21.079000
30
46.615002
70
192
0
VERTEX
8
OBJECT__120
10
-11.204000
20
-19.393999
30
46.615002
70
192
0
VERTEX
8
OBJECT__120
10
-12.619000
20
-18.282000
30
46.046001
70
192
0
VERTEX
8
OBJECT__120
10
-2.678000
20
-22.052999
30
46.046001
70
192
0
VERTEX
8
OBJECT__120
10
-3.888000
20
-22.091000
30
46.615002
70
192
0
VERTEX
8
OBJECT__120
10
-2.717000
20
-22.379999
30
46.615002
70
192
0
VERTEX
8
OBJECT__120
10
2.717000
20
-22.379999
30
46.615002
70
192
0
VERTEX
8
OBJECT__120
10
7.878000
20
-20.771000
30
46.046001
70
192
0
VERTEX
8
OBJECT__120
10
7.994000
20
-21.079000
30
46.615002
70
192
0
VERTEX
8
OBJECT__120
10
3.888000
20
-22.091000
30
46.615002
70
192
0
VERTEX
8
OBJECT__120
10
2.678000
20
-22.052999
30
46.046001
70
192
0
VERTEX
8
OBJECT__120
10
12.619000
20
-18.282000
30
46.046001
70
192
0
VERTEX
8
OBJECT__120
10
11.204000
20
-19.393999
30
46.615002
70
192
0
VERTEX
8
OBJECT__120
10
12.806000
20
-18.552999
30
46.615002
70
192
0
VERTEX
8
OBJECT__120
10
16.628000
20
-14.731000
30
46.046001
70
192
0
VERTEX
8
OBJECT__120
10
19.670000
20
-10.324000
30
46.046001
70
192
0
VERTEX
8
OBJECT__120
10
19.962000
20
-10.477000
30
46.615002
70
192
0
VERTEX
8
OBJECT__120
10
17.216000
20
-14.454000
30
46.615002
70
192
0
VERTEX
8
OBJECT__120
10
21.569000
20
-5.316000
30
46.046001
70
192
0
VERTEX
8
OBJECT__120
10
21.033001
20
-7.653000
30
46.615002
70
192
0
VERTEX
8
OBJECT__120
10
21.889000
20
-5.395000
30
46.615002
70
192
0
VERTEX
8
OBJECT__120
10
22.215000
20
0.000000
30
46.046001
70
192
0
VERTEX
8
OBJECT__120
10
21.889000
20
5.395000
30
46.615002
70
192
0
VERTEX
8
OBJECT__120
10
22.544001
20
0.000000
30
46.615002
70
192
0
VERTEX
8
OBJECT__120
10
19.670000
20
10.324000
30
46.046001
70
192
0
VERTEX
8
OBJECT__120
10
19.962000
20
10.477000
30
46.615002
70
192
0
VERTEX
8
OBJECT__120
10
21.033001
20
7.653000
30
46.615002
70
192
0
VERTEX
8
OBJECT__120
10
21.569000
20
5.316000
30
46.046001
70
192
0
VERTEX
8
OBJECT__120
10
16.628000
20
14.731000
30
46.046001
70
192
0
VERTEX
8
OBJECT__120
10
17.216000
20
14.454000
30
46.615002
70
192
0
VERTEX
8
OBJECT__120
10
16.874001
20
14.949000
30
46.615002
70
192
0
VERTEX
8
OBJECT__120
10
12.619000
20
18.282000
30
46.046001
70
192
0
VERTEX
8
OBJECT__120
10
7.878000
20
20.771000
30
46.046001
70
192
0
VERTEX
8
OBJECT__120
10
7.994000
20
21.079000
30
46.615002
70
192
0
VERTEX
8
OBJECT__120
10
11.204000
20
19.393999
30
46.615002
70
192
0
VERTEX
8
OBJECT__120
10
2.678000
20
22.052999
30
46.046001
70
192
0
VERTEX
8
OBJECT__120
10
3.888000
20
22.091000
30
46.615002
70
192
0
VERTEX
8
OBJECT__120
10
2.717000
20
22.379999
30
46.615002
70
192
0
VERTEX
8
OBJECT__120
10
-2.678000
20
22.052999
30
46.046001
70
192
0
VERTEX
8
OBJECT__120
10
-7.878000
20
20.771000
30
46.046001
70
192
0
VERTEX
8
OBJECT__120
10
-7.994000
20
21.079000
30
46.615002
70
192
0
VERTEX
8
OBJECT__120
10
-3.888000
20
22.091000
30
46.615002
70
192
0
VERTEX
8
OBJECT__120
10
-12.619000
20
18.282000
30
46.046001
70
192
0
VERTEX
8
OBJECT__120
10
-11.204000
20
19.393999
30
46.615002
70
192
0
VERTEX
8
OBJECT__120
10
-12.806000
20
18.552999
30
46.615002
70
192
0
VERTEX
8
OBJECT__120
10
-16.874001
20
14.949000
30
46.615002
70
192
0
VERTEX
8
OBJECT__120
10
-19.670000
20
10.324000
30
46.046001
70
192
0
VERTEX
8
OBJECT__120
10
-19.962000
20
10.477000
30
46.615002
70
192
0
VERTEX
8
OBJECT__120
10
-17.216000
20
14.454000
30
46.615002
70
192
0
VERTEX
8
OBJECT__120
10
-16.628000
20
14.731000
30
46.046001
70
192
0
VERTEX
8
OBJECT__120
10
-21.569000
20
5.316000
30
46.046001
70
192
0
VERTEX
8
OBJECT__120
10
-21.033001
20
7.653000
30
46.615002
70
192
0
VERTEX
8
OBJECT__120
10
-21.889000
20
5.395000
30
46.615002
70
192
0
VERTEX
8
OBJECT__120
10
-2.717000
20
22.379999
30
46.615002
70
192
0
VERTEX
8
OBJECT__120
10
12.806000
20
18.552999
30
46.615002
70
192
0
VERTEX
8
OBJECT__120
10
16.874001
20
-14.949000
30
46.615002
70
192
0
VERTEX
8
OBJECT__120
10
-21.889000
20
-5.395000
30
46.615002
70
192
0
VERTEX
8
OBJECT__120
10
0
20
0
30
0
70
128
71
1
72
2
73
3
0
VERTEX
8
OBJECT__120
10
0
20
0
30
0
70
128
71
4
72
5
73
6
0
VERTEX
8
OBJECT__120
10
0
20
0
30
0
70
128
71
6
72
3
73
4
0
VERTEX
8
OBJECT__120
10
0
20
0
30
0
70
128
71
4
72
7
73
8
0
VERTEX
8
OBJECT__120
10
0
20
0
30
0
70
128
71
7
72
9
73
8
0
VERTEX
8
OBJECT__120
10
0
20
0
30
0
70
128
71
10
72
9
73
7
0
VERTEX
8
OBJECT__120
10
0
20
0
30
0
70
128
71
11
72
12
73
13
0
VERTEX
8
OBJECT__120
10
0
20
0
30
0
70
128
71
13
72
14
73
11
0
VERTEX
8
OBJECT__120
10
0
20
0
30
0
70
128
71
11
72
15
73
16
0
VERTEX
8
OBJECT__120
10
0
20
0
30
0
70
128
71
15
72
17
73
16
0
VERTEX
8
OBJECT__120
10
0
20
0
30
0
70
128
71
18
72
17
73
15
0
VERTEX
8
OBJECT__120
10
0
20
0
30
0
70
128
71
19
72
20
73
21
0
VERTEX
8
OBJECT__120
10
0
20
0
30
0
70
128
71
21
72
22
73
19
0
VERTEX
8
OBJECT__120
10
0
20
0
30
0
70
128
71
19
72
23
73
24
0
VERTEX
8
OBJECT__120
10
0
20
0
30
0
70
128
71
23
72
25
73
24
0
VERTEX
8
OBJECT__120
10
0
20
0
30
0
70
128
71
25
72
23
73
26
0
VERTEX
8
OBJECT__120
10
0
20
0
30
0
70
128
71
27
72
28
73
29
0
VERTEX
8
OBJECT__120
10
0
20
0
30
0
70
128
71
29
72
26
73
27
0
VERTEX
8
OBJECT__120
10
0
20
0
30
0
70
128
71
27
72
30
73
31
0
VERTEX
8
OBJECT__120
10
0
20
0
30
0
70
128
71
30
72
32
73
31
0
VERTEX
8
OBJECT__120
10
0
20
0
30
0
70
128
71
32
72
30
73
33
0
VERTEX
8
OBJECT__120
10
0
20
0
30
0
70
128
71
34
72
35
73
33
0
VERTEX
8
OBJECT__120
10
0
20
0
30
0
70
128
71
36
72
37
73
38
0
VERTEX
8
OBJECT__120
10
0
20
0
30
0
70
128
71
38
72
39
73
36
0
VERTEX
8
OBJECT__120
10
0
20
0
30
0
70
128
71
36
72
40
73
41
0
VERTEX
8
OBJECT__120
10
0
20
0
30
0
70
128
71
40
72
42
73
41
0
VERTEX
8
OBJECT__120
10
0
20
0
30
0
70
128
71
42
72
40
73
43
0
VERTEX
8
OBJECT__120
10
0
20
0
30
0
70
128
71
44
72
45
73
46
0
VERTEX
8
OBJECT__120
10
0
20
0
30
0
70
128
71
46
72
43
73
44
0
VERTEX
8
OBJECT__120
10
0
20
0
30
0
70
128
71
44
72
47
73
48
0
VERTEX
8
OBJECT__120
10
0
20
0
30
0
70
128
71
47
72
49
73
48
0
VERTEX
8
OBJECT__120
10
0
20
0
30
0
70
128
71
49
72
47
73
50
0
VERTEX
8
OBJECT__120
10
0
20
0
30
0
70
128
71
51
72
52
73
53
0
VERTEX
8
OBJECT__120
10
0
20
0
30
0
70
128
71
53
72
50
73
51
0
VERTEX
8
OBJECT__120
10
0
20
0
30
0
70
128
71
51
72
54
73
55
0
VERTEX
8
OBJECT__120
10
0
20
0
30
0
70
128
71
54
72
56
73
55
0
VERTEX
8
OBJECT__120
10
0
20
0
30
0
70
128
71
57
72
56
73
54
0
VERTEX
8
OBJECT__120
10
0
20
0
30
0
70
128
71
58
72
59
73
60
0
VERTEX
8
OBJECT__120
10
0
20
0
30
0
70
128
71
60
72
61
73
58
0
VERTEX
8
OBJECT__120
10
0
20
0
30
0
70
128
71
58
72
62
73
63
0
VERTEX
8
OBJECT__120
10
0
20
0
30
0
70
128
71
62
72
64
73
63
0
VERTEX
8
OBJECT__120
10
0
20
0
30
0
70
128
71
64
72
62
73
2
0
VERTEX
8
OBJECT__120
10
0
20
0
30
0
70
128
71
2
72
1
73
64
0
VERTEX
8
OBJECT__120
10
0
20
0
30
0
70
128
71
63
72
59
73
58
0
VERTEX
8
OBJECT__120
10
0
20
0
30
0
70
128
71
60
72
57
73
61
0
VERTEX
8
OBJECT__120
10
0
20
0
30
0
70
128
71
54
72
61
73
57
0
VERTEX
8
OBJECT__120
10
0
20
0
30
0
70
128
71
55
72
52
73
51
0
VERTEX
8
OBJECT__120
10
0
20
0
30
0
70
128
71
53
72
65
73
50
0
VERTEX
8
OBJECT__120
10
0
20
0
30
0
70
128
71
50
72
65
73
49
0
VERTEX
8
OBJECT__120
10
0
20
0
30
0
70
128
71
48
72
45
73
44
0
VERTEX
8
OBJECT__120
10
0
20
0
30
0
70
128
71
46
72
66
73
43
0
VERTEX
8
OBJECT__120
10
0
20
0
30
0
70
128
71
43
72
66
73
42
0
VERTEX
8
OBJECT__120
10
0
20
0
30
0
70
128
71
41
72
37
73
36
0
VERTEX
8
OBJECT__120
10
0
20
0
30
0
70
128
71
38
72
34
73
39
0
VERTEX
8
OBJECT__120
10
0
20
0
30
0
70
128
71
33
72
39
73
34
0
VERTEX
8
OBJECT__120
10
0
20
0
30
0
70
128
71
33
72
35
73
32
0
VERTEX
8
OBJECT__120
10
0
20
0
30
0
70
128
71
31
72
28
73
27
0
VERTEX
8
OBJECT__120
10
0
20
0
30
0
70
128
71
29
72
67
73
26
0
VERTEX
8
OBJECT__120
10
0
20
0
30
0
70
128
71
26
72
67
73
25
0
VERTEX
8
OBJECT__120
10
0
20
0
30
0
70
128
71
24
72
20
73
19
0
VERTEX
8
OBJECT__120
10
0
20
0
30
0
70
128
71
21
72
18
73
22
0
VERTEX
8
OBJECT__120
10
0
20
0
30
0
70
128
71
15
72
22
73
18
0
VERTEX
8
OBJECT__120
10
0
20
0
30
0
70
128
71
16
72
12
73
11
0
VERTEX
8
OBJECT__120
10
0
20
0
30
0
70
128
71
13
72
10
73
14
0
VERTEX
8
OBJECT__120
10
0
20
0
30
0
70
128
71
7
72
14
73
10
0
VERTEX
8
OBJECT__120
10
0
20
0
30
0
70
128
71
8
72
5
73
4
0
VERTEX
8
OBJECT__120
10
0
20
0
30
0
70
128
71
6
72
68
73
3
0
VERTEX
8
OBJECT__120
10
0
20
0
30
0
70
128
71
3
72
68
73
1
0
SEQEND
8
OBJECT__120
0
POLYLINE
8
OBJECT__122
66
1
70
64
71
84
72
84
62
253
0
VERTEX
8
OBJECT__122
10
21.142000
20
7.693000
30
47.529999
70
192
0
VERTEX
8
OBJECT__122
10
22.003000
20
5.423000
30
47.529999
70
192
0
VERTEX
8
OBJECT__122
10
21.889000
20
5.395000
30
46.615002
70
192
0
VERTEX
8
OBJECT__122
10
22.660999
20
0.000000
30
47.529999
70
192
0
VERTEX
8
OBJECT__122
10
22.544001
20
0.000000
30
46.615002
70
192
0
VERTEX
8
OBJECT__122
10
17.306000
20
14.529000
30
47.529999
70
192
0
VERTEX
8
OBJECT__122
10
20.065001
20
10.531000
30
47.529999
70
192
0
VERTEX
8
OBJECT__122
10
19.962000
20
10.477000
30
46.615002
70
192
0
VERTEX
8
OBJECT__122
10
21.033001
20
7.653000
30
46.615002
70
192
0
VERTEX
8
OBJECT__122
10
11.262000
20
19.495001
30
47.529999
70
192
0
VERTEX
8
OBJECT__122
10
12.873000
20
18.650000
30
47.529999
70
192
0
VERTEX
8
OBJECT__122
10
12.806000
20
18.552999
30
46.615002
70
192
0
VERTEX
8
OBJECT__122
10
16.962000
20
15.027000
30
47.529999
70
192
0
VERTEX
8
OBJECT__122
10
16.874001
20
14.949000
30
46.615002
70
192
0
VERTEX
8
OBJECT__122
10
17.216000
20
14.454000
30
46.615002
70
192
0
VERTEX
8
OBJECT__122
10
3.908000
20
22.205999
30
47.529999
70
192
0
VERTEX
8
OBJECT__122
10
8.036000
20
21.188999
30
47.529999
70
192
0
VERTEX
8
OBJECT__122
10
7.994000
20
21.079000
30
46.615002
70
192
0
VERTEX
8
OBJECT__122
10
11.204000
20
19.393999
30
46.615002
70
192
0
VERTEX
8
OBJECT__122
10
-3.908000
20
22.205999
30
47.529999
70
192
0
VERTEX
8
OBJECT__122
10
-2.731000
20
22.496000
30
47.529999
70
192
0
VERTEX
8
OBJECT__122
10
-2.717000
20
22.379999
30
46.615002
70
192
0
VERTEX
8
OBJECT__122
10
2.731000
20
22.496000
30
47.529999
70
192
0
VERTEX
8
OBJECT__122
10
2.717000
20
22.379999
30
46.615002
70
192
0
VERTEX
8
OBJECT__122
10
3.888000
20
22.091000
30
46.615002
70
192
0
VERTEX
8
OBJECT__122
10
-11.262000
20
19.495001
30
47.529999
70
192
0
VERTEX
8
OBJECT__122
10
-8.036000
20
21.188999
30
47.529999
70
192
0
VERTEX
8
OBJECT__122
10
-7.994000
20
21.079000
30
46.615002
70
192
0
VERTEX
8
OBJECT__122
10
-3.888000
20
22.091000
30
46.615002
70
192
0
VERTEX
8
OBJECT__122
10
-17.306000
20
14.529000
30
47.529999
70
192
0
VERTEX
8
OBJECT__122
10
-16.962000
20
15.027000
30
47.529999
70
192
0
VERTEX
8
OBJECT__122
10
-16.874001
20
14.949000
30
46.615002
70
192
0
VERTEX
8
OBJECT__122
10
-12.873000
20
18.650000
30
47.529999
70
192
0
VERTEX
8
OBJECT__122
10
-12.806000
20
18.552999
30
46.615002
70
192
0
VERTEX
8
OBJECT__122
10
-11.204000
20
19.393999
30
46.615002
70
192
0
VERTEX
8
OBJECT__122
10
-21.142000
20
7.693000
30
47.529999
70
192
0
VERTEX
8
OBJECT__122
10
-20.065001
20
10.531000
30
47.529999
70
192
0
VERTEX
8
OBJECT__122
10
-19.962000
20
10.477000
30
46.615002
70
192
0
VERTEX
8
OBJECT__122
10
-17.216000
20
14.454000
30
46.615002
70
192
0
VERTEX
8
OBJECT__122
10
-22.660999
20
0.000000
30
47.529999
70
192
0
VERTEX
8
OBJECT__122
10
-22.003000
20
5.423000
30
47.529999
70
192
0
VERTEX
8
OBJECT__122
10
-21.889000
20
5.395000
30
46.615002
70
192
0
VERTEX
8
OBJECT__122
10
-21.033001
20
7.653000
30
46.615002
70
192
0
VERTEX
8
OBJECT__122
10
-21.142000
20
-7.693000
30
47.529999
70
192
0
VERTEX
8
OBJECT__122
10
-22.003000
20
-5.423000
30
47.529999
70
192
0
VERTEX
8
OBJECT__122
10
-21.889000
20
-5.395000
30
46.615002
70
192
0
VERTEX
8
OBJECT__122
10
-22.544001
20
0.000000
30
46.615002
70
192
0
VERTEX
8
OBJECT__122
10
-17.306000
20
-14.529000
30
47.529999
70
192
0
VERTEX
8
OBJECT__122
10
-20.065001
20
-10.531000
30
47.529999
70
192
0
VERTEX
8
OBJECT__122
10
-19.962000
20
-10.477000
30
46.615002
70
192
0
VERTEX
8
OBJECT__122
10
-21.033001
20
-7.653000
30
46.615002
70
192
0
VERTEX
8
OBJECT__122
10
-11.262000
20
-19.495001
30
47.529999
70
192
0
VERTEX
8
OBJECT__122
10
-12.873000
20
-18.650000
30
47.529999
70
192
0
VERTEX
8
OBJECT__122
10
-12.806000
20
-18.552999
30
46.615002
70
192
0
VERTEX
8
OBJECT__122
10
-16.962000
20
-15.027000
30
47.529999
70
192
0
VERTEX
8
OBJECT__122
10
-16.874001
20
-14.949000
30
46.615002
70
192
0
VERTEX
8
OBJECT__122
10
-17.216000
20
-14.454000
30
46.615002
70
192
0
VERTEX
8
OBJECT__122
10
-3.908000
20
-22.205999
30
47.529999
70
192
0
VERTEX
8
OBJECT__122
10
-8.036000
20
-21.188999
30
47.529999
70
192
0
VERTEX
8
OBJECT__122
10
-7.994000
20
-21.079000
30
46.615002
70
192
0
VERTEX
8
OBJECT__122
10
-11.204000
20
-19.393999
30
46.615002
70
192
0
VERTEX
8
OBJECT__122
10
3.908000
20
-22.205999
30
47.529999
70
192
0
VERTEX
8
OBJECT__122
10
2.731000
20
-22.496000
30
47.529999
70
192
0
VERTEX
8
OBJECT__122
10
2.717000
20
-22.379999
30
46.615002
70
192
0
VERTEX
8
OBJECT__122
10
-2.731000
20
-22.496000
30
47.529999
70
192
0
VERTEX
8
OBJECT__122
10
-2.717000
20
-22.379999
30
46.615002
70
192
0
VERTEX
8
OBJECT__122
10
-3.888000
20
-22.091000
30
46.615002
70
192
0
VERTEX
8
OBJECT__122
10
11.262000
20
-19.495001
30
47.529999
70
192
0
VERTEX
8
OBJECT__122
10
8.036000
20
-21.188999
30
47.529999
70
192
0
VERTEX
8
OBJECT__122
10
7.994000
20
-21.079000
30
46.615002
70
192
0
VERTEX
8
OBJECT__122
10
3.888000
20
-22.091000
30
46.615002
70
192
0
VERTEX
8
OBJECT__122
10
17.306000
20
-14.529000
30
47.529999
70
192
0
VERTEX
8
OBJECT__122
10
16.962000
20
-15.027000
30
47.529999
70
192
0
VERTEX
8
OBJECT__122
10
16.874001
20
-14.949000
30
46.615002
70
192
0
VERTEX
8
OBJECT__122
10
12.873000
20
-18.650000
30
47.529999
70
192
0
VERTEX
8
OBJECT__122
10
12.806000
20
-18.552999
30
46.615002
70
192
0
VERTEX
8
OBJECT__122
10
11.204000
20
-19.393999
30
46.615002
70
192
0
VERTEX
8
OBJECT__122
10
21.142000
20
-7.693000
30
47.529999
70
192
0
VERTEX
8
OBJECT__122
10
20.065001
20
-10.531000
30
47.529999
70
192
0
VERTEX
8
OBJECT__122
10
19.962000
20
-10.477000
30
46.615002
70
192
0
VERTEX
8
OBJECT__122
10
17.216000
20
-14.454000
30
46.615002
70
192
0
VERTEX
8
OBJECT__122
10
22.003000
20
-5.423000
30
47.529999
70
192
0
VERTEX
8
OBJECT__122
10
21.889000
20
-5.395000
30
46.615002
70
192
0
VERTEX
8
OBJECT__122
10
21.033001
20
-7.653000
30
46.615002
70
192
0
VERTEX
8
OBJECT__122
10
0
20
0
30
0
70
128
71
1
72
2
73
3
0
VERTEX
8
OBJECT__122
10
0
20
0
30
0
70
128
71
2
72
4
73
5
0
VERTEX
8
OBJECT__122
10
0
20
0
30
0
70
128
71
5
72
3
73
2
0
VERTEX
8
OBJECT__122
10
0
20
0
30
0
70
128
71
6
72
7
73
8
0
VERTEX
8
OBJECT__122
10
0
20
0
30
0
70
128
71
1
72
9
73
8
0
VERTEX
8
OBJECT__122
10
0
20
0
30
0
70
128
71
8
72
7
73
1
0
VERTEX
8
OBJECT__122
10
0
20
0
30
0
70
128
71
10
72
11
73
12
0
VERTEX
8
OBJECT__122
10
0
20
0
30
0
70
128
71
11
72
13
73
14
0
VERTEX
8
OBJECT__122
10
0
20
0
30
0
70
128
71
14
72
12
73
11
0
VERTEX
8
OBJECT__122
10
0
20
0
30
0
70
128
71
6
72
15
73
14
0
VERTEX
8
OBJECT__122
10
0
20
0
30
0
70
128
71
14
72
13
73
6
0
VERTEX
8
OBJECT__122
10
0
20
0
30
0
70
128
71
16
72
17
73
18
0
VERTEX
8
OBJECT__122
10
0
20
0
30
0
70
128
71
10
72
19
73
18
0
VERTEX
8
OBJECT__122
10
0
20
0
30
0
70
128
71
18
72
17
73
10
0
VERTEX
8
OBJECT__122
10
0
20
0
30
0
70
128
71
20
72
21
73
22
0
VERTEX
8
OBJECT__122
10
0
20
0
30
0
70
128
71
21
72
23
73
24
0
VERTEX
8
OBJECT__122
10
0
20
0
30
0
70
128
71
24
72
22
73
21
0
VERTEX
8
OBJECT__122
10
0
20
0
30
0
70
128
71
16
72
25
73
24
0
VERTEX
8
OBJECT__122
10
0
20
0
30
0
70
128
71
24
72
23
73
16
0
VERTEX
8
OBJECT__122
10
0
20
0
30
0
70
128
71
26
72
27
73
28
0
VERTEX
8
OBJECT__122
10
0
20
0
30
0
70
128
71
20
72
29
73
28
0
VERTEX
8
OBJECT__122
10
0
20
0
30
0
70
128
71
28
72
27
73
20
0
VERTEX
8
OBJECT__122
10
0
20
0
30
0
70
128
71
30
72
31
73
32
0
VERTEX
8
OBJECT__122
10
0
20
0
30
0
70
128
71
31
72
33
73
34
0
VERTEX
8
OBJECT__122
10
0
20
0
30
0
70
128
71
26
72
35
73
34
0
VERTEX
8
OBJECT__122
10
0
20
0
30
0
70
128
71
34
72
33
73
26
0
VERTEX
8
OBJECT__122
10
0
20
0
30
0
70
128
71
34
72
32
73
31
0
VERTEX
8
OBJECT__122
10
0
20
0
30
0
70
128
71
36
72
37
73
38
0
VERTEX
8
OBJECT__122
10
0
20
0
30
0
70
128
71
30
72
39
73
38
0
VERTEX
8
OBJECT__122
10
0
20
0
30
0
70
128
71
38
72
37
73
30
0
VERTEX
8
OBJECT__122
10
0
20
0
30
0
70
128
71
40
72
41
73
42
0
VERTEX
8
OBJECT__122
10
0
20
0
30
0
70
128
71
36
72
43
73
42
0
VERTEX
8
OBJECT__122
10
0
20
0
30
0
70
128
71
42
72
41
73
36
0
VERTEX
8
OBJECT__122
10
0
20
0
30
0
70
128
71
44
72
45
73
46
0
VERTEX
8
OBJECT__122
10
0
20
0
30
0
70
128
71
45
72
40
73
47
0
VERTEX
8
OBJECT__122
10
0
20
0
30
0
70
128
71
47
72
46
73
45
0
VERTEX
8
OBJECT__122
10
0
20
0
30
0
70
128
71
48
72
49
73
50
0
VERTEX
8
OBJECT__122
10
0
20
0
30
0
70
128
71
44
72
51
73
50
0
VERTEX
8
OBJECT__122
10
0
20
0
30
0
70
128
71
50
72
49
73
44
0
VERTEX
8
OBJECT__122
10
0
20
0
30
0
70
128
71
52
72
53
73
54
0
VERTEX
8
OBJECT__122
10
0
20
0
30
0
70
128
71
55
72
56
73
54
0
VERTEX
8
OBJECT__122
10
0
20
0
30
0
70
128
71
54
72
53
73
55
0
VERTEX
8
OBJECT__122
10
0
20
0
30
0
70
128
71
48
72
57
73
56
0
VERTEX
8
OBJECT__122
10
0
20
0
30
0
70
128
71
56
72
55
73
48
0
VERTEX
8
OBJECT__122
10
0
20
0
30
0
70
128
71
58
72
59
73
60
0
VERTEX
8
OBJECT__122
10
0
20
0
30
0
70
128
71
52
72
61
73
60
0
VERTEX
8
OBJECT__122
10
0
20
0
30
0
70
128
71
60
72
59
73
52
0
VERTEX
8
OBJECT__122
10
0
20
0
30
0
70
128
71
62
72
63
73
64
0
VERTEX
8
OBJECT__122
10
0
20
0
30
0
70
128
71
63
72
65
73
66
0
VERTEX
8
OBJECT__122
10
0
20
0
30
0
70
128
71
58
72
67
73
66
0
VERTEX
8
OBJECT__122
10
0
20
0
30
0
70
128
71
66
72
65
73
58
0
VERTEX
8
OBJECT__122
10
0
20
0
30
0
70
128
71
66
72
64
73
63
0
VERTEX
8
OBJECT__122
10
0
20
0
30
0
70
128
71
68
72
69
73
70
0
VERTEX
8
OBJECT__122
10
0
20
0
30
0
70
128
71
62
72
71
73
70
0
VERTEX
8
OBJECT__122
10
0
20
0
30
0
70
128
71
70
72
69
73
62
0
VERTEX
8
OBJECT__122
10
0
20
0
30
0
70
128
71
72
72
73
73
74
0
VERTEX
8
OBJECT__122
10
0
20
0
30
0
70
128
71
73
72
75
73
76
0
VERTEX
8
OBJECT__122
10
0
20
0
30
0
70
128
71
68
72
77
73
76
0
VERTEX
8
OBJECT__122
10
0
20
0
30
0
70
128
71
76
72
75
73
68
0
VERTEX
8
OBJECT__122
10
0
20
0
30
0
70
128
71
76
72
74
73
73
0
VERTEX
8
OBJECT__122
10
0
20
0
30
0
70
128
71
78
72
79
73
80
0
VERTEX
8
OBJECT__122
10
0
20
0
30
0
70
128
71
72
72
81
73
80
0
VERTEX
8
OBJECT__122
10
0
20
0
30
0
70
128
71
80
72
79
73
72
0
VERTEX
8
OBJECT__122
10
0
20
0
30
0
70
128
71
4
72
82
73
83
0
VERTEX
8
OBJECT__122
10
0
20
0
30
0
70
128
71
78
72
84
73
83
0
VERTEX
8
OBJECT__122
10
0
20
0
30
0
70
128
71
83
72
82
73
78
0
VERTEX
8
OBJECT__122
10
0
20
0
30
0
70
128
71
83
72
5
73
4
0
VERTEX
8
OBJECT__122
10
0
20
0
30
0
70
128
71
80
72
84
73
78
0
VERTEX
8
OBJECT__122
10
0
20
0
30
0
70
128
71
74
72
81
73
72
0
VERTEX
8
OBJECT__122
10
0
20
0
30
0
70
128
71
70
72
77
73
68
0
VERTEX
8
OBJECT__122
10
0
20
0
30
0
70
128
71
64
72
71
73
62
0
VERTEX
8
OBJECT__122
10
0
20
0
30
0
70
128
71
60
72
67
73
58
0
VERTEX
8
OBJECT__122
10
0
20
0
30
0
70
128
71
54
72
61
73
52
0
VERTEX
8
OBJECT__122
10
0
20
0
30
0
70
128
71
50
72
57
73
48
0
VERTEX
8
OBJECT__122
10
0
20
0
30
0
70
128
71
46
72
51
73
44
0
VERTEX
8
OBJECT__122
10
0
20
0
30
0
70
128
71
42
72
47
73
40
0
VERTEX
8
OBJECT__122
10
0
20
0
30
0
70
128
71
38
72
43
73
36
0
VERTEX
8
OBJECT__122
10
0
20
0
30
0
70
128
71
32
72
39
73
30
0
VERTEX
8
OBJECT__122
10
0
20
0
30
0
70
128
71
28
72
35
73
26
0
VERTEX
8
OBJECT__122
10
0
20
0
30
0
70
128
71
22
72
29
73
20
0
VERTEX
8
OBJECT__122
10
0
20
0
30
0
70
128
71
18
72
25
73
16
0
VERTEX
8
OBJECT__122
10
0
20
0
30
0
70
128
71
12
72
19
73
10
0
VERTEX
8
OBJECT__122
10
0
20
0
30
0
70
128
71
8
72
15
73
6
0
VERTEX
8
OBJECT__122
10
0
20
0
30
0
70
128
71
3
72
9
73
1
0
SEQEND
8
OBJECT__122
0
POLYLINE
8
OBJECT__123
66
1
70
64
71
94
72
120
62
253
0
VERTEX
8
OBJECT__123
10
-22.003000
20
-5.423000
30
47.529999
70
192
0
VERTEX
8
OBJECT__123
10
-21.955999
20
-5.412000
30
47.687000
70
192
0
VERTEX
8
OBJECT__123
10
-22.613001
20
0.000000
30
47.687000
70
192
0
VERTEX
8
OBJECT__123
10
-20.023001
20
-10.509000
30
47.687000
70
192
0
VERTEX
8
OBJECT__123
10
-21.142000
20
-7.693000
30
47.529999
70
192
0
VERTEX
8
OBJECT__123
10
-20.065001
20
-10.531000
30
47.529999
70
192
0
VERTEX
8
OBJECT__123
10
-17.306000
20
-14.529000
30
47.529999
70
192
0
VERTEX
8
OBJECT__123
10
-16.926001
20
-14.995000
30
47.687000
70
192
0
VERTEX
8
OBJECT__123
10
-12.873000
20
-18.650000
30
47.529999
70
192
0
VERTEX
8
OBJECT__123
10
-12.846000
20
-18.610001
30
47.687000
70
192
0
VERTEX
8
OBJECT__123
10
-8.019000
20
-21.143000
30
47.687000
70
192
0
VERTEX
8
OBJECT__123
10
-11.262000
20
-19.495001
30
47.529999
70
192
0
VERTEX
8
OBJECT__123
10
-8.036000
20
-21.188999
30
47.529999
70
192
0
VERTEX
8
OBJECT__123
10
-3.908000
20
-22.205999
30
47.529999
70
192
0
VERTEX
8
OBJECT__123
10
-2.726000
20
-22.448000
30
47.687000
70
192
0
VERTEX
8
OBJECT__123
10
2.731000
20
-22.496000
30
47.529999
70
192
0
VERTEX
8
OBJECT__123
10
2.726000
20
-22.448000
30
47.687000
70
192
0
VERTEX
8
OBJECT__123
10
8.019000
20
-21.143000
30
47.687000
70
192
0
VERTEX
8
OBJECT__123
10
3.908000
20
-22.205999
30
47.529999
70
192
0
VERTEX
8
OBJECT__123
10
8.036000
20
-21.188999
30
47.529999
70
192
0
VERTEX
8
OBJECT__123
10
11.262000
20
-19.495001
30
47.529999
70
192
0
VERTEX
8
OBJECT__123
10
12.846000
20
-18.610001
30
47.687000
70
192
0
VERTEX
8
OBJECT__123
10
12.873000
20
-18.650000
30
47.529999
70
192
0
VERTEX
8
OBJECT__123
10
16.962000
20
-15.027000
30
47.529999
70
192
0
VERTEX
8
OBJECT__123
10
16.926001
20
-14.995000
30
47.687000
70
192
0
VERTEX
8
OBJECT__123
10
20.023001
20
-10.509000
30
47.687000
70
192
0
VERTEX
8
OBJECT__123
10
17.306000
20
-14.529000
30
47.529999
70
192
0
VERTEX
8
OBJECT__123
10
20.065001
20
-10.531000
30
47.529999
70
192
0
VERTEX
8
OBJECT__123
10
21.142000
20
-7.693000
30
47.529999
70
192
0
VERTEX
8
OBJECT__123
10
21.955999
20
-5.412000
30
47.687000
70
192
0
VERTEX
8
OBJECT__123
10
22.660999
20
0.000000
30
47.529999
70
192
0
VERTEX
8
OBJECT__123
10
22.613001
20
0.000000
30
47.687000
70
192
0
VERTEX
8
OBJECT__123
10
22.003000
20
5.423000
30
47.529999
70
192
0
VERTEX
8
OBJECT__123
10
21.955999
20
5.412000
30
47.687000
70
192
0
VERTEX
8
OBJECT__123
10
20.023001
20
10.509000
30
47.687000
70
192
0
VERTEX
8
OBJECT__123
10
21.142000
20
7.693000
30
47.529999
70
192
0
VERTEX
8
OBJECT__123
10
20.065001
20
10.531000
30
47.529999
70
192
0
VERTEX
8
OBJECT__123
10
17.306000
20
14.529000
30
47.529999
70
192
0
VERTEX
8
OBJECT__123
10
16.926001
20
14.995000
30
47.687000
70
192
0
VERTEX
8
OBJECT__123
10
16.962000
20
15.027000
30
47.529999
70
192
0
VERTEX
8
OBJECT__123
10
12.873000
20
18.650000
30
47.529999
70
192
0
VERTEX
8
OBJECT__123
10
12.846000
20
18.610001
30
47.687000
70
192
0
VERTEX
8
OBJECT__123
10
8.019000
20
21.143000
30
47.687000
70
192
0
VERTEX
8
OBJECT__123
10
11.262000
20
19.495001
30
47.529999
70
192
0
VERTEX
8
OBJECT__123
10
8.036000
20
21.188999
30
47.529999
70
192
0
VERTEX
8
OBJECT__123
10
3.908000
20
22.205999
30
47.529999
70
192
0
VERTEX
8
OBJECT__123
10
2.726000
20
22.448000
30
47.687000
70
192
0
VERTEX
8
OBJECT__123
10
2.731000
20
22.496000
30
47.529999
70
192
0
VERTEX
8
OBJECT__123
10
-2.731000
20
22.496000
30
47.529999
70
192
0
VERTEX
8
OBJECT__123
10
-2.726000
20
22.448000
30
47.687000
70
192
0
VERTEX
8
OBJECT__123
10
-8.019000
20
21.143000
30
47.687000
70
192
0
VERTEX
8
OBJECT__123
10
-3.908000
20
22.205999
30
47.529999
70
192
0
VERTEX
8
OBJECT__123
10
-8.036000
20
21.188999
30
47.529999
70
192
0
VERTEX
8
OBJECT__123
10
-11.262000
20
19.495001
30
47.529999
70
192
0
VERTEX
8
OBJECT__123
10
-12.846000
20
18.610001
30
47.687000
70
192
0
VERTEX
8
OBJECT__123
10
-12.873000
20
18.650000
30
47.529999
70
192
0
VERTEX
8
OBJECT__123
10
-16.962000
20
15.027000
30
47.529999
70
192
0
VERTEX
8
OBJECT__123
10
-16.926001
20
14.995000
30
47.687000
70
192
0
VERTEX
8
OBJECT__123
10
-20.023001
20
10.509000
30
47.687000
70
192
0
VERTEX
8
OBJECT__123
10
-17.306000
20
14.529000
30
47.529999
70
192
0
VERTEX
8
OBJECT__123
10
-20.065001
20
10.531000
30
47.529999
70
192
0
VERTEX
8
OBJECT__123
10
-21.142000
20
7.693000
30
47.529999
70
192
0
VERTEX
8
OBJECT__123
10
-21.955999
20
5.412000
30
47.687000
70
192
0
VERTEX
8
OBJECT__123
10
-22.003000
20
5.423000
30
47.529999
70
192
0
VERTEX
8
OBJECT__123
10
-22.660999
20
0.000000
30
47.529999
70
192
0
VERTEX
8
OBJECT__123
10
-21.809999
20
-5.376000
30
47.755001
70
192
0
VERTEX
8
OBJECT__123
10
-22.462999
20
0.000000
30
47.755001
70
192
0
VERTEX
8
OBJECT__123
10
-19.889999
20
-10.439000
30
47.755001
70
192
0
VERTEX
8
OBJECT__123
10
-16.813999
20
-14.896000
30
47.755001
70
192
0
VERTEX
8
OBJECT__123
10
-12.760000
20
-18.486000
30
47.755001
70
192
0
VERTEX
8
OBJECT__123
10
-7.965000
20
-21.003000
30
47.755001
70
192
0
VERTEX
8
OBJECT__123
10
-2.708000
20
-22.299000
30
47.755001
70
192
0
VERTEX
8
OBJECT__123
10
2.708000
20
-22.299000
30
47.755001
70
192
0
VERTEX
8
OBJECT__123
10
7.965000
20
-21.003000
30
47.755001
70
192
0
VERTEX
8
OBJECT__123
10
12.760000
20
-18.486000
30
47.755001
70
192
0
VERTEX
8
OBJECT__123
10
16.813999
20
-14.896000
30
47.755001
70
192
0
VERTEX
8
OBJECT__123
10
19.889999
20
-10.439000
30
47.755001
70
192
0
VERTEX
8
OBJECT__123
10
21.809999
20
-5.376000
30
47.755001
70
192
0
VERTEX
8
OBJECT__123
10
22.462999
20
0.000000
30
47.755001
70
192
0
VERTEX
8
OBJECT__123
10
21.809999
20
5.376000
30
47.755001
70
192
0
VERTEX
8
OBJECT__123
10
19.889999
20
10.439000
30
47.755001
70
192
0
VERTEX
8
OBJECT__123
10
16.813999
20
14.896000
30
47.755001
70
192
0
VERTEX
8
OBJECT__123
10
12.760000
20
18.486000
30
47.755001
70
192
0
VERTEX
8
OBJECT__123
10
7.965000
20
21.003000
30
47.755001
70
192
0
VERTEX
8
OBJECT__123
10
2.708000
20
22.299000
30
47.755001
70
192
0
VERTEX
8
OBJECT__123
10
-2.708000
20
22.299000
30
47.755001
70
192
0
VERTEX
8
OBJECT__123
10
-7.965000
20
21.003000
30
47.755001
70
192
0
VERTEX
8
OBJECT__123
10
-12.760000
20
18.486000
30
47.755001
70
192
0
VERTEX
8
OBJECT__123
10
-16.813999
20
14.896000
30
47.755001
70
192
0
VERTEX
8
OBJECT__123
10
-19.889999
20
10.439000
30
47.755001
70
192
0
VERTEX
8
OBJECT__123
10
-21.809999
20
5.376000
30
47.755001
70
192
0
VERTEX
8
OBJECT__123
10
22.003000
20
-5.423000
30
47.529999
70
192
0
VERTEX
8
OBJECT__123
10
-2.731000
20
-22.496000
30
47.529999
70
192
0
VERTEX
8
OBJECT__123
10
-16.962000
20
-15.027000
30
47.529999
70
192
0
VERTEX
8
OBJECT__123
10
0
20
0
30
0
70
128
71
1
72
2
73
3
0
VERTEX
8
OBJECT__123
10
0
20
0
30
0
70
128
71
4
72
2
73
5
0
VERTEX
8
OBJECT__123
10
0
20
0
30
0
70
128
71
2
72
1
73
5
0
VERTEX
8
OBJECT__123
10
0
20
0
30
0
70
128
71
4
72
6
73
7
0
VERTEX
8
OBJECT__123
10
0
20
0
30
0
70
128
71
7
72
8
73
4
0
VERTEX
8
OBJECT__123
10
0
20
0
30
0
70
128
71
9
72
10
73
8
0
VERTEX
8
OBJECT__123
10
0
20
0
30
0
70
128
71
11
72
10
73
12
0
VERTEX
8
OBJECT__123
10
0
20
0
30
0
70
128
71
10
72
9
73
12
0
VERTEX
8
OBJECT__123
10
0
20
0
30
0
70
128
71
11
72
13
73
14
0
VERTEX
8
OBJECT__123
10
0
20
0
30
0
70
128
71
14
72
15
73
11
0
VERTEX
8
OBJECT__123
10
0
20
0
30
0
70
128
71
16
72
17
73
15
0
VERTEX
8
OBJECT__123
10
0
20
0
30
0
70
128
71
18
72
17
73
19
0
VERTEX
8
OBJECT__123
10
0
20
0
30
0
70
128
71
17
72
16
73
19
0
VERTEX
8
OBJECT__123
10
0
20
0
30
0
70
128
71
18
72
20
73
21
0
VERTEX
8
OBJECT__123
10
0
20
0
30
0
70
128
71
21
72
22
73
18
0
VERTEX
8
OBJECT__123
10
0
20
0
30
0
70
128
71
23
72
24
73
25
0
VERTEX
8
OBJECT__123
10
0
20
0
30
0
70
128
71
26
72
25
73
27
0
VERTEX
8
OBJECT__123
10
0
20
0
30
0
70
128
71
25
72
24
73
27
0
VERTEX
8
OBJECT__123
10
0
20
0
30
0
70
128
71
26
72
28
73
29
0
VERTEX
8
OBJECT__123
10
0
20
0
30
0
70
128
71
29
72
30
73
26
0
VERTEX
8
OBJECT__123
10
0
20
0
30
0
70
128
71
31
72
32
73
30
0
VERTEX
8
OBJECT__123
10
0
20
0
30
0
70
128
71
31
72
33
73
34
0
VERTEX
8
OBJECT__123
10
0
20
0
30
0
70
128
71
35
72
34
73
36
0
VERTEX
8
OBJECT__123
10
0
20
0
30
0
70
128
71
34
72
33
73
36
0
VERTEX
8
OBJECT__123
10
0
20
0
30
0
70
128
71
35
72
37
73
38
0
VERTEX
8
OBJECT__123
10
0
20
0
30
0
70
128
71
38
72
39
73
35
0
VERTEX
8
OBJECT__123
10
0
20
0
30
0
70
128
71
40
72
41
73
42
0
VERTEX
8
OBJECT__123
10
0
20
0
30
0
70
128
71
43
72
42
73
44
0
VERTEX
8
OBJECT__123
10
0
20
0
30
0
70
128
71
42
72
41
73
44
0
VERTEX
8
OBJECT__123
10
0
20
0
30
0
70
128
71
43
72
45
73
46
0
VERTEX
8
OBJECT__123
10
0
20
0
30
0
70
128
71
46
72
47
73
43
0
VERTEX
8
OBJECT__123
10
0
20
0
30
0
70
128
71
48
72
49
73
50
0
VERTEX
8
OBJECT__123
10
0
20
0
30
0
70
128
71
51
72
50
73
52
0
VERTEX
8
OBJECT__123
10
0
20
0
30
0
70
128
71
50
72
49
73
52
0
VERTEX
8
OBJECT__123
10
0
20
0
30
0
70
128
71
51
72
53
73
54
0
VERTEX
8
OBJECT__123
10
0
20
0
30
0
70
128
71
54
72
55
73
51
0
VERTEX
8
OBJECT__123
10
0
20
0
30
0
70
128
71
56
72
57
73
58
0
VERTEX
8
OBJECT__123
10
0
20
0
30
0
70
128
71
59
72
58
73
60
0
VERTEX
8
OBJECT__123
10
0
20
0
30
0
70
128
71
58
72
57
73
60
0
VERTEX
8
OBJECT__123
10
0
20
0
30
0
70
128
71
59
72
61
73
62
0
VERTEX
8
OBJECT__123
10
0
20
0
30
0
70
128
71
62
72
63
73
59
0
VERTEX
8
OBJECT__123
10
0
20
0
30
0
70
128
71
64
72
65
73
3
0
VERTEX
8
OBJECT__123
10
0
20
0
30
0
70
128
71
2
72
66
73
67
0
VERTEX
8
OBJECT__123
10
0
20
0
30
0
70
128
71
4
72
68
73
66
0
VERTEX
8
OBJECT__123
10
0
20
0
30
0
70
128
71
8
72
69
73
68
0
VERTEX
8
OBJECT__123
10
0
20
0
30
0
70
128
71
8
72
10
73
70
0
VERTEX
8
OBJECT__123
10
0
20
0
30
0
70
128
71
10
72
11
73
71
0
VERTEX
8
OBJECT__123
10
0
20
0
30
0
70
128
71
15
72
72
73
71
0
VERTEX
8
OBJECT__123
10
0
20
0
30
0
70
128
71
17
72
73
73
72
0
VERTEX
8
OBJECT__123
10
0
20
0
30
0
70
128
71
17
72
18
73
74
0
VERTEX
8
OBJECT__123
10
0
20
0
30
0
70
128
71
22
72
75
73
74
0
VERTEX
8
OBJECT__123
10
0
20
0
30
0
70
128
71
25
72
76
73
75
0
VERTEX
8
OBJECT__123
10
0
20
0
30
0
70
128
71
25
72
26
73
77
0
VERTEX
8
OBJECT__123
10
0
20
0
30
0
70
128
71
30
72
78
73
77
0
VERTEX
8
OBJECT__123
10
0
20
0
30
0
70
128
71
32
72
79
73
78
0
VERTEX
8
OBJECT__123
10
0
20
0
30
0
70
128
71
32
72
34
73
80
0
VERTEX
8
OBJECT__123
10
0
20
0
30
0
70
128
71
34
72
35
73
81
0
VERTEX
8
OBJECT__123
10
0
20
0
30
0
70
128
71
35
72
39
73
82
0
VERTEX
8
OBJECT__123
10
0
20
0
30
0
70
128
71
39
72
42
73
83
0
VERTEX
8
OBJECT__123
10
0
20
0
30
0
70
128
71
43
72
84
73
83
0
VERTEX
8
OBJECT__123
10
0
20
0
30
0
70
128
71
43
72
47
73
85
0
VERTEX
8
OBJECT__123
10
0
20
0
30
0
70
128
71
47
72
50
73
86
0
VERTEX
8
OBJECT__123
10
0
20
0
30
0
70
128
71
51
72
87
73
86
0
VERTEX
8
OBJECT__123
10
0
20
0
30
0
70
128
71
55
72
88
73
87
0
VERTEX
8
OBJECT__123
10
0
20
0
30
0
70
128
71
58
72
89
73
88
0
VERTEX
8
OBJECT__123
10
0
20
0
30
0
70
128
71
58
72
59
73
90
0
VERTEX
8
OBJECT__123
10
0
20
0
30
0
70
128
71
59
72
63
73
91
0
VERTEX
8
OBJECT__123
10
0
20
0
30
0
70
128
71
63
72
3
73
67
0
VERTEX
8
OBJECT__123
10
0
20
0
30
0
70
128
71
67
72
91
73
63
0
VERTEX
8
OBJECT__123
10
0
20
0
30
0
70
128
71
91
72
90
73
59
0
VERTEX
8
OBJECT__123
10
0
20
0
30
0
70
128
71
90
72
89
73
58
0
VERTEX
8
OBJECT__123
10
0
20
0
30
0
70
128
71
88
72
55
73
58
0
VERTEX
8
OBJECT__123
10
0
20
0
30
0
70
128
71
87
72
51
73
55
0
VERTEX
8
OBJECT__123
10
0
20
0
30
0
70
128
71
86
72
50
73
51
0
VERTEX
8
OBJECT__123
10
0
20
0
30
0
70
128
71
86
72
85
73
47
0
VERTEX
8
OBJECT__123
10
0
20
0
30
0
70
128
71
85
72
84
73
43
0
VERTEX
8
OBJECT__123
10
0
20
0
30
0
70
128
71
83
72
42
73
43
0
VERTEX
8
OBJECT__123
10
0
20
0
30
0
70
128
71
83
72
82
73
39
0
VERTEX
8
OBJECT__123
10
0
20
0
30
0
70
128
71
82
72
81
73
35
0
VERTEX
8
OBJECT__123
10
0
20
0
30
0
70
128
71
81
72
80
73
34
0
VERTEX
8
OBJECT__123
10
0
20
0
30
0
70
128
71
80
72
79
73
32
0
VERTEX
8
OBJECT__123
10
0
20
0
30
0
70
128
71
78
72
30
73
32
0
VERTEX
8
OBJECT__123
10
0
20
0
30
0
70
128
71
77
72
26
73
30
0
VERTEX
8
OBJECT__123
10
0
20
0
30
0
70
128
71
77
72
76
73
25
0
VERTEX
8
OBJECT__123
10
0
20
0
30
0
70
128
71
75
72
22
73
25
0
VERTEX
8
OBJECT__123
10
0
20
0
30
0
70
128
71
74
72
18
73
22
0
VERTEX
8
OBJECT__123
10
0
20
0
30
0
70
128
71
74
72
73
73
17
0
VERTEX
8
OBJECT__123
10
0
20
0
30
0
70
128
71
72
72
15
73
17
0
VERTEX
8
OBJECT__123
10
0
20
0
30
0
70
128
71
71
72
11
73
15
0
VERTEX
8
OBJECT__123
10
0
20
0
30
0
70
128
71
71
72
70
73
10
0
VERTEX
8
OBJECT__123
10
0
20
0
30
0
70
128
71
70
72
69
73
8
0
VERTEX
8
OBJECT__123
10
0
20
0
30
0
70
128
71
68
72
4
73
8
0
VERTEX
8
OBJECT__123
10
0
20
0
30
0
70
128
71
66
72
2
73
4
0
VERTEX
8
OBJECT__123
10
0
20
0
30
0
70
128
71
67
72
3
73
2
0
VERTEX
8
OBJECT__123
10
0
20
0
30
0
70
128
71
3
72
63
73
64
0
VERTEX
8
OBJECT__123
10
0
20
0
30
0
70
128
71
62
72
64
73
63
0
VERTEX
8
OBJECT__123
10
0
20
0
30
0
70
128
71
60
72
61
73
59
0
VERTEX
8
OBJECT__123
10
0
20
0
30
0
70
128
71
58
72
55
73
56
0
VERTEX
8
OBJECT__123
10
0
20
0
30
0
70
128
71
54
72
56
73
55
0
VERTEX
8
OBJECT__123
10
0
20
0
30
0
70
128
71
52
72
53
73
51
0
VERTEX
8
OBJECT__123
10
0
20
0
30
0
70
128
71
50
72
47
73
48
0
VERTEX
8
OBJECT__123
10
0
20
0
30
0
70
128
71
46
72
48
73
47
0
VERTEX
8
OBJECT__123
10
0
20
0
30
0
70
128
71
44
72
45
73
43
0
VERTEX
8
OBJECT__123
10
0
20
0
30
0
70
128
71
42
72
39
73
40
0
VERTEX
8
OBJECT__123
10
0
20
0
30
0
70
128
71
38
72
40
73
39
0
VERTEX
8
OBJECT__123
10
0
20
0
30
0
70
128
71
36
72
37
73
35
0
VERTEX
8
OBJECT__123
10
0
20
0
30
0
70
128
71
34
72
32
73
31
0
VERTEX
8
OBJECT__123
10
0
20
0
30
0
70
128
71
30
72
92
73
31
0
VERTEX
8
OBJECT__123
10
0
20
0
30
0
70
128
71
29
72
92
73
30
0
VERTEX
8
OBJECT__123
10
0
20
0
30
0
70
128
71
27
72
28
73
26
0
VERTEX
8
OBJECT__123
10
0
20
0
30
0
70
128
71
25
72
22
73
23
0
VERTEX
8
OBJECT__123
10
0
20
0
30
0
70
128
71
21
72
23
73
22
0
VERTEX
8
OBJECT__123
10
0
20
0
30
0
70
128
71
19
72
20
73
18
0
VERTEX
8
OBJECT__123
10
0
20
0
30
0
70
128
71
15
72
93
73
16
0
VERTEX
8
OBJECT__123
10
0
20
0
30
0
70
128
71
14
72
93
73
15
0
VERTEX
8
OBJECT__123
10
0
20
0
30
0
70
128
71
12
72
13
73
11
0
VERTEX
8
OBJECT__123
10
0
20
0
30
0
70
128
71
8
72
94
73
9
0
VERTEX
8
OBJECT__123
10
0
20
0
30
0
70
128
71
7
72
94
73
8
0
VERTEX
8
OBJECT__123
10
0
20
0
30
0
70
128
71
5
72
6
73
4
0
VERTEX
8
OBJECT__123
10
0
20
0
30
0
70
128
71
3
72
65
73
1
0
SEQEND
8
OBJECT__123
0
POLYLINE
8
OBJECT__124
66
1
70
64
71
10
72
8
62
253
0
VERTEX
8
OBJECT__124
10
4.755000
20
1.545000
30
0.000000
70
192
0
VERTEX
8
OBJECT__124
10
4.755000
20
-1.545000
30
0.000000
70
192
0
VERTEX
8
OBJECT__124
10
2.939000
20
-4.045000
30
0.000000
70
192
0
VERTEX
8
OBJECT__124
10
0.000000
20
-5.000000
30
0.000000
70
192
0
VERTEX
8
OBJECT__124
10
0.000000
20
5.000000
30
0.000000
70
192
0
VERTEX
8
OBJECT__124
10
2.939000
20
4.045000
30
0.000000
70
192
0
VERTEX
8
OBJECT__124
10
-4.755000
20
-1.545000
30
0.000000
70
192
0
VERTEX
8
OBJECT__124
10
-4.755000
20
1.545000
30
0.000000
70
192
0
VERTEX
8
OBJECT__124
10
-2.939000
20
-4.045000
30
0.000000
70
192
0
VERTEX
8
OBJECT__124
10
-2.939000
20
4.045000
30
0.000000
70
192
0
VERTEX
8
OBJECT__124
10
0
20
0
30
0
70
128
71
1
72
2
73
3
0
VERTEX
8
OBJECT__124
10
0
20
0
30
0
70
128
71
4
72
5
73
6
0
VERTEX
8
OBJECT__124
10
0
20
0
30
0
70
128
71
5
72
7
73
8
0
VERTEX
8
OBJECT__124
10
0
20
0
30
0
70
128
71
5
72
4
73
9
0
VERTEX
8
OBJECT__124
10
0
20
0
30
0
70
128
71
6
72
1
73
4
0
VERTEX
8
OBJECT__124
10
0
20
0
30
0
70
128
71
9
72
7
73
5
0
VERTEX
8
OBJECT__124
10
0
20
0
30
0
70
128
71
8
72
10
73
5
0
VERTEX
8
OBJECT__124
10
0
20
0
30
0
70
128
71
3
72
4
73
1
0
SEQEND
8
OBJECT__124
0
POLYLINE
8
OBJECT__125
66
1
70
64
71
20
72
20
62
253
0
VERTEX
8
OBJECT__125
10
3.527000
20
-4.854000
30
1.000000
70
192
0
VERTEX
8
OBJECT__125
10
0.000000
20
-6.000000
30
1.000000
70
192
0
VERTEX
8
OBJECT__125
10
0.000000
20
-5.000000
30
0.000000
70
192
0
VERTEX
8
OBJECT__125
10
5.706000
20
-1.854000
30
1.000000
70
192
0
VERTEX
8
OBJECT__125
10
2.939000
20
-4.045000
30
0.000000
70
192
0
VERTEX
8
OBJECT__125
10
5.706000
20
1.854000
30
1.000000
70
192
0
VERTEX
8
OBJECT__125
10
4.755000
20
-1.545000
30
0.000000
70
192
0
VERTEX
8
OBJECT__125
10
3.527000
20
4.854000
30
1.000000
70
192
0
VERTEX
8
OBJECT__125
10
4.755000
20
1.545000
30
0.000000
70
192
0
VERTEX
8
OBJECT__125
10
0.000000
20
6.000000
30
1.000000
70
192
0
VERTEX
8
OBJECT__125
10
2.939000
20
4.045000
30
0.000000
70
192
0
VERTEX
8
OBJECT__125
10
-3.527000
20
4.854000
30
1.000000
70
192
0
VERTEX
8
OBJECT__125
10
0.000000
20
5.000000
30
0.000000
70
192
0
VERTEX
8
OBJECT__125
10
-2.939000
20
4.045000
30
0.000000
70
192
0
VERTEX
8
OBJECT__125
10
-4.755000
20
1.545000
30
0.000000
70
192
0
VERTEX
8
OBJECT__125
10
-5.706000
20
1.854000
30
1.000000
70
192
0
VERTEX
8
OBJECT__125
10
-4.755000
20
-1.545000
30
0.000000
70
192
0
VERTEX
8
OBJECT__125
10
-3.527000
20
-4.854000
30
1.000000
70
192
0
VERTEX
8
OBJECT__125
10
-5.706000
20
-1.854000
30
1.000000
70
192
0
VERTEX
8
OBJECT__125
10
-2.939000
20
-4.045000
30
0.000000
70
192
0
VERTEX
8
OBJECT__125
10
0
20
0
30
0
70
128
71
1
72
2
73
3
0
VERTEX
8
OBJECT__125
10
0
20
0
30
0
70
128
71
4
72
1
73
5
0
VERTEX
8
OBJECT__125
10
0
20
0
30
0
70
128
71
6
72
4
73
7
0
VERTEX
8
OBJECT__125
10
0
20
0
30
0
70
128
71
8
72
6
73
9
0
VERTEX
8
OBJECT__125
10
0
20
0
30
0
70
128
71
10
72
8
73
11
0
VERTEX
8
OBJECT__125
10
0
20
0
30
0
70
128
71
12
72
10
73
13
0
VERTEX
8
OBJECT__125
10
0
20
0
30
0
70
128
71
12
72
14
73
15
0
VERTEX
8
OBJECT__125
10
0
20
0
30
0
70
128
71
16
72
15
73
17
0
VERTEX
8
OBJECT__125
10
0
20
0
30
0
70
128
71
18
72
19
73
17
0
VERTEX
8
OBJECT__125
10
0
20
0
30
0
70
128
71
18
72
20
73
3
0
VERTEX
8
OBJECT__125
10
0
20
0
30
0
70
128
71
3
72
2
73
18
0
VERTEX
8
OBJECT__125
10
0
20
0
30
0
70
128
71
17
72
20
73
18
0
VERTEX
8
OBJECT__125
10
0
20
0
30
0
70
128
71
17
72
19
73
16
0
VERTEX
8
OBJECT__125
10
0
20
0
30
0
70
128
71
15
72
16
73
12
0
VERTEX
8
OBJECT__125
10
0
20
0
30
0
70
128
71
13
72
14
73
12
0
VERTEX
8
OBJECT__125
10
0
20
0
30
0
70
128
71
11
72
13
73
10
0
VERTEX
8
OBJECT__125
10
0
20
0
30
0
70
128
71
9
72
11
73
8
0
VERTEX
8
OBJECT__125
10
0
20
0
30
0
70
128
71
7
72
9
73
6
0
VERTEX
8
OBJECT__125
10
0
20
0
30
0
70
128
71
5
72
7
73
4
0
VERTEX
8
OBJECT__125
10
0
20
0
30
0
70
128
71
3
72
5
73
1
0
SEQEND
8
OBJECT__125
0
POLYLINE
8
OBJECT__127
66
1
70
64
71
21
72
21
62
253
0
VERTEX
8
OBJECT__127
10
0.000000
20
6.000000
30
1.000000
70
192
0
VERTEX
8
OBJECT__127
10
-3.527000
20
4.854000
30
1.000000
70
192
0
VERTEX
8
OBJECT__127
10
-3.527000
20
4.854000
30
40.076000
70
192
0
VERTEX
8
OBJECT__127
10
-5.706000
20
1.854000
30
1.000000
70
192
0
VERTEX
8
OBJECT__127
10
-5.706000
20
1.854000
30
40.076000
70
192
0
VERTEX
8
OBJECT__127
10
-5.706000
20
-1.854000
30
1.000000
70
192
0
VERTEX
8
OBJECT__127
10
-5.706000
20
-1.854000
30
40.076000
70
192
0
VERTEX
8
OBJECT__127
10
-3.527000
20
-4.854000
30
1.000000
70
192
0
VERTEX
8
OBJECT__127
10
-3.527000
20
-4.854000
30
40.076000
70
192
0
VERTEX
8
OBJECT__127
10
0.000000
20
-6.000000
30
1.000000
70
192
0
VERTEX
8
OBJECT__127
10
0.000000
20
-6.000000
30
40.076000
70
192
0
VERTEX
8
OBJECT__127
10
3.527000
20
-4.854000
30
1.000000
70
192
0
VERTEX
8
OBJECT__127
10
3.527000
20
-4.854000
30
40.076000
70
192
0
VERTEX
8
OBJECT__127
10
5.706000
20
-1.854000
30
1.000000
70
192
0
VERTEX
8
OBJECT__127
10
5.706000
20
-1.854000
30
40.076000
70
192
0
VERTEX
8
OBJECT__127
10
5.706000
20
1.854000
30
1.000000
70
192
0
VERTEX
8
OBJECT__127
10
5.706000
20
1.854000
30
40.076000
70
192
0
VERTEX
8
OBJECT__127
10
6.000000
20
0.000000
30
40.076000
70
192
0
VERTEX
8
OBJECT__127
10
3.527000
20
4.854000
30
1.000000
70
192
0
VERTEX
8
OBJECT__127
10
3.527000
20
4.854000
30
40.076000
70
192
0
VERTEX
8
OBJECT__127
10
0.000000
20
6.000000
30
40.076000
70
192
0
VERTEX
8
OBJECT__127
10
0
20
0
30
0
70
128
71
1
72
2
73
3
0
VERTEX
8
OBJECT__127
10
0
20
0
30
0
70
128
71
2
72
4
73
5
0
VERTEX
8
OBJECT__127
10
0
20
0
30
0
70
128
71
6
72
7
73
5
0
VERTEX
8
OBJECT__127
10
0
20
0
30
0
70
128
71
8
72
9
73
7
0
VERTEX
8
OBJECT__127
10
0
20
0
30
0
70
128
71
8
72
10
73
11
0
VERTEX
8
OBJECT__127
10
0
20
0
30
0
70
128
71
12
72
13
73
11
0
VERTEX
8
OBJECT__127
10
0
20
0
30
0
70
128
71
14
72
15
73
13
0
VERTEX
8
OBJECT__127
10
0
20
0
30
0
70
128
71
16
72
17
73
18
0
VERTEX
8
OBJECT__127
10
0
20
0
30
0
70
128
71
18
72
14
73
16
0
VERTEX
8
OBJECT__127
10
0
20
0
30
0
70
128
71
16
72
19
73
20
0
VERTEX
8
OBJECT__127
10
0
20
0
30
0
70
128
71
1
72
21
73
20
0
VERTEX
8
OBJECT__127
10
0
20
0
30
0
70
128
71
20
72
19
73
1
0
VERTEX
8
OBJECT__127
10
0
20
0
30
0
70
128
71
20
72
17
73
16
0
VERTEX
8
OBJECT__127
10
0
20
0
30
0
70
128
71
18
72
15
73
14
0
VERTEX
8
OBJECT__127
10
0
20
0
30
0
70
128
71
13
72
12
73
14
0
VERTEX
8
OBJECT__127
10
0
20
0
30
0
70
128
71
11
72
10
73
12
0
VERTEX
8
OBJECT__127
10
0
20
0
30
0
70
128
71
11
72
9
73
8
0
VERTEX
8
OBJECT__127
10
0
20
0
30
0
70
128
71
7
72
6
73
8
0
VERTEX
8
OBJECT__127
10
0
20
0
30
0
70
128
71
5
72
4
73
6
0
VERTEX
8
OBJECT__127
10
0
20
0
30
0
70
128
71
5
72
3
73
2
0
VERTEX
8
OBJECT__127
10
0
20
0
30
0
70
128
71
3
72
21
73
1
0
SEQEND
8
OBJECT__127
0
POLYLINE
8
OBJECT__128
66
1
70
64
71
24
72
24
62
253
0
VERTEX
8
OBJECT__128
10
4.435000
20
7.831000
30
12.267000
70
192
0
VERTEX
8
OBJECT__128
10
4.435000
20
7.831000
30
1.267000
70
192
0
VERTEX
8
OBJECT__128
10
-0.075000
20
9.000000
30
1.267000
70
192
0
VERTEX
8
OBJECT__128
10
7.757000
20
4.564000
30
12.267000
70
192
0
VERTEX
8
OBJECT__128
10
7.757000
20
4.564000
30
1.267000
70
192
0
VERTEX
8
OBJECT__128
10
9.000000
20
0.075000
30
12.267000
70
192
0
VERTEX
8
OBJECT__128
10
9.000000
20
0.075000
30
1.267000
70
192
0
VERTEX
8
OBJECT__128
10
7.831000
20
-4.435000
30
12.267000
70
192
0
VERTEX
8
OBJECT__128
10
7.831000
20
-4.435000
30
1.267000
70
192
0
VERTEX
8
OBJECT__128
10
4.564000
20
-7.757000
30
12.267000
70
192
0
VERTEX
8
OBJECT__128
10
0.075000
20
-9.000000
30
12.267000
70
192
0
VERTEX
8
OBJECT__128
10
0.075000
20
-9.000000
30
1.267000
70
192
0
VERTEX
8
OBJECT__128
10
-4.435000
20
-7.831000
30
12.267000
70
192
0
VERTEX
8
OBJECT__128
10
-4.435000
20
-7.831000
30
1.267000
70
192
0
VERTEX
8
OBJECT__128
10
-7.757000
20
-4.564000
30
12.267000
70
192
0
VERTEX
8
OBJECT__128
10
-7.757000
20
-4.564000
30
1.267000
70
192
0
VERTEX
8
OBJECT__128
10
-9.000000
20
-0.075000
30
1.267000
70
192
0
VERTEX
8
OBJECT__128
10
-7.831000
20
4.435000
30
12.267000
70
192
0
VERTEX
8
OBJECT__128
10
-7.831000
20
4.435000
30
1.267000
70
192
0
VERTEX
8
OBJECT__128
10
-4.564000
20
7.757000
30
12.267000
70
192
0
VERTEX
8
OBJECT__128
10
-4.564000
20
7.757000
30
1.267000
70
192
0
VERTEX
8
OBJECT__128
10
-0.075000
20
9.000000
30
12.267000
70
192
0
VERTEX
8
OBJECT__128
10
-9.000000
20
-0.075000
30
12.267000
70
192
0
VERTEX
8
OBJECT__128
10
4.564000
20
-7.757000
30
1.267000
70
192
0
VERTEX
8
OBJECT__128
10
0
20
0
30
0
70
128
71
1
72
2
73
3
0
VERTEX
8
OBJECT__128
10
0
20
0
30
0
70
128
71
4
72
5
73
2
0
VERTEX
8
OBJECT__128
10
0
20
0
30
0
70
128
71
6
72
7
73
5
0
VERTEX
8
OBJECT__128
10
0
20
0
30
0
70
128
71
8
72
9
73
7
0
VERTEX
8
OBJECT__128
10
0
20
0
30
0
70
128
71
9
72
8
73
10
0
VERTEX
8
OBJECT__128
10
0
20
0
30
0
70
128
71
10
72
11
73
12
0
VERTEX
8
OBJECT__128
10
0
20
0
30
0
70
128
71
13
72
14
73
12
0
VERTEX
8
OBJECT__128
10
0
20
0
30
0
70
128
71
15
72
16
73
14
0
VERTEX
8
OBJECT__128
10
0
20
0
30
0
70
128
71
17
72
16
73
15
0
VERTEX
8
OBJECT__128
10
0
20
0
30
0
70
128
71
18
72
19
73
17
0
VERTEX
8
OBJECT__128
10
0
20
0
30
0
70
128
71
18
72
20
73
21
0
VERTEX
8
OBJECT__128
10
0
20
0
30
0
70
128
71
21
72
20
73
22
0
VERTEX
8
OBJECT__128
10
0
20
0
30
0
70
128
71
22
72
3
73
21
0
VERTEX
8
OBJECT__128
10
0
20
0
30
0
70
128
71
21
72
19
73
18
0
VERTEX
8
OBJECT__128
10
0
20
0
30
0
70
128
71
17
72
23
73
18
0
VERTEX
8
OBJECT__128
10
0
20
0
30
0
70
128
71
15
72
23
73
17
0
VERTEX
8
OBJECT__128
10
0
20
0
30
0
70
128
71
14
72
13
73
15
0
VERTEX
8
OBJECT__128
10
0
20
0
30
0
70
128
71
12
72
11
73
13
0
VERTEX
8
OBJECT__128
10
0
20
0
30
0
70
128
71
12
72
24
73
10
0
VERTEX
8
OBJECT__128
10
0
20
0
30
0
70
128
71
10
72
24
73
9
0
VERTEX
8
OBJECT__128
10
0
20
0
30
0
70
128
71
7
72
6
73
8
0
VERTEX
8
OBJECT__128
10
0
20
0
30
0
70
128
71
5
72
4
73
6
0
VERTEX
8
OBJECT__128
10
0
20
0
30
0
70
128
71
2
72
1
73
4
0
VERTEX
8
OBJECT__128
10
0
20
0
30
0
70
128
71
3
72
22
73
1
0
SEQEND
8
OBJECT__128
0
POLYLINE
8
OBJECT__129
66
1
70
64
71
12
72
10
62
253
0
VERTEX
8
OBJECT__129
10
-9.000000
20
-0.075000
30
1.267000
70
192
0
VERTEX
8
OBJECT__129
10
7.831000
20
-4.435000
30
1.267000
70
192
0
VERTEX
8
OBJECT__129
10
4.564000
20
-7.757000
30
1.267000
70
192
0
VERTEX
8
OBJECT__129
10
9.000000
20
0.075000
30
1.267000
70
192
0
VERTEX
8
OBJECT__129
10
-7.831000
20
4.435000
30
1.267000
70
192
0
VERTEX
8
OBJECT__129
10
0.075000
20
-9.000000
30
1.267000
70
192
0
VERTEX
8
OBJECT__129
10
-4.435000
20
-7.831000
30
1.267000
70
192
0
VERTEX
8
OBJECT__129
10
-0.075000
20
9.000000
30
1.267000
70
192
0
VERTEX
8
OBJECT__129
10
4.435000
20
7.831000
30
1.267000
70
192
0
VERTEX
8
OBJECT__129
10
7.757000
20
4.564000
30
1.267000
70
192
0
VERTEX
8
OBJECT__129
10
-4.564000
20
7.757000
30
1.267000
70
192
0
VERTEX
8
OBJECT__129
10
-7.757000
20
-4.564000
30
1.267000
70
192
0
VERTEX
8
OBJECT__129
10
0
20
0
30
0
70
128
71
1
72
2
73
3
0
VERTEX
8
OBJECT__129
10
0
20
0
30
0
70
128
71
4
72
1
73
5
0
VERTEX
8
OBJECT__129
10
0
20
0
30
0
70
128
71
1
72
6
73
7
0
VERTEX
8
OBJECT__129
10
0
20
0
30
0
70
128
71
1
72
4
73
2
0
VERTEX
8
OBJECT__129
10
0
20
0
30
0
70
128
71
8
72
9
73
10
0
VERTEX
8
OBJECT__129
10
0
20
0
30
0
70
128
71
5
72
11
73
4
0
VERTEX
8
OBJECT__129
10
0
20
0
30
0
70
128
71
3
72
6
73
1
0
VERTEX
8
OBJECT__129
10
0
20
0
30
0
70
128
71
11
72
8
73
4
0
VERTEX
8
OBJECT__129
10
0
20
0
30
0
70
128
71
10
72
4
73
8
0
VERTEX
8
OBJECT__129
10
0
20
0
30
0
70
128
71
7
72
12
73
1
0
SEQEND
8
OBJECT__129
0
ENDSEC
0
EOF
