999
Converted by 3D Exploration 
999
XDimension Software, LLC
999
http://www.xdsoft.com/explorer/
0
SECTION
2
HEADER
9
$ACADVER
1
AC1008
9
$UCSORG
10
0.0
20
0.0
30
0.0
9
$UCSXDIR
10
1.0
20
0.0
30
0.0
9
$TILEMODE
70
1
9
$UCSYDIR
10
0.0
20
1.0
30
0.0
9
$EXTMIN
10
-27.000000
20
-66.653999
30
-66.653999
9
$EXTMAX
10
237.494003
20
79.237000
30
266.035004
0
ENDSEC
0
SECTION
2
TABLES
0
TABLE
2
LTYPE
70
1
0
LTYPE
2
CONTINUOUS
70
64
3
Solid line
72
65
73
0
40
0.0
0
ENDTAB
0
TABLE
2
LAYER
70
49
0
LAYER
2
OBJECT__0
70
0
62
253
6
CONTINUOUS
0
LAYER
2
OBJECT__1
70
0
62
253
6
CONTINUOUS
0
LAYER
2
OBJECT__3
70
0
62
253
6
CONTINUOUS
0
LAYER
2
OBJECT__4
70
0
62
253
6
CONTINUOUS
0
LAYER
2
OBJECT__5
70
0
62
253
6
CONTINUOUS
0
LAYER
2
OBJECT__6
70
0
62
253
6
CONTINUOUS
0
LAYER
2
OBJECT__7
70
0
62
253
6
CONTINUOUS
0
LAYER
2
OBJECT__8
70
0
62
253
6
CONTINUOUS
0
LAYER
2
OBJECT__9
70
0
62
253
6
CONTINUOUS
0
LAYER
2
OBJECT__10
70
0
62
253
6
CONTINUOUS
0
LAYER
2
OBJECT__11
70
0
62
253
6
CONTINUOUS
0
LAYER
2
OBJECT__12
70
0
62
253
6
CONTINUOUS
0
LAYER
2
OBJECT__13
70
0
62
253
6
CONTINUOUS
0
LAYER
2
OBJECT__15
70
0
62
253
6
CONTINUOUS
0
LAYER
2
OBJECT__16
70
0
62
253
6
CONTINUOUS
0
LAYER
2
OBJECT__17
70
0
62
253
6
CONTINUOUS
0
LAYER
2
OBJECT__18
70
0
62
253
6
CONTINUOUS
0
LAYER
2
OBJECT__19
70
0
62
253
6
CONTINUOUS
0
LAYER
2
OBJECT__21
70
0
62
253
6
CONTINUOUS
0
LAYER
2
OBJECT__22
70
0
62
253
6
CONTINUOUS
0
LAYER
2
OBJECT__23
70
0
62
253
6
CONTINUOUS
0
LAYER
2
OBJECT__24
70
0
62
253
6
CONTINUOUS
0
LAYER
2
OBJECT__26
70
0
62
253
6
CONTINUOUS
0
LAYER
2
OBJECT__27
70
0
62
253
6
CONTINUOUS
0
LAYER
2
OBJECT__28
70
0
62
253
6
CONTINUOUS
0
LAYER
2
OBJECT__29
70
0
62
253
6
CONTINUOUS
0
LAYER
2
OBJECT__30
70
0
62
253
6
CONTINUOUS
0
LAYER
2
OBJECT__31
70
0
62
253
6
CONTINUOUS
0
LAYER
2
OBJECT__32
70
0
62
253
6
CONTINUOUS
0
LAYER
2
OBJECT__33
70
0
62
253
6
CONTINUOUS
0
LAYER
2
OBJECT__34
70
0
62
253
6
CONTINUOUS
0
LAYER
2
OBJECT__35
70
0
62
253
6
CONTINUOUS
0
LAYER
2
OBJECT__36
70
0
62
253
6
CONTINUOUS
0
LAYER
2
OBJECT__37
70
0
62
253
6
CONTINUOUS
0
LAYER
2
OBJECT__38
70
0
62
253
6
CONTINUOUS
0
LAYER
2
OBJECT__39
70
0
62
253
6
CONTINUOUS
0
LAYER
2
OBJECT__40
70
0
62
253
6
CONTINUOUS
0
LAYER
2
OBJECT__41
70
0
62
253
6
CONTINUOUS
0
LAYER
2
OBJECT__42
70
0
62
253
6
CONTINUOUS
0
LAYER
2
OBJECT__43
70
0
62
253
6
CONTINUOUS
0
LAYER
2
OBJECT__44
70
0
62
253
6
CONTINUOUS
0
LAYER
2
OBJECT__45
70
0
62
253
6
CONTINUOUS
0
LAYER
2
OBJECT__46
70
0
62
253
6
CONTINUOUS
0
LAYER
2
OBJECT__47
70
0
62
253
6
CONTINUOUS
0
LAYER
2
OBJECT__48
70
0
62
253
6
CONTINUOUS
0
ENDTAB
0
TABLE
2
STYLE
70
1
0
STYLE
2
STANDARD
70
0
40
0.0
41
1.0
50
0.0
71
0
42
0.2
3
txt
4
1
0
ENDTAB
0
TABLE
2
UCS
70
0
0
ENDTAB
0
ENDSEC
0
SECTION
2
ENTITIES
0
POLYLINE
8
OBJECT__0
66
1
70
64
71
12
72
10
62
253
0
VERTEX
8
OBJECT__0
10
213.598007
20
-28.500999
30
175.860001
70
192
0
VERTEX
8
OBJECT__0
10
223.000000
20
-52.390999
30
176.024002
70
192
0
VERTEX
8
OBJECT__0
10
213.598007
20
-48.299000
30
175.860001
70
192
0
VERTEX
8
OBJECT__0
10
209.498001
20
-38.400002
30
175.789001
70
192
0
VERTEX
8
OBJECT__0
10
223.000000
20
-24.409000
30
176.024002
70
192
0
VERTEX
8
OBJECT__0
10
223.248001
20
-52.397999
30
176.029007
70
192
0
VERTEX
8
OBJECT__0
10
223.496002
20
-24.400000
30
176.033005
70
192
0
VERTEX
8
OBJECT__0
10
237.494003
20
-38.400002
30
176.276993
70
192
0
VERTEX
8
OBJECT__0
10
233.393997
20
-48.299000
30
176.205994
70
192
0
VERTEX
8
OBJECT__0
10
233.393997
20
-28.500999
30
176.205994
70
192
0
VERTEX
8
OBJECT__0
10
223.248001
20
-24.402000
30
176.029007
70
192
0
VERTEX
8
OBJECT__0
10
223.496002
20
-52.400002
30
176.033005
70
192
0
VERTEX
8
OBJECT__0
10
0
20
0
30
0
70
128
71
1
72
2
73
3
0
VERTEX
8
OBJECT__0
10
0
20
0
30
0
70
128
71
3
72
4
73
1
0
VERTEX
8
OBJECT__0
10
0
20
0
30
0
70
128
71
5
72
6
73
2
0
VERTEX
8
OBJECT__0
10
0
20
0
30
0
70
128
71
7
72
8
73
9
0
VERTEX
8
OBJECT__0
10
0
20
0
30
0
70
128
71
1
72
5
73
2
0
VERTEX
8
OBJECT__0
10
0
20
0
30
0
70
128
71
7
72
10
73
8
0
VERTEX
8
OBJECT__0
10
0
20
0
30
0
70
128
71
5
72
11
73
6
0
VERTEX
8
OBJECT__0
10
0
20
0
30
0
70
128
71
9
72
12
73
7
0
VERTEX
8
OBJECT__0
10
0
20
0
30
0
70
128
71
12
72
6
73
7
0
VERTEX
8
OBJECT__0
10
0
20
0
30
0
70
128
71
11
72
7
73
6
0
SEQEND
8
OBJECT__0
0
POLYLINE
8
OBJECT__1
66
1
70
64
71
16
72
14
62
253
0
VERTEX
8
OBJECT__1
10
237.494003
20
-38.400002
30
176.276993
70
192
0
VERTEX
8
OBJECT__1
10
236.990997
20
-38.400002
30
205.117004
70
192
0
VERTEX
8
OBJECT__1
10
234.317001
20
-46.629002
30
205.070007
70
192
0
VERTEX
8
OBJECT__1
10
233.393997
20
-48.299000
30
176.205994
70
192
0
VERTEX
8
OBJECT__1
10
232.589005
20
-47.884998
30
205.039993
70
192
0
VERTEX
8
OBJECT__1
10
227.317993
20
-51.715000
30
204.947998
70
192
0
VERTEX
8
OBJECT__1
10
223.496002
20
-52.400002
30
176.033005
70
192
0
VERTEX
8
OBJECT__1
10
222.992996
20
-51.715000
30
204.871994
70
192
0
VERTEX
8
OBJECT__1
10
223.000000
20
-52.390999
30
176.024002
70
192
0
VERTEX
8
OBJECT__1
10
223.248001
20
-52.397999
30
176.029007
70
192
0
VERTEX
8
OBJECT__1
10
213.598007
20
-48.299000
30
175.860001
70
192
0
VERTEX
8
OBJECT__1
10
218.667007
20
-51.715000
30
204.796997
70
192
0
VERTEX
8
OBJECT__1
10
213.395996
20
-47.884998
30
204.705002
70
192
0
VERTEX
8
OBJECT__1
10
209.498001
20
-38.400002
30
175.789001
70
192
0
VERTEX
8
OBJECT__1
10
211.667999
20
-46.629002
30
204.675003
70
192
0
VERTEX
8
OBJECT__1
10
208.994995
20
-38.400002
30
204.628006
70
192
0
VERTEX
8
OBJECT__1
10
0
20
0
30
0
70
128
71
1
72
2
73
3
0
VERTEX
8
OBJECT__1
10
0
20
0
30
0
70
128
71
3
72
4
73
1
0
VERTEX
8
OBJECT__1
10
0
20
0
30
0
70
128
71
4
72
5
73
6
0
VERTEX
8
OBJECT__1
10
0
20
0
30
0
70
128
71
6
72
7
73
4
0
VERTEX
8
OBJECT__1
10
0
20
0
30
0
70
128
71
8
72
9
73
10
0
VERTEX
8
OBJECT__1
10
0
20
0
30
0
70
128
71
11
72
9
73
12
0
VERTEX
8
OBJECT__1
10
0
20
0
30
0
70
128
71
9
72
8
73
12
0
VERTEX
8
OBJECT__1
10
0
20
0
30
0
70
128
71
12
72
13
73
11
0
VERTEX
8
OBJECT__1
10
0
20
0
30
0
70
128
71
14
72
11
73
15
0
VERTEX
8
OBJECT__1
10
0
20
0
30
0
70
128
71
11
72
13
73
15
0
VERTEX
8
OBJECT__1
10
0
20
0
30
0
70
128
71
15
72
16
73
14
0
VERTEX
8
OBJECT__1
10
0
20
0
30
0
70
128
71
10
72
7
73
8
0
VERTEX
8
OBJECT__1
10
0
20
0
30
0
70
128
71
6
72
8
73
7
0
VERTEX
8
OBJECT__1
10
0
20
0
30
0
70
128
71
3
72
5
73
4
0
SEQEND
8
OBJECT__1
0
POLYLINE
8
OBJECT__3
66
1
70
64
71
16
72
14
62
253
0
VERTEX
8
OBJECT__3
10
209.498001
20
-38.400002
30
175.789001
70
192
0
VERTEX
8
OBJECT__3
10
208.994995
20
-38.400002
30
204.628006
70
192
0
VERTEX
8
OBJECT__3
10
211.667999
20
-30.171000
30
204.675003
70
192
0
VERTEX
8
OBJECT__3
10
213.598007
20
-28.500999
30
175.860001
70
192
0
VERTEX
8
OBJECT__3
10
222.992996
20
-25.084999
30
204.871994
70
192
0
VERTEX
8
OBJECT__3
10
223.248001
20
-24.402000
30
176.029007
70
192
0
VERTEX
8
OBJECT__3
10
223.000000
20
-24.409000
30
176.024002
70
192
0
VERTEX
8
OBJECT__3
10
213.395996
20
-28.915001
30
204.705002
70
192
0
VERTEX
8
OBJECT__3
10
218.667007
20
-25.084999
30
204.796997
70
192
0
VERTEX
8
OBJECT__3
10
223.496002
20
-24.400000
30
176.033005
70
192
0
VERTEX
8
OBJECT__3
10
233.393997
20
-28.500999
30
176.205994
70
192
0
VERTEX
8
OBJECT__3
10
227.317993
20
-25.084999
30
204.947998
70
192
0
VERTEX
8
OBJECT__3
10
237.494003
20
-38.400002
30
176.276993
70
192
0
VERTEX
8
OBJECT__3
10
234.317001
20
-30.171000
30
205.070007
70
192
0
VERTEX
8
OBJECT__3
10
232.589005
20
-28.915001
30
205.039993
70
192
0
VERTEX
8
OBJECT__3
10
236.990997
20
-38.400002
30
205.117004
70
192
0
VERTEX
8
OBJECT__3
10
0
20
0
30
0
70
128
71
1
72
2
73
3
0
VERTEX
8
OBJECT__3
10
0
20
0
30
0
70
128
71
3
72
4
73
1
0
VERTEX
8
OBJECT__3
10
0
20
0
30
0
70
128
71
5
72
6
73
7
0
VERTEX
8
OBJECT__3
10
0
20
0
30
0
70
128
71
4
72
8
73
9
0
VERTEX
8
OBJECT__3
10
0
20
0
30
0
70
128
71
9
72
7
73
4
0
VERTEX
8
OBJECT__3
10
0
20
0
30
0
70
128
71
5
72
10
73
6
0
VERTEX
8
OBJECT__3
10
0
20
0
30
0
70
128
71
11
72
10
73
12
0
VERTEX
8
OBJECT__3
10
0
20
0
30
0
70
128
71
10
72
5
73
12
0
VERTEX
8
OBJECT__3
10
0
20
0
30
0
70
128
71
13
72
11
73
14
0
VERTEX
8
OBJECT__3
10
0
20
0
30
0
70
128
71
11
72
15
73
14
0
VERTEX
8
OBJECT__3
10
0
20
0
30
0
70
128
71
14
72
16
73
13
0
VERTEX
8
OBJECT__3
10
0
20
0
30
0
70
128
71
12
72
15
73
11
0
VERTEX
8
OBJECT__3
10
0
20
0
30
0
70
128
71
7
72
9
73
5
0
VERTEX
8
OBJECT__3
10
0
20
0
30
0
70
128
71
3
72
8
73
4
0
SEQEND
8
OBJECT__3
0
POLYLINE
8
OBJECT__4
66
1
70
64
71
42
72
56
62
253
0
VERTEX
8
OBJECT__4
10
175.000000
20
-46.629002
30
240.707993
70
192
0
VERTEX
8
OBJECT__4
10
175.000000
20
-38.400002
30
238.035004
70
192
0
VERTEX
8
OBJECT__4
10
185.393997
20
-38.400002
30
236.406998
70
192
0
VERTEX
8
OBJECT__4
10
186.210999
20
-46.629002
30
238.953003
70
192
0
VERTEX
8
OBJECT__4
10
194.792007
20
-38.400002
30
231.679993
70
192
0
VERTEX
8
OBJECT__4
10
204.442001
20
-46.629002
30
225.899994
70
192
0
VERTEX
8
OBJECT__4
10
196.348999
20
-46.629002
30
233.854004
70
192
0
VERTEX
8
OBJECT__4
10
209.716995
20
-46.629002
30
215.852997
70
192
0
VERTEX
8
OBJECT__4
10
202.296005
20
-38.400002
30
224.306000
70
192
0
VERTEX
8
OBJECT__4
10
207.186005
20
-38.400002
30
214.992004
70
192
0
VERTEX
8
OBJECT__4
10
208.994995
20
-38.400002
30
204.628006
70
192
0
VERTEX
8
OBJECT__4
10
188.350998
20
-51.715000
30
245.617996
70
192
0
VERTEX
8
OBJECT__4
10
175.000000
20
-51.715000
30
247.707993
70
192
0
VERTEX
8
OBJECT__4
10
175.000000
20
-47.884998
30
242.436005
70
192
0
VERTEX
8
OBJECT__4
10
200.423996
20
-51.715000
30
239.546005
70
192
0
VERTEX
8
OBJECT__4
10
210.061996
20
-51.715000
30
230.074005
70
192
0
VERTEX
8
OBJECT__4
10
216.343994
20
-51.715000
30
218.108994
70
192
0
VERTEX
8
OBJECT__4
10
213.395996
20
-47.884998
30
204.705002
70
192
0
VERTEX
8
OBJECT__4
10
211.667999
20
-46.629002
30
204.675003
70
192
0
VERTEX
8
OBJECT__4
10
190.996002
20
-51.715000
30
253.856003
70
192
0
VERTEX
8
OBJECT__4
10
175.000000
20
-52.400002
30
252.035004
70
192
0
VERTEX
8
OBJECT__4
10
175.000000
20
-51.715000
30
256.360992
70
192
0
VERTEX
8
OBJECT__4
10
205.460007
20
-51.715000
30
246.580994
70
192
0
VERTEX
8
OBJECT__4
10
217.007996
20
-51.715000
30
235.233002
70
192
0
VERTEX
8
OBJECT__4
10
224.535004
20
-51.715000
30
220.897003
70
192
0
VERTEX
8
OBJECT__4
10
222.992996
20
-51.715000
30
204.871994
70
192
0
VERTEX
8
OBJECT__4
10
218.667007
20
-51.715000
30
204.796997
70
192
0
VERTEX
8
OBJECT__4
10
175.000000
20
-47.884998
30
261.632996
70
192
0
VERTEX
8
OBJECT__4
10
193.136002
20
-46.629002
30
260.520996
70
192
0
VERTEX
8
OBJECT__4
10
175.000000
20
-46.629002
30
263.360992
70
192
0
VERTEX
8
OBJECT__4
10
209.535004
20
-46.629002
30
252.272995
70
192
0
VERTEX
8
OBJECT__4
10
222.628006
20
-46.629002
30
239.406006
70
192
0
VERTEX
8
OBJECT__4
10
231.160995
20
-46.629002
30
223.153000
70
192
0
VERTEX
8
OBJECT__4
10
232.589005
20
-47.884998
30
205.039993
70
192
0
VERTEX
8
OBJECT__4
10
227.317993
20
-51.715000
30
204.947998
70
192
0
VERTEX
8
OBJECT__4
10
193.953003
20
-38.400002
30
263.066986
70
192
0
VERTEX
8
OBJECT__4
10
175.000000
20
-38.400002
30
266.035004
70
192
0
VERTEX
8
OBJECT__4
10
211.091995
20
-38.400002
30
254.447006
70
192
0
VERTEX
8
OBJECT__4
10
233.692001
20
-38.400002
30
224.014999
70
192
0
VERTEX
8
OBJECT__4
10
224.774994
20
-38.400002
30
241.000000
70
192
0
VERTEX
8
OBJECT__4
10
234.317001
20
-46.629002
30
205.070007
70
192
0
VERTEX
8
OBJECT__4
10
236.990997
20
-38.400002
30
205.117004
70
192
0
VERTEX
8
OBJECT__4
10
0
20
0
30
0
70
128
71
1
72
2
73
3
0
VERTEX
8
OBJECT__4
10
0
20
0
30
0
70
128
71
4
72
3
73
5
0
VERTEX
8
OBJECT__4
10
0
20
0
30
0
70
128
71
6
72
7
73
5
0
VERTEX
8
OBJECT__4
10
0
20
0
30
0
70
128
71
8
72
6
73
9
0
VERTEX
8
OBJECT__4
10
0
20
0
30
0
70
128
71
8
72
10
73
11
0
VERTEX
8
OBJECT__4
10
0
20
0
30
0
70
128
71
12
72
13
73
14
0
VERTEX
8
OBJECT__4
10
0
20
0
30
0
70
128
71
14
72
4
73
12
0
VERTEX
8
OBJECT__4
10
0
20
0
30
0
70
128
71
4
72
7
73
15
0
VERTEX
8
OBJECT__4
10
0
20
0
30
0
70
128
71
7
72
6
73
16
0
VERTEX
8
OBJECT__4
10
0
20
0
30
0
70
128
71
6
72
8
73
17
0
VERTEX
8
OBJECT__4
10
0
20
0
30
0
70
128
71
17
72
8
73
18
0
VERTEX
8
OBJECT__4
10
0
20
0
30
0
70
128
71
8
72
19
73
18
0
VERTEX
8
OBJECT__4
10
0
20
0
30
0
70
128
71
20
72
21
73
13
0
VERTEX
8
OBJECT__4
10
0
20
0
30
0
70
128
71
20
72
22
73
21
0
VERTEX
8
OBJECT__4
10
0
20
0
30
0
70
128
71
12
72
15
73
23
0
VERTEX
8
OBJECT__4
10
0
20
0
30
0
70
128
71
15
72
16
73
24
0
VERTEX
8
OBJECT__4
10
0
20
0
30
0
70
128
71
16
72
17
73
25
0
VERTEX
8
OBJECT__4
10
0
20
0
30
0
70
128
71
26
72
25
73
17
0
VERTEX
8
OBJECT__4
10
0
20
0
30
0
70
128
71
17
72
27
73
26
0
VERTEX
8
OBJECT__4
10
0
20
0
30
0
70
128
71
28
72
22
73
20
0
VERTEX
8
OBJECT__4
10
0
20
0
30
0
70
128
71
29
72
30
73
28
0
VERTEX
8
OBJECT__4
10
0
20
0
30
0
70
128
71
20
72
23
73
31
0
VERTEX
8
OBJECT__4
10
0
20
0
30
0
70
128
71
23
72
24
73
32
0
VERTEX
8
OBJECT__4
10
0
20
0
30
0
70
128
71
24
72
25
73
33
0
VERTEX
8
OBJECT__4
10
0
20
0
30
0
70
128
71
34
72
33
73
25
0
VERTEX
8
OBJECT__4
10
0
20
0
30
0
70
128
71
25
72
35
73
34
0
VERTEX
8
OBJECT__4
10
0
20
0
30
0
70
128
71
36
72
37
73
30
0
VERTEX
8
OBJECT__4
10
0
20
0
30
0
70
128
71
36
72
29
73
31
0
VERTEX
8
OBJECT__4
10
0
20
0
30
0
70
128
71
38
72
31
73
32
0
VERTEX
8
OBJECT__4
10
0
20
0
30
0
70
128
71
39
72
40
73
32
0
VERTEX
8
OBJECT__4
10
0
20
0
30
0
70
128
71
39
72
33
73
41
0
VERTEX
8
OBJECT__4
10
0
20
0
30
0
70
128
71
41
72
42
73
39
0
VERTEX
8
OBJECT__4
10
0
20
0
30
0
70
128
71
32
72
33
73
39
0
VERTEX
8
OBJECT__4
10
0
20
0
30
0
70
128
71
32
72
40
73
38
0
VERTEX
8
OBJECT__4
10
0
20
0
30
0
70
128
71
31
72
38
73
36
0
VERTEX
8
OBJECT__4
10
0
20
0
30
0
70
128
71
30
72
29
73
36
0
VERTEX
8
OBJECT__4
10
0
20
0
30
0
70
128
71
34
72
41
73
33
0
VERTEX
8
OBJECT__4
10
0
20
0
30
0
70
128
71
33
72
32
73
24
0
VERTEX
8
OBJECT__4
10
0
20
0
30
0
70
128
71
32
72
31
73
23
0
VERTEX
8
OBJECT__4
10
0
20
0
30
0
70
128
71
31
72
29
73
20
0
VERTEX
8
OBJECT__4
10
0
20
0
30
0
70
128
71
20
72
29
73
28
0
VERTEX
8
OBJECT__4
10
0
20
0
30
0
70
128
71
26
72
35
73
25
0
VERTEX
8
OBJECT__4
10
0
20
0
30
0
70
128
71
25
72
24
73
16
0
VERTEX
8
OBJECT__4
10
0
20
0
30
0
70
128
71
24
72
23
73
15
0
VERTEX
8
OBJECT__4
10
0
20
0
30
0
70
128
71
23
72
20
73
12
0
VERTEX
8
OBJECT__4
10
0
20
0
30
0
70
128
71
13
72
12
73
20
0
VERTEX
8
OBJECT__4
10
0
20
0
30
0
70
128
71
18
72
27
73
17
0
VERTEX
8
OBJECT__4
10
0
20
0
30
0
70
128
71
17
72
16
73
6
0
VERTEX
8
OBJECT__4
10
0
20
0
30
0
70
128
71
16
72
15
73
7
0
VERTEX
8
OBJECT__4
10
0
20
0
30
0
70
128
71
15
72
12
73
4
0
VERTEX
8
OBJECT__4
10
0
20
0
30
0
70
128
71
14
72
1
73
4
0
VERTEX
8
OBJECT__4
10
0
20
0
30
0
70
128
71
11
72
19
73
8
0
VERTEX
8
OBJECT__4
10
0
20
0
30
0
70
128
71
9
72
10
73
8
0
VERTEX
8
OBJECT__4
10
0
20
0
30
0
70
128
71
5
72
9
73
6
0
VERTEX
8
OBJECT__4
10
0
20
0
30
0
70
128
71
5
72
7
73
4
0
VERTEX
8
OBJECT__4
10
0
20
0
30
0
70
128
71
3
72
4
73
1
0
SEQEND
8
OBJECT__4
0
POLYLINE
8
OBJECT__5
66
1
70
64
71
42
72
56
62
253
0
VERTEX
8
OBJECT__5
10
193.953003
20
-38.400002
30
263.066986
70
192
0
VERTEX
8
OBJECT__5
10
193.136002
20
-30.171000
30
260.520996
70
192
0
VERTEX
8
OBJECT__5
10
175.000000
20
-30.171000
30
263.360992
70
192
0
VERTEX
8
OBJECT__5
10
211.091995
20
-38.400002
30
254.447006
70
192
0
VERTEX
8
OBJECT__5
10
209.535004
20
-30.171000
30
252.272995
70
192
0
VERTEX
8
OBJECT__5
10
224.774994
20
-38.400002
30
241.000000
70
192
0
VERTEX
8
OBJECT__5
10
222.628006
20
-30.171000
30
239.406006
70
192
0
VERTEX
8
OBJECT__5
10
233.692001
20
-38.400002
30
224.014999
70
192
0
VERTEX
8
OBJECT__5
10
231.160995
20
-30.171000
30
223.153000
70
192
0
VERTEX
8
OBJECT__5
10
236.990997
20
-38.400002
30
205.117004
70
192
0
VERTEX
8
OBJECT__5
10
234.317001
20
-30.171000
30
205.070007
70
192
0
VERTEX
8
OBJECT__5
10
175.000000
20
-28.915001
30
261.632996
70
192
0
VERTEX
8
OBJECT__5
10
190.996002
20
-25.084999
30
253.856003
70
192
0
VERTEX
8
OBJECT__5
10
175.000000
20
-25.084999
30
256.360992
70
192
0
VERTEX
8
OBJECT__5
10
205.460007
20
-25.084999
30
246.580994
70
192
0
VERTEX
8
OBJECT__5
10
217.007996
20
-25.084999
30
235.233002
70
192
0
VERTEX
8
OBJECT__5
10
224.535004
20
-25.084999
30
220.897003
70
192
0
VERTEX
8
OBJECT__5
10
232.589005
20
-28.915001
30
205.039993
70
192
0
VERTEX
8
OBJECT__5
10
227.317993
20
-25.084999
30
204.947998
70
192
0
VERTEX
8
OBJECT__5
10
175.000000
20
-24.400000
30
252.035004
70
192
0
VERTEX
8
OBJECT__5
10
188.350998
20
-25.084999
30
245.617996
70
192
0
VERTEX
8
OBJECT__5
10
175.000000
20
-25.084999
30
247.707993
70
192
0
VERTEX
8
OBJECT__5
10
200.423996
20
-25.084999
30
239.546005
70
192
0
VERTEX
8
OBJECT__5
10
210.061996
20
-25.084999
30
230.074005
70
192
0
VERTEX
8
OBJECT__5
10
216.343994
20
-25.084999
30
218.108994
70
192
0
VERTEX
8
OBJECT__5
10
222.992996
20
-25.084999
30
204.871994
70
192
0
VERTEX
8
OBJECT__5
10
218.667007
20
-25.084999
30
204.796997
70
192
0
VERTEX
8
OBJECT__5
10
186.210999
20
-30.171000
30
238.953003
70
192
0
VERTEX
8
OBJECT__5
10
175.000000
20
-28.915001
30
242.436005
70
192
0
VERTEX
8
OBJECT__5
10
175.000000
20
-30.171000
30
240.707993
70
192
0
VERTEX
8
OBJECT__5
10
196.348999
20
-30.171000
30
233.854004
70
192
0
VERTEX
8
OBJECT__5
10
204.442001
20
-30.171000
30
225.899994
70
192
0
VERTEX
8
OBJECT__5
10
209.716995
20
-30.171000
30
215.852997
70
192
0
VERTEX
8
OBJECT__5
10
213.395996
20
-28.915001
30
204.705002
70
192
0
VERTEX
8
OBJECT__5
10
185.393997
20
-38.400002
30
236.406998
70
192
0
VERTEX
8
OBJECT__5
10
194.792007
20
-38.400002
30
231.679993
70
192
0
VERTEX
8
OBJECT__5
10
202.296005
20
-38.400002
30
224.306000
70
192
0
VERTEX
8
OBJECT__5
10
207.186005
20
-38.400002
30
214.992004
70
192
0
VERTEX
8
OBJECT__5
10
211.667999
20
-30.171000
30
204.675003
70
192
0
VERTEX
8
OBJECT__5
10
208.994995
20
-38.400002
30
204.628006
70
192
0
VERTEX
8
OBJECT__5
10
175.000000
20
-38.400002
30
238.035004
70
192
0
VERTEX
8
OBJECT__5
10
175.000000
20
-38.400002
30
266.035004
70
192
0
VERTEX
8
OBJECT__5
10
0
20
0
30
0
70
128
71
1
72
2
73
3
0
VERTEX
8
OBJECT__5
10
0
20
0
30
0
70
128
71
1
72
4
73
5
0
VERTEX
8
OBJECT__5
10
0
20
0
30
0
70
128
71
4
72
6
73
7
0
VERTEX
8
OBJECT__5
10
0
20
0
30
0
70
128
71
6
72
8
73
9
0
VERTEX
8
OBJECT__5
10
0
20
0
30
0
70
128
71
8
72
10
73
11
0
VERTEX
8
OBJECT__5
10
0
20
0
30
0
70
128
71
12
72
2
73
13
0
VERTEX
8
OBJECT__5
10
0
20
0
30
0
70
128
71
13
72
14
73
12
0
VERTEX
8
OBJECT__5
10
0
20
0
30
0
70
128
71
2
72
5
73
15
0
VERTEX
8
OBJECT__5
10
0
20
0
30
0
70
128
71
5
72
7
73
16
0
VERTEX
8
OBJECT__5
10
0
20
0
30
0
70
128
71
7
72
9
73
17
0
VERTEX
8
OBJECT__5
10
0
20
0
30
0
70
128
71
18
72
19
73
17
0
VERTEX
8
OBJECT__5
10
0
20
0
30
0
70
128
71
9
72
11
73
18
0
VERTEX
8
OBJECT__5
10
0
20
0
30
0
70
128
71
20
72
13
73
21
0
VERTEX
8
OBJECT__5
10
0
20
0
30
0
70
128
71
21
72
22
73
20
0
VERTEX
8
OBJECT__5
10
0
20
0
30
0
70
128
71
13
72
15
73
23
0
VERTEX
8
OBJECT__5
10
0
20
0
30
0
70
128
71
15
72
16
73
24
0
VERTEX
8
OBJECT__5
10
0
20
0
30
0
70
128
71
16
72
17
73
25
0
VERTEX
8
OBJECT__5
10
0
20
0
30
0
70
128
71
17
72
26
73
27
0
VERTEX
8
OBJECT__5
10
0
20
0
30
0
70
128
71
17
72
19
73
26
0
VERTEX
8
OBJECT__5
10
0
20
0
30
0
70
128
71
21
72
28
73
29
0
VERTEX
8
OBJECT__5
10
0
20
0
30
0
70
128
71
28
72
30
73
29
0
VERTEX
8
OBJECT__5
10
0
20
0
30
0
70
128
71
21
72
23
73
31
0
VERTEX
8
OBJECT__5
10
0
20
0
30
0
70
128
71
23
72
24
73
32
0
VERTEX
8
OBJECT__5
10
0
20
0
30
0
70
128
71
24
72
25
73
33
0
VERTEX
8
OBJECT__5
10
0
20
0
30
0
70
128
71
25
72
27
73
34
0
VERTEX
8
OBJECT__5
10
0
20
0
30
0
70
128
71
34
72
33
73
25
0
VERTEX
8
OBJECT__5
10
0
20
0
30
0
70
128
71
30
72
28
73
35
0
VERTEX
8
OBJECT__5
10
0
20
0
30
0
70
128
71
28
72
31
73
36
0
VERTEX
8
OBJECT__5
10
0
20
0
30
0
70
128
71
32
72
37
73
36
0
VERTEX
8
OBJECT__5
10
0
20
0
30
0
70
128
71
33
72
38
73
37
0
VERTEX
8
OBJECT__5
10
0
20
0
30
0
70
128
71
33
72
39
73
40
0
VERTEX
8
OBJECT__5
10
0
20
0
30
0
70
128
71
40
72
38
73
33
0
VERTEX
8
OBJECT__5
10
0
20
0
30
0
70
128
71
37
72
32
73
33
0
VERTEX
8
OBJECT__5
10
0
20
0
30
0
70
128
71
36
72
31
73
32
0
VERTEX
8
OBJECT__5
10
0
20
0
30
0
70
128
71
36
72
35
73
28
0
VERTEX
8
OBJECT__5
10
0
20
0
30
0
70
128
71
35
72
41
73
30
0
VERTEX
8
OBJECT__5
10
0
20
0
30
0
70
128
71
34
72
39
73
33
0
VERTEX
8
OBJECT__5
10
0
20
0
30
0
70
128
71
33
72
32
73
24
0
VERTEX
8
OBJECT__5
10
0
20
0
30
0
70
128
71
32
72
31
73
23
0
VERTEX
8
OBJECT__5
10
0
20
0
30
0
70
128
71
31
72
28
73
21
0
VERTEX
8
OBJECT__5
10
0
20
0
30
0
70
128
71
29
72
22
73
21
0
VERTEX
8
OBJECT__5
10
0
20
0
30
0
70
128
71
27
72
25
73
17
0
VERTEX
8
OBJECT__5
10
0
20
0
30
0
70
128
71
25
72
24
73
16
0
VERTEX
8
OBJECT__5
10
0
20
0
30
0
70
128
71
24
72
23
73
15
0
VERTEX
8
OBJECT__5
10
0
20
0
30
0
70
128
71
23
72
21
73
13
0
VERTEX
8
OBJECT__5
10
0
20
0
30
0
70
128
71
20
72
14
73
13
0
VERTEX
8
OBJECT__5
10
0
20
0
30
0
70
128
71
17
72
9
73
18
0
VERTEX
8
OBJECT__5
10
0
20
0
30
0
70
128
71
17
72
16
73
7
0
VERTEX
8
OBJECT__5
10
0
20
0
30
0
70
128
71
16
72
15
73
5
0
VERTEX
8
OBJECT__5
10
0
20
0
30
0
70
128
71
15
72
13
73
2
0
VERTEX
8
OBJECT__5
10
0
20
0
30
0
70
128
71
12
72
3
73
2
0
VERTEX
8
OBJECT__5
10
0
20
0
30
0
70
128
71
11
72
9
73
8
0
VERTEX
8
OBJECT__5
10
0
20
0
30
0
70
128
71
9
72
7
73
6
0
VERTEX
8
OBJECT__5
10
0
20
0
30
0
70
128
71
7
72
5
73
4
0
VERTEX
8
OBJECT__5
10
0
20
0
30
0
70
128
71
5
72
2
73
1
0
VERTEX
8
OBJECT__5
10
0
20
0
30
0
70
128
71
3
72
42
73
1
0
SEQEND
8
OBJECT__5
0
POLYLINE
8
OBJECT__6
66
1
70
64
71
18
72
16
62
253
0
VERTEX
8
OBJECT__6
10
48.000000
20
-28.915001
30
261.632996
70
192
0
VERTEX
8
OBJECT__6
10
175.000000
20
-28.915001
30
261.632996
70
192
0
VERTEX
8
OBJECT__6
10
175.000000
20
-25.084999
30
256.360992
70
192
0
VERTEX
8
OBJECT__6
10
175.000000
20
-24.400000
30
252.035004
70
192
0
VERTEX
8
OBJECT__6
10
48.000000
20
-24.400000
30
252.035004
70
192
0
VERTEX
8
OBJECT__6
10
48.000000
20
-25.084999
30
256.360992
70
192
0
VERTEX
8
OBJECT__6
10
48.000000
20
-30.171000
30
263.360992
70
192
0
VERTEX
8
OBJECT__6
10
48.000000
20
-38.400002
30
266.035004
70
192
0
VERTEX
8
OBJECT__6
10
175.000000
20
-38.400002
30
266.035004
70
192
0
VERTEX
8
OBJECT__6
10
175.000000
20
-30.171000
30
263.360992
70
192
0
VERTEX
8
OBJECT__6
10
48.000000
20
-46.629002
30
263.360992
70
192
0
VERTEX
8
OBJECT__6
10
175.000000
20
-46.629002
30
263.360992
70
192
0
VERTEX
8
OBJECT__6
10
175.000000
20
-47.884998
30
261.632996
70
192
0
VERTEX
8
OBJECT__6
10
48.000000
20
-47.884998
30
261.632996
70
192
0
VERTEX
8
OBJECT__6
10
175.000000
20
-52.400002
30
252.035004
70
192
0
VERTEX
8
OBJECT__6
10
175.000000
20
-51.715000
30
256.360992
70
192
0
VERTEX
8
OBJECT__6
10
48.000000
20
-51.715000
30
256.360992
70
192
0
VERTEX
8
OBJECT__6
10
48.000000
20
-52.400002
30
252.035004
70
192
0
VERTEX
8
OBJECT__6
10
0
20
0
30
0
70
128
71
1
72
2
73
3
0
VERTEX
8
OBJECT__6
10
0
20
0
30
0
70
128
71
4
72
5
73
6
0
VERTEX
8
OBJECT__6
10
0
20
0
30
0
70
128
71
6
72
3
73
4
0
VERTEX
8
OBJECT__6
10
0
20
0
30
0
70
128
71
2
72
1
73
7
0
VERTEX
8
OBJECT__6
10
0
20
0
30
0
70
128
71
8
72
9
73
10
0
VERTEX
8
OBJECT__6
10
0
20
0
30
0
70
128
71
10
72
7
73
8
0
VERTEX
8
OBJECT__6
10
0
20
0
30
0
70
128
71
8
72
11
73
12
0
VERTEX
8
OBJECT__6
10
0
20
0
30
0
70
128
71
13
72
12
73
11
0
VERTEX
8
OBJECT__6
10
0
20
0
30
0
70
128
71
11
72
14
73
13
0
VERTEX
8
OBJECT__6
10
0
20
0
30
0
70
128
71
15
72
16
73
17
0
VERTEX
8
OBJECT__6
10
0
20
0
30
0
70
128
71
14
72
17
73
16
0
VERTEX
8
OBJECT__6
10
0
20
0
30
0
70
128
71
16
72
13
73
14
0
VERTEX
8
OBJECT__6
10
0
20
0
30
0
70
128
71
17
72
18
73
15
0
VERTEX
8
OBJECT__6
10
0
20
0
30
0
70
128
71
12
72
9
73
8
0
VERTEX
8
OBJECT__6
10
0
20
0
30
0
70
128
71
7
72
10
73
2
0
VERTEX
8
OBJECT__6
10
0
20
0
30
0
70
128
71
3
72
6
73
1
0
SEQEND
8
OBJECT__6
0
POLYLINE
8
OBJECT__7
66
1
70
64
71
18
72
16
62
253
0
VERTEX
8
OBJECT__7
10
48.000000
20
-52.400002
30
252.035004
70
192
0
VERTEX
8
OBJECT__7
10
48.000000
20
-51.715000
30
247.707993
70
192
0
VERTEX
8
OBJECT__7
10
175.000000
20
-51.715000
30
247.707993
70
192
0
VERTEX
8
OBJECT__7
10
175.000000
20
-47.884998
30
242.436005
70
192
0
VERTEX
8
OBJECT__7
10
48.000000
20
-47.884998
30
242.436005
70
192
0
VERTEX
8
OBJECT__7
10
48.000000
20
-46.629002
30
240.707993
70
192
0
VERTEX
8
OBJECT__7
10
175.000000
20
-46.629002
30
240.707993
70
192
0
VERTEX
8
OBJECT__7
10
48.000000
20
-38.400002
30
238.035004
70
192
0
VERTEX
8
OBJECT__7
10
175.000000
20
-38.400002
30
238.035004
70
192
0
VERTEX
8
OBJECT__7
10
48.000000
20
-30.171000
30
240.707993
70
192
0
VERTEX
8
OBJECT__7
10
48.000000
20
-28.915001
30
242.436005
70
192
0
VERTEX
8
OBJECT__7
10
175.000000
20
-28.915001
30
242.436005
70
192
0
VERTEX
8
OBJECT__7
10
175.000000
20
-30.171000
30
240.707993
70
192
0
VERTEX
8
OBJECT__7
10
48.000000
20
-24.400000
30
252.035004
70
192
0
VERTEX
8
OBJECT__7
10
175.000000
20
-24.400000
30
252.035004
70
192
0
VERTEX
8
OBJECT__7
10
175.000000
20
-25.084999
30
247.707993
70
192
0
VERTEX
8
OBJECT__7
10
48.000000
20
-25.084999
30
247.707993
70
192
0
VERTEX
8
OBJECT__7
10
175.000000
20
-52.400002
30
252.035004
70
192
0
VERTEX
8
OBJECT__7
10
0
20
0
30
0
70
128
71
1
72
2
73
3
0
VERTEX
8
OBJECT__7
10
0
20
0
30
0
70
128
71
4
72
3
73
2
0
VERTEX
8
OBJECT__7
10
0
20
0
30
0
70
128
71
2
72
5
73
4
0
VERTEX
8
OBJECT__7
10
0
20
0
30
0
70
128
71
5
72
6
73
7
0
VERTEX
8
OBJECT__7
10
0
20
0
30
0
70
128
71
8
72
9
73
7
0
VERTEX
8
OBJECT__7
10
0
20
0
30
0
70
128
71
7
72
6
73
8
0
VERTEX
8
OBJECT__7
10
0
20
0
30
0
70
128
71
10
72
11
73
12
0
VERTEX
8
OBJECT__7
10
0
20
0
30
0
70
128
71
9
72
8
73
10
0
VERTEX
8
OBJECT__7
10
0
20
0
30
0
70
128
71
10
72
13
73
9
0
VERTEX
8
OBJECT__7
10
0
20
0
30
0
70
128
71
14
72
15
73
16
0
VERTEX
8
OBJECT__7
10
0
20
0
30
0
70
128
71
12
72
11
73
17
0
VERTEX
8
OBJECT__7
10
0
20
0
30
0
70
128
71
17
72
16
73
12
0
VERTEX
8
OBJECT__7
10
0
20
0
30
0
70
128
71
16
72
17
73
14
0
VERTEX
8
OBJECT__7
10
0
20
0
30
0
70
128
71
12
72
13
73
10
0
VERTEX
8
OBJECT__7
10
0
20
0
30
0
70
128
71
7
72
4
73
5
0
VERTEX
8
OBJECT__7
10
0
20
0
30
0
70
128
71
3
72
18
73
1
0
SEQEND
8
OBJECT__7
0
POLYLINE
8
OBJECT__8
66
1
70
64
71
42
72
56
62
253
0
VERTEX
8
OBJECT__8
10
13.121000
20
-46.629002
30
215.367004
70
192
0
VERTEX
8
OBJECT__8
10
11.326000
20
-46.629002
30
204.035004
70
192
0
VERTEX
8
OBJECT__8
10
14.000000
20
-38.400002
30
204.035004
70
192
0
VERTEX
8
OBJECT__8
10
18.330000
20
-46.629002
30
225.591003
70
192
0
VERTEX
8
OBJECT__8
10
15.664000
20
-38.400002
30
214.541000
70
192
0
VERTEX
8
OBJECT__8
10
26.444000
20
-46.629002
30
233.703995
70
192
0
VERTEX
8
OBJECT__8
10
20.493000
20
-38.400002
30
224.018997
70
192
0
VERTEX
8
OBJECT__8
10
28.014999
20
-38.400002
30
231.541000
70
192
0
VERTEX
8
OBJECT__8
10
37.493000
20
-38.400002
30
236.369995
70
192
0
VERTEX
8
OBJECT__8
10
48.000000
20
-46.629002
30
240.707993
70
192
0
VERTEX
8
OBJECT__8
10
36.667000
20
-46.629002
30
238.912994
70
192
0
VERTEX
8
OBJECT__8
10
6.464000
20
-51.715000
30
217.529999
70
192
0
VERTEX
8
OBJECT__8
10
4.326000
20
-51.715000
30
204.035004
70
192
0
VERTEX
8
OBJECT__8
10
9.598000
20
-47.884998
30
204.035004
70
192
0
VERTEX
8
OBJECT__8
10
12.667000
20
-51.715000
30
229.705002
70
192
0
VERTEX
8
OBJECT__8
10
22.329000
20
-51.715000
30
239.367004
70
192
0
VERTEX
8
OBJECT__8
10
34.504002
20
-51.715000
30
245.570999
70
192
0
VERTEX
8
OBJECT__8
10
48.000000
20
-47.884998
30
242.436005
70
192
0
VERTEX
8
OBJECT__8
10
0.000000
20
-52.400002
30
204.035004
70
192
0
VERTEX
8
OBJECT__8
10
-1.765000
20
-51.715000
30
220.203995
70
192
0
VERTEX
8
OBJECT__8
10
-4.326000
20
-51.715000
30
204.035004
70
192
0
VERTEX
8
OBJECT__8
10
5.667000
20
-51.715000
30
234.791000
70
192
0
VERTEX
8
OBJECT__8
10
17.243000
20
-51.715000
30
246.367004
70
192
0
VERTEX
8
OBJECT__8
10
31.830000
20
-51.715000
30
253.800003
70
192
0
VERTEX
8
OBJECT__8
10
48.000000
20
-52.400002
30
252.035004
70
192
0
VERTEX
8
OBJECT__8
10
48.000000
20
-51.715000
30
247.707993
70
192
0
VERTEX
8
OBJECT__8
10
-9.598000
20
-47.884998
30
204.035004
70
192
0
VERTEX
8
OBJECT__8
10
-8.423000
20
-46.629002
30
222.367004
70
192
0
VERTEX
8
OBJECT__8
10
-11.326000
20
-46.629002
30
204.035004
70
192
0
VERTEX
8
OBJECT__8
10
0.004000
20
-46.629002
30
238.906006
70
192
0
VERTEX
8
OBJECT__8
10
13.129000
20
-46.629002
30
252.029999
70
192
0
VERTEX
8
OBJECT__8
10
29.667000
20
-46.629002
30
260.457001
70
192
0
VERTEX
8
OBJECT__8
10
48.000000
20
-47.884998
30
261.632996
70
192
0
VERTEX
8
OBJECT__8
10
48.000000
20
-51.715000
30
256.360992
70
192
0
VERTEX
8
OBJECT__8
10
-10.966000
20
-38.400002
30
223.194000
70
192
0
VERTEX
8
OBJECT__8
10
-14.000000
20
-38.400002
30
204.035004
70
192
0
VERTEX
8
OBJECT__8
10
-2.159000
20
-38.400002
30
240.477005
70
192
0
VERTEX
8
OBJECT__8
10
11.557000
20
-38.400002
30
254.194000
70
192
0
VERTEX
8
OBJECT__8
10
48.000000
20
-38.400002
30
266.035004
70
192
0
VERTEX
8
OBJECT__8
10
28.841000
20
-38.400002
30
263.000000
70
192
0
VERTEX
8
OBJECT__8
10
48.000000
20
-46.629002
30
263.360992
70
192
0
VERTEX
8
OBJECT__8
10
48.000000
20
-38.400002
30
238.035004
70
192
0
VERTEX
8
OBJECT__8
10
0
20
0
30
0
70
128
71
1
72
2
73
3
0
VERTEX
8
OBJECT__8
10
0
20
0
30
0
70
128
71
4
72
1
73
5
0
VERTEX
8
OBJECT__8
10
0
20
0
30
0
70
128
71
6
72
4
73
7
0
VERTEX
8
OBJECT__8
10
0
20
0
30
0
70
128
71
6
72
8
73
9
0
VERTEX
8
OBJECT__8
10
0
20
0
30
0
70
128
71
10
72
11
73
9
0
VERTEX
8
OBJECT__8
10
0
20
0
30
0
70
128
71
12
72
13
73
14
0
VERTEX
8
OBJECT__8
10
0
20
0
30
0
70
128
71
14
72
1
73
12
0
VERTEX
8
OBJECT__8
10
0
20
0
30
0
70
128
71
1
72
4
73
15
0
VERTEX
8
OBJECT__8
10
0
20
0
30
0
70
128
71
4
72
6
73
16
0
VERTEX
8
OBJECT__8
10
0
20
0
30
0
70
128
71
6
72
11
73
17
0
VERTEX
8
OBJECT__8
10
0
20
0
30
0
70
128
71
17
72
11
73
18
0
VERTEX
8
OBJECT__8
10
0
20
0
30
0
70
128
71
11
72
10
73
18
0
VERTEX
8
OBJECT__8
10
0
20
0
30
0
70
128
71
19
72
13
73
12
0
VERTEX
8
OBJECT__8
10
0
20
0
30
0
70
128
71
20
72
21
73
19
0
VERTEX
8
OBJECT__8
10
0
20
0
30
0
70
128
71
12
72
15
73
22
0
VERTEX
8
OBJECT__8
10
0
20
0
30
0
70
128
71
15
72
16
73
23
0
VERTEX
8
OBJECT__8
10
0
20
0
30
0
70
128
71
16
72
17
73
24
0
VERTEX
8
OBJECT__8
10
0
20
0
30
0
70
128
71
25
72
24
73
17
0
VERTEX
8
OBJECT__8
10
0
20
0
30
0
70
128
71
17
72
26
73
25
0
VERTEX
8
OBJECT__8
10
0
20
0
30
0
70
128
71
27
72
21
73
20
0
VERTEX
8
OBJECT__8
10
0
20
0
30
0
70
128
71
28
72
29
73
27
0
VERTEX
8
OBJECT__8
10
0
20
0
30
0
70
128
71
20
72
22
73
30
0
VERTEX
8
OBJECT__8
10
0
20
0
30
0
70
128
71
22
72
23
73
31
0
VERTEX
8
OBJECT__8
10
0
20
0
30
0
70
128
71
23
72
24
73
32
0
VERTEX
8
OBJECT__8
10
0
20
0
30
0
70
128
71
33
72
32
73
24
0
VERTEX
8
OBJECT__8
10
0
20
0
30
0
70
128
71
24
72
34
73
33
0
VERTEX
8
OBJECT__8
10
0
20
0
30
0
70
128
71
35
72
36
73
29
0
VERTEX
8
OBJECT__8
10
0
20
0
30
0
70
128
71
37
72
35
73
28
0
VERTEX
8
OBJECT__8
10
0
20
0
30
0
70
128
71
37
72
30
73
31
0
VERTEX
8
OBJECT__8
10
0
20
0
30
0
70
128
71
38
72
31
73
32
0
VERTEX
8
OBJECT__8
10
0
20
0
30
0
70
128
71
39
72
40
73
32
0
VERTEX
8
OBJECT__8
10
0
20
0
30
0
70
128
71
32
72
41
73
39
0
VERTEX
8
OBJECT__8
10
0
20
0
30
0
70
128
71
32
72
40
73
38
0
VERTEX
8
OBJECT__8
10
0
20
0
30
0
70
128
71
31
72
38
73
37
0
VERTEX
8
OBJECT__8
10
0
20
0
30
0
70
128
71
28
72
30
73
37
0
VERTEX
8
OBJECT__8
10
0
20
0
30
0
70
128
71
29
72
28
73
35
0
VERTEX
8
OBJECT__8
10
0
20
0
30
0
70
128
71
33
72
41
73
32
0
VERTEX
8
OBJECT__8
10
0
20
0
30
0
70
128
71
32
72
31
73
23
0
VERTEX
8
OBJECT__8
10
0
20
0
30
0
70
128
71
31
72
30
73
22
0
VERTEX
8
OBJECT__8
10
0
20
0
30
0
70
128
71
30
72
28
73
20
0
VERTEX
8
OBJECT__8
10
0
20
0
30
0
70
128
71
20
72
28
73
27
0
VERTEX
8
OBJECT__8
10
0
20
0
30
0
70
128
71
25
72
34
73
24
0
VERTEX
8
OBJECT__8
10
0
20
0
30
0
70
128
71
24
72
23
73
16
0
VERTEX
8
OBJECT__8
10
0
20
0
30
0
70
128
71
23
72
22
73
15
0
VERTEX
8
OBJECT__8
10
0
20
0
30
0
70
128
71
22
72
20
73
12
0
VERTEX
8
OBJECT__8
10
0
20
0
30
0
70
128
71
12
72
20
73
19
0
VERTEX
8
OBJECT__8
10
0
20
0
30
0
70
128
71
18
72
26
73
17
0
VERTEX
8
OBJECT__8
10
0
20
0
30
0
70
128
71
17
72
16
73
6
0
VERTEX
8
OBJECT__8
10
0
20
0
30
0
70
128
71
16
72
15
73
4
0
VERTEX
8
OBJECT__8
10
0
20
0
30
0
70
128
71
15
72
12
73
1
0
VERTEX
8
OBJECT__8
10
0
20
0
30
0
70
128
71
14
72
2
73
1
0
VERTEX
8
OBJECT__8
10
0
20
0
30
0
70
128
71
9
72
42
73
10
0
VERTEX
8
OBJECT__8
10
0
20
0
30
0
70
128
71
9
72
11
73
6
0
VERTEX
8
OBJECT__8
10
0
20
0
30
0
70
128
71
7
72
8
73
6
0
VERTEX
8
OBJECT__8
10
0
20
0
30
0
70
128
71
5
72
7
73
4
0
VERTEX
8
OBJECT__8
10
0
20
0
30
0
70
128
71
3
72
5
73
1
0
SEQEND
8
OBJECT__8
0
POLYLINE
8
OBJECT__9
66
1
70
64
71
42
72
56
62
253
0
VERTEX
8
OBJECT__9
10
-10.966000
20
-38.400002
30
223.194000
70
192
0
VERTEX
8
OBJECT__9
10
-8.423000
20
-30.171000
30
222.367004
70
192
0
VERTEX
8
OBJECT__9
10
-11.326000
20
-30.171000
30
204.035004
70
192
0
VERTEX
8
OBJECT__9
10
-2.159000
20
-38.400002
30
240.477005
70
192
0
VERTEX
8
OBJECT__9
10
0.004000
20
-30.171000
30
238.906006
70
192
0
VERTEX
8
OBJECT__9
10
11.557000
20
-38.400002
30
254.194000
70
192
0
VERTEX
8
OBJECT__9
10
13.129000
20
-30.171000
30
252.029999
70
192
0
VERTEX
8
OBJECT__9
10
28.841000
20
-38.400002
30
263.000000
70
192
0
VERTEX
8
OBJECT__9
10
29.667000
20
-30.171000
30
260.457001
70
192
0
VERTEX
8
OBJECT__9
10
48.000000
20
-38.400002
30
266.035004
70
192
0
VERTEX
8
OBJECT__9
10
48.000000
20
-30.171000
30
263.360992
70
192
0
VERTEX
8
OBJECT__9
10
-9.598000
20
-28.915001
30
204.035004
70
192
0
VERTEX
8
OBJECT__9
10
-1.765000
20
-25.084999
30
220.203995
70
192
0
VERTEX
8
OBJECT__9
10
-4.326000
20
-25.084999
30
204.035004
70
192
0
VERTEX
8
OBJECT__9
10
5.667000
20
-25.084999
30
234.791000
70
192
0
VERTEX
8
OBJECT__9
10
17.243000
20
-25.084999
30
246.367004
70
192
0
VERTEX
8
OBJECT__9
10
31.830000
20
-25.084999
30
253.800003
70
192
0
VERTEX
8
OBJECT__9
10
48.000000
20
-28.915001
30
261.632996
70
192
0
VERTEX
8
OBJECT__9
10
48.000000
20
-25.084999
30
256.360992
70
192
0
VERTEX
8
OBJECT__9
10
0.000000
20
-24.400000
30
204.035004
70
192
0
VERTEX
8
OBJECT__9
10
6.464000
20
-25.084999
30
217.529999
70
192
0
VERTEX
8
OBJECT__9
10
4.326000
20
-25.084999
30
204.035004
70
192
0
VERTEX
8
OBJECT__9
10
12.667000
20
-25.084999
30
229.705002
70
192
0
VERTEX
8
OBJECT__9
10
22.329000
20
-25.084999
30
239.367004
70
192
0
VERTEX
8
OBJECT__9
10
34.504002
20
-25.084999
30
245.570999
70
192
0
VERTEX
8
OBJECT__9
10
48.000000
20
-24.400000
30
252.035004
70
192
0
VERTEX
8
OBJECT__9
10
48.000000
20
-25.084999
30
247.707993
70
192
0
VERTEX
8
OBJECT__9
10
13.121000
20
-30.171000
30
215.367004
70
192
0
VERTEX
8
OBJECT__9
10
9.598000
20
-28.915001
30
204.035004
70
192
0
VERTEX
8
OBJECT__9
10
11.326000
20
-30.171000
30
204.035004
70
192
0
VERTEX
8
OBJECT__9
10
18.330000
20
-30.171000
30
225.591003
70
192
0
VERTEX
8
OBJECT__9
10
26.444000
20
-30.171000
30
233.703995
70
192
0
VERTEX
8
OBJECT__9
10
36.667000
20
-30.171000
30
238.912994
70
192
0
VERTEX
8
OBJECT__9
10
48.000000
20
-28.915001
30
242.436005
70
192
0
VERTEX
8
OBJECT__9
10
15.664000
20
-38.400002
30
214.541000
70
192
0
VERTEX
8
OBJECT__9
10
14.000000
20
-38.400002
30
204.035004
70
192
0
VERTEX
8
OBJECT__9
10
20.493000
20
-38.400002
30
224.018997
70
192
0
VERTEX
8
OBJECT__9
10
28.014999
20
-38.400002
30
231.541000
70
192
0
VERTEX
8
OBJECT__9
10
37.493000
20
-38.400002
30
236.369995
70
192
0
VERTEX
8
OBJECT__9
10
48.000000
20
-30.171000
30
240.707993
70
192
0
VERTEX
8
OBJECT__9
10
48.000000
20
-38.400002
30
238.035004
70
192
0
VERTEX
8
OBJECT__9
10
-14.000000
20
-38.400002
30
204.035004
70
192
0
VERTEX
8
OBJECT__9
10
0
20
0
30
0
70
128
71
1
72
2
73
3
0
VERTEX
8
OBJECT__9
10
0
20
0
30
0
70
128
71
4
72
5
73
2
0
VERTEX
8
OBJECT__9
10
0
20
0
30
0
70
128
71
6
72
7
73
5
0
VERTEX
8
OBJECT__9
10
0
20
0
30
0
70
128
71
6
72
8
73
9
0
VERTEX
8
OBJECT__9
10
0
20
0
30
0
70
128
71
8
72
10
73
11
0
VERTEX
8
OBJECT__9
10
0
20
0
30
0
70
128
71
12
72
2
73
13
0
VERTEX
8
OBJECT__9
10
0
20
0
30
0
70
128
71
13
72
14
73
12
0
VERTEX
8
OBJECT__9
10
0
20
0
30
0
70
128
71
2
72
5
73
15
0
VERTEX
8
OBJECT__9
10
0
20
0
30
0
70
128
71
5
72
7
73
16
0
VERTEX
8
OBJECT__9
10
0
20
0
30
0
70
128
71
7
72
9
73
17
0
VERTEX
8
OBJECT__9
10
0
20
0
30
0
70
128
71
18
72
19
73
17
0
VERTEX
8
OBJECT__9
10
0
20
0
30
0
70
128
71
9
72
11
73
18
0
VERTEX
8
OBJECT__9
10
0
20
0
30
0
70
128
71
20
72
13
73
21
0
VERTEX
8
OBJECT__9
10
0
20
0
30
0
70
128
71
21
72
22
73
20
0
VERTEX
8
OBJECT__9
10
0
20
0
30
0
70
128
71
13
72
15
73
23
0
VERTEX
8
OBJECT__9
10
0
20
0
30
0
70
128
71
15
72
16
73
24
0
VERTEX
8
OBJECT__9
10
0
20
0
30
0
70
128
71
16
72
17
73
25
0
VERTEX
8
OBJECT__9
10
0
20
0
30
0
70
128
71
26
72
27
73
25
0
VERTEX
8
OBJECT__9
10
0
20
0
30
0
70
128
71
17
72
19
73
26
0
VERTEX
8
OBJECT__9
10
0
20
0
30
0
70
128
71
21
72
28
73
29
0
VERTEX
8
OBJECT__9
10
0
20
0
30
0
70
128
71
28
72
30
73
29
0
VERTEX
8
OBJECT__9
10
0
20
0
30
0
70
128
71
21
72
23
73
31
0
VERTEX
8
OBJECT__9
10
0
20
0
30
0
70
128
71
23
72
24
73
32
0
VERTEX
8
OBJECT__9
10
0
20
0
30
0
70
128
71
24
72
25
73
33
0
VERTEX
8
OBJECT__9
10
0
20
0
30
0
70
128
71
25
72
27
73
34
0
VERTEX
8
OBJECT__9
10
0
20
0
30
0
70
128
71
34
72
33
73
25
0
VERTEX
8
OBJECT__9
10
0
20
0
30
0
70
128
71
28
72
35
73
36
0
VERTEX
8
OBJECT__9
10
0
20
0
30
0
70
128
71
31
72
37
73
35
0
VERTEX
8
OBJECT__9
10
0
20
0
30
0
70
128
71
31
72
32
73
38
0
VERTEX
8
OBJECT__9
10
0
20
0
30
0
70
128
71
33
72
39
73
38
0
VERTEX
8
OBJECT__9
10
0
20
0
30
0
70
128
71
40
72
41
73
39
0
VERTEX
8
OBJECT__9
10
0
20
0
30
0
70
128
71
39
72
33
73
40
0
VERTEX
8
OBJECT__9
10
0
20
0
30
0
70
128
71
38
72
32
73
33
0
VERTEX
8
OBJECT__9
10
0
20
0
30
0
70
128
71
38
72
37
73
31
0
VERTEX
8
OBJECT__9
10
0
20
0
30
0
70
128
71
35
72
28
73
31
0
VERTEX
8
OBJECT__9
10
0
20
0
30
0
70
128
71
36
72
30
73
28
0
VERTEX
8
OBJECT__9
10
0
20
0
30
0
70
128
71
34
72
40
73
33
0
VERTEX
8
OBJECT__9
10
0
20
0
30
0
70
128
71
33
72
32
73
24
0
VERTEX
8
OBJECT__9
10
0
20
0
30
0
70
128
71
32
72
31
73
23
0
VERTEX
8
OBJECT__9
10
0
20
0
30
0
70
128
71
31
72
28
73
21
0
VERTEX
8
OBJECT__9
10
0
20
0
30
0
70
128
71
29
72
22
73
21
0
VERTEX
8
OBJECT__9
10
0
20
0
30
0
70
128
71
25
72
17
73
26
0
VERTEX
8
OBJECT__9
10
0
20
0
30
0
70
128
71
25
72
24
73
16
0
VERTEX
8
OBJECT__9
10
0
20
0
30
0
70
128
71
24
72
23
73
15
0
VERTEX
8
OBJECT__9
10
0
20
0
30
0
70
128
71
23
72
21
73
13
0
VERTEX
8
OBJECT__9
10
0
20
0
30
0
70
128
71
20
72
14
73
13
0
VERTEX
8
OBJECT__9
10
0
20
0
30
0
70
128
71
17
72
9
73
18
0
VERTEX
8
OBJECT__9
10
0
20
0
30
0
70
128
71
17
72
16
73
7
0
VERTEX
8
OBJECT__9
10
0
20
0
30
0
70
128
71
16
72
15
73
5
0
VERTEX
8
OBJECT__9
10
0
20
0
30
0
70
128
71
15
72
13
73
2
0
VERTEX
8
OBJECT__9
10
0
20
0
30
0
70
128
71
12
72
3
73
2
0
VERTEX
8
OBJECT__9
10
0
20
0
30
0
70
128
71
11
72
9
73
8
0
VERTEX
8
OBJECT__9
10
0
20
0
30
0
70
128
71
9
72
7
73
6
0
VERTEX
8
OBJECT__9
10
0
20
0
30
0
70
128
71
5
72
4
73
6
0
VERTEX
8
OBJECT__9
10
0
20
0
30
0
70
128
71
2
72
1
73
4
0
VERTEX
8
OBJECT__9
10
0
20
0
30
0
70
128
71
3
72
42
73
1
0
SEQEND
8
OBJECT__9
0
POLYLINE
8
OBJECT__10
66
1
70
64
71
14
72
12
62
253
0
VERTEX
8
OBJECT__10
10
-9.899000
20
-28.500999
30
20.500000
70
192
0
VERTEX
8
OBJECT__10
10
-9.598000
20
-28.915001
30
204.035004
70
192
0
VERTEX
8
OBJECT__10
10
-4.326000
20
-25.084999
30
204.035004
70
192
0
VERTEX
8
OBJECT__10
10
0.000000
20
-24.400000
30
20.500000
70
192
0
VERTEX
8
OBJECT__10
10
-14.000000
20
-38.400002
30
20.500000
70
192
0
VERTEX
8
OBJECT__10
10
-14.000000
20
-38.400002
30
204.035004
70
192
0
VERTEX
8
OBJECT__10
10
-11.326000
20
-30.171000
30
204.035004
70
192
0
VERTEX
8
OBJECT__10
10
-9.899000
20
-48.299000
30
20.500000
70
192
0
VERTEX
8
OBJECT__10
10
-11.326000
20
-46.629002
30
204.035004
70
192
0
VERTEX
8
OBJECT__10
10
-9.598000
20
-47.884998
30
204.035004
70
192
0
VERTEX
8
OBJECT__10
10
0.000000
20
-52.400002
30
20.500000
70
192
0
VERTEX
8
OBJECT__10
10
-4.326000
20
-51.715000
30
204.035004
70
192
0
VERTEX
8
OBJECT__10
10
0.000000
20
-52.400002
30
204.035004
70
192
0
VERTEX
8
OBJECT__10
10
0.000000
20
-24.400000
30
204.035004
70
192
0
VERTEX
8
OBJECT__10
10
0
20
0
30
0
70
128
71
1
72
2
73
3
0
VERTEX
8
OBJECT__10
10
0
20
0
30
0
70
128
71
3
72
4
73
1
0
VERTEX
8
OBJECT__10
10
0
20
0
30
0
70
128
71
5
72
6
73
7
0
VERTEX
8
OBJECT__10
10
0
20
0
30
0
70
128
71
7
72
1
73
5
0
VERTEX
8
OBJECT__10
10
0
20
0
30
0
70
128
71
5
72
8
73
9
0
VERTEX
8
OBJECT__10
10
0
20
0
30
0
70
128
71
8
72
10
73
9
0
VERTEX
8
OBJECT__10
10
0
20
0
30
0
70
128
71
8
72
11
73
12
0
VERTEX
8
OBJECT__10
10
0
20
0
30
0
70
128
71
11
72
13
73
12
0
VERTEX
8
OBJECT__10
10
0
20
0
30
0
70
128
71
12
72
10
73
8
0
VERTEX
8
OBJECT__10
10
0
20
0
30
0
70
128
71
9
72
6
73
5
0
VERTEX
8
OBJECT__10
10
0
20
0
30
0
70
128
71
7
72
2
73
1
0
VERTEX
8
OBJECT__10
10
0
20
0
30
0
70
128
71
3
72
14
73
4
0
SEQEND
8
OBJECT__10
0
POLYLINE
8
OBJECT__11
66
1
70
64
71
14
72
12
62
253
0
VERTEX
8
OBJECT__11
10
9.899000
20
-48.299000
30
20.500000
70
192
0
VERTEX
8
OBJECT__11
10
9.598000
20
-47.884998
30
204.035004
70
192
0
VERTEX
8
OBJECT__11
10
4.326000
20
-51.715000
30
204.035004
70
192
0
VERTEX
8
OBJECT__11
10
0.000000
20
-52.400002
30
20.500000
70
192
0
VERTEX
8
OBJECT__11
10
14.000000
20
-38.400002
30
20.500000
70
192
0
VERTEX
8
OBJECT__11
10
14.000000
20
-38.400002
30
204.035004
70
192
0
VERTEX
8
OBJECT__11
10
11.326000
20
-46.629002
30
204.035004
70
192
0
VERTEX
8
OBJECT__11
10
9.899000
20
-28.500999
30
20.500000
70
192
0
VERTEX
8
OBJECT__11
10
11.326000
20
-30.171000
30
204.035004
70
192
0
VERTEX
8
OBJECT__11
10
9.598000
20
-28.915001
30
204.035004
70
192
0
VERTEX
8
OBJECT__11
10
0.000000
20
-24.400000
30
20.500000
70
192
0
VERTEX
8
OBJECT__11
10
4.326000
20
-25.084999
30
204.035004
70
192
0
VERTEX
8
OBJECT__11
10
0.000000
20
-24.400000
30
204.035004
70
192
0
VERTEX
8
OBJECT__11
10
0.000000
20
-52.400002
30
204.035004
70
192
0
VERTEX
8
OBJECT__11
10
0
20
0
30
0
70
128
71
1
72
2
73
3
0
VERTEX
8
OBJECT__11
10
0
20
0
30
0
70
128
71
3
72
4
73
1
0
VERTEX
8
OBJECT__11
10
0
20
0
30
0
70
128
71
5
72
6
73
7
0
VERTEX
8
OBJECT__11
10
0
20
0
30
0
70
128
71
7
72
1
73
5
0
VERTEX
8
OBJECT__11
10
0
20
0
30
0
70
128
71
5
72
8
73
9
0
VERTEX
8
OBJECT__11
10
0
20
0
30
0
70
128
71
8
72
10
73
9
0
VERTEX
8
OBJECT__11
10
0
20
0
30
0
70
128
71
8
72
11
73
12
0
VERTEX
8
OBJECT__11
10
0
20
0
30
0
70
128
71
11
72
13
73
12
0
VERTEX
8
OBJECT__11
10
0
20
0
30
0
70
128
71
12
72
10
73
8
0
VERTEX
8
OBJECT__11
10
0
20
0
30
0
70
128
71
9
72
6
73
5
0
VERTEX
8
OBJECT__11
10
0
20
0
30
0
70
128
71
7
72
2
73
1
0
VERTEX
8
OBJECT__11
10
0
20
0
30
0
70
128
71
3
72
14
73
4
0
SEQEND
8
OBJECT__11
0
POLYLINE
8
OBJECT__12
66
1
70
64
71
21
72
23
62
253
0
VERTEX
8
OBJECT__12
10
-8.826000
20
-66.653999
30
-8.861000
70
192
0
VERTEX
8
OBJECT__12
10
8.826000
20
-66.653999
30
-8.861000
70
192
0
VERTEX
8
OBJECT__12
10
8.826000
20
-66.653999
30
8.861000
70
192
0
VERTEX
8
OBJECT__12
10
8.626000
20
-64.000000
30
-22.860001
70
192
0
VERTEX
8
OBJECT__12
10
16.712000
20
-64.000000
30
-19.917000
70
192
0
VERTEX
8
OBJECT__12
10
25.605000
20
-64.000000
30
-4.515000
70
192
0
VERTEX
8
OBJECT__12
10
23.247999
20
-64.000000
30
8.850000
70
192
0
VERTEX
8
OBJECT__12
10
23.110001
20
-64.000000
30
-8.837000
70
192
0
VERTEX
8
OBJECT__12
10
22.517000
20
-64.000000
30
13.000000
70
192
0
VERTEX
8
OBJECT__12
10
8.893000
20
-64.000000
30
24.431999
70
192
0
VERTEX
8
OBJECT__12
10
-8.826000
20
-66.653999
30
8.861000
70
192
0
VERTEX
8
OBJECT__12
10
8.592000
20
-64.000000
30
24.431999
70
192
0
VERTEX
8
OBJECT__12
10
-8.592000
20
-64.000000
30
24.431999
70
192
0
VERTEX
8
OBJECT__12
10
-8.893000
20
-64.000000
30
24.431999
70
192
0
VERTEX
8
OBJECT__12
10
-22.517000
20
-64.000000
30
13.000000
70
192
0
VERTEX
8
OBJECT__12
10
-23.247999
20
-64.000000
30
8.850000
70
192
0
VERTEX
8
OBJECT__12
10
-25.605000
20
-64.000000
30
-4.515000
70
192
0
VERTEX
8
OBJECT__12
10
-23.110001
20
-64.000000
30
-8.837000
70
192
0
VERTEX
8
OBJECT__12
10
-16.712000
20
-64.000000
30
-19.917000
70
192
0
VERTEX
8
OBJECT__12
10
0.000000
20
-64.000000
30
-26.000000
70
192
0
VERTEX
8
OBJECT__12
10
-8.626000
20
-64.000000
30
-22.860001
70
192
0
VERTEX
8
OBJECT__12
10
0
20
0
30
0
70
128
71
1
72
2
73
3
0
VERTEX
8
OBJECT__12
10
0
20
0
30
0
70
128
71
2
72
4
73
5
0
VERTEX
8
OBJECT__12
10
0
20
0
30
0
70
128
71
2
72
6
73
7
0
VERTEX
8
OBJECT__12
10
0
20
0
30
0
70
128
71
2
72
8
73
6
0
VERTEX
8
OBJECT__12
10
0
20
0
30
0
70
128
71
3
72
9
73
10
0
VERTEX
8
OBJECT__12
10
0
20
0
30
0
70
128
71
3
72
7
73
9
0
VERTEX
8
OBJECT__12
10
0
20
0
30
0
70
128
71
11
72
3
73
12
0
VERTEX
8
OBJECT__12
10
0
20
0
30
0
70
128
71
11
72
13
73
14
0
VERTEX
8
OBJECT__12
10
0
20
0
30
0
70
128
71
14
72
15
73
11
0
VERTEX
8
OBJECT__12
10
0
20
0
30
0
70
128
71
1
72
11
73
16
0
VERTEX
8
OBJECT__12
10
0
20
0
30
0
70
128
71
16
72
17
73
1
0
VERTEX
8
OBJECT__12
10
0
20
0
30
0
70
128
71
1
72
18
73
19
0
VERTEX
8
OBJECT__12
10
0
20
0
30
0
70
128
71
1
72
20
73
4
0
VERTEX
8
OBJECT__12
10
0
20
0
30
0
70
128
71
1
72
21
73
20
0
VERTEX
8
OBJECT__12
10
0
20
0
30
0
70
128
71
4
72
2
73
1
0
VERTEX
8
OBJECT__12
10
0
20
0
30
0
70
128
71
19
72
21
73
1
0
VERTEX
8
OBJECT__12
10
0
20
0
30
0
70
128
71
17
72
18
73
1
0
VERTEX
8
OBJECT__12
10
0
20
0
30
0
70
128
71
15
72
16
73
11
0
VERTEX
8
OBJECT__12
10
0
20
0
30
0
70
128
71
12
72
13
73
11
0
VERTEX
8
OBJECT__12
10
0
20
0
30
0
70
128
71
10
72
12
73
3
0
VERTEX
8
OBJECT__12
10
0
20
0
30
0
70
128
71
7
72
3
73
2
0
VERTEX
8
OBJECT__12
10
0
20
0
30
0
70
128
71
5
72
8
73
2
0
VERTEX
8
OBJECT__12
10
0
20
0
30
0
70
128
71
3
72
11
73
1
0
SEQEND
8
OBJECT__12
0
POLYLINE
8
OBJECT__13
66
1
70
64
71
35
72
35
62
253
0
VERTEX
8
OBJECT__13
10
-8.626000
20
-64.000000
30
-22.860001
70
192
0
VERTEX
8
OBJECT__13
10
-8.893000
20
19.900000
30
-24.431999
70
192
0
VERTEX
8
OBJECT__13
10
0.000000
20
19.900000
30
-24.431999
70
192
0
VERTEX
8
OBJECT__13
10
-15.705000
20
19.900000
30
-18.716000
70
192
0
VERTEX
8
OBJECT__13
10
-16.712000
20
-64.000000
30
-19.917000
70
192
0
VERTEX
8
OBJECT__13
10
-24.061001
20
19.900000
30
-4.243000
70
192
0
VERTEX
8
OBJECT__13
10
-22.517000
20
19.900000
30
-13.000000
70
192
0
VERTEX
8
OBJECT__13
10
-23.110001
20
-64.000000
30
-8.837000
70
192
0
VERTEX
8
OBJECT__13
10
-25.605000
20
-64.000000
30
-4.515000
70
192
0
VERTEX
8
OBJECT__13
10
-23.247999
20
-64.000000
30
8.850000
70
192
0
VERTEX
8
OBJECT__13
10
-25.605000
20
19.900000
30
4.515000
70
192
0
VERTEX
8
OBJECT__13
10
-21.159000
20
19.900000
30
12.216000
70
192
0
VERTEX
8
OBJECT__13
10
-22.517000
20
-64.000000
30
13.000000
70
192
0
VERTEX
8
OBJECT__13
10
-8.893000
20
-64.000000
30
24.431999
70
192
0
VERTEX
8
OBJECT__13
10
-16.712000
20
19.900000
30
19.917000
70
192
0
VERTEX
8
OBJECT__13
10
-8.356000
20
19.900000
30
22.959000
70
192
0
VERTEX
8
OBJECT__13
10
8.356000
20
19.900000
30
22.959000
70
192
0
VERTEX
8
OBJECT__13
10
-8.592000
20
-64.000000
30
24.431999
70
192
0
VERTEX
8
OBJECT__13
10
8.592000
20
-64.000000
30
24.431999
70
192
0
VERTEX
8
OBJECT__13
10
0.000000
20
19.900000
30
26.000000
70
192
0
VERTEX
8
OBJECT__13
10
8.893000
20
-64.000000
30
24.431999
70
192
0
VERTEX
8
OBJECT__13
10
22.517000
20
-64.000000
30
13.000000
70
192
0
VERTEX
8
OBJECT__13
10
16.712000
20
19.900000
30
19.917000
70
192
0
VERTEX
8
OBJECT__13
10
21.159000
20
19.900000
30
12.216000
70
192
0
VERTEX
8
OBJECT__13
10
25.605000
20
-64.000000
30
-4.515000
70
192
0
VERTEX
8
OBJECT__13
10
24.061001
20
19.900000
30
-4.243000
70
192
0
VERTEX
8
OBJECT__13
10
25.605000
20
19.900000
30
4.515000
70
192
0
VERTEX
8
OBJECT__13
10
23.247999
20
-64.000000
30
8.850000
70
192
0
VERTEX
8
OBJECT__13
10
16.712000
20
-64.000000
30
-19.917000
70
192
0
VERTEX
8
OBJECT__13
10
15.705000
20
19.900000
30
-18.716000
70
192
0
VERTEX
8
OBJECT__13
10
22.517000
20
19.900000
30
-13.000000
70
192
0
VERTEX
8
OBJECT__13
10
23.110001
20
-64.000000
30
-8.837000
70
192
0
VERTEX
8
OBJECT__13
10
8.626000
20
-64.000000
30
-22.860001
70
192
0
VERTEX
8
OBJECT__13
10
8.893000
20
19.900000
30
-24.431999
70
192
0
VERTEX
8
OBJECT__13
10
0.000000
20
-64.000000
30
-26.000000
70
192
0
VERTEX
8
OBJECT__13
10
0
20
0
30
0
70
128
71
1
72
2
73
3
0
VERTEX
8
OBJECT__13
10
0
20
0
30
0
70
128
71
4
72
2
73
1
0
VERTEX
8
OBJECT__13
10
0
20
0
30
0
70
128
71
1
72
5
73
4
0
VERTEX
8
OBJECT__13
10
0
20
0
30
0
70
128
71
6
72
7
73
8
0
VERTEX
8
OBJECT__13
10
0
20
0
30
0
70
128
71
5
72
8
73
7
0
VERTEX
8
OBJECT__13
10
0
20
0
30
0
70
128
71
7
72
4
73
5
0
VERTEX
8
OBJECT__13
10
0
20
0
30
0
70
128
71
9
72
10
73
11
0
VERTEX
8
OBJECT__13
10
0
20
0
30
0
70
128
71
10
72
12
73
11
0
VERTEX
8
OBJECT__13
10
0
20
0
30
0
70
128
71
11
72
6
73
9
0
VERTEX
8
OBJECT__13
10
0
20
0
30
0
70
128
71
13
72
14
73
15
0
VERTEX
8
OBJECT__13
10
0
20
0
30
0
70
128
71
14
72
16
73
15
0
VERTEX
8
OBJECT__13
10
0
20
0
30
0
70
128
71
17
72
18
73
19
0
VERTEX
8
OBJECT__13
10
0
20
0
30
0
70
128
71
16
72
14
73
18
0
VERTEX
8
OBJECT__13
10
0
20
0
30
0
70
128
71
18
72
17
73
20
0
VERTEX
8
OBJECT__13
10
0
20
0
30
0
70
128
71
18
72
20
73
16
0
VERTEX
8
OBJECT__13
10
0
20
0
30
0
70
128
71
19
72
21
73
17
0
VERTEX
8
OBJECT__13
10
0
20
0
30
0
70
128
71
21
72
22
73
23
0
VERTEX
8
OBJECT__13
10
0
20
0
30
0
70
128
71
22
72
24
73
23
0
VERTEX
8
OBJECT__13
10
0
20
0
30
0
70
128
71
25
72
26
73
27
0
VERTEX
8
OBJECT__13
10
0
20
0
30
0
70
128
71
27
72
28
73
25
0
VERTEX
8
OBJECT__13
10
0
20
0
30
0
70
128
71
24
72
22
73
28
0
VERTEX
8
OBJECT__13
10
0
20
0
30
0
70
128
71
29
72
30
73
31
0
VERTEX
8
OBJECT__13
10
0
20
0
30
0
70
128
71
26
72
25
73
32
0
VERTEX
8
OBJECT__13
10
0
20
0
30
0
70
128
71
32
72
31
73
26
0
VERTEX
8
OBJECT__13
10
0
20
0
30
0
70
128
71
33
72
34
73
30
0
VERTEX
8
OBJECT__13
10
0
20
0
30
0
70
128
71
33
72
35
73
3
0
VERTEX
8
OBJECT__13
10
0
20
0
30
0
70
128
71
3
72
34
73
33
0
VERTEX
8
OBJECT__13
10
0
20
0
30
0
70
128
71
30
72
29
73
33
0
VERTEX
8
OBJECT__13
10
0
20
0
30
0
70
128
71
31
72
32
73
29
0
VERTEX
8
OBJECT__13
10
0
20
0
30
0
70
128
71
27
72
24
73
28
0
VERTEX
8
OBJECT__13
10
0
20
0
30
0
70
128
71
23
72
17
73
21
0
VERTEX
8
OBJECT__13
10
0
20
0
30
0
70
128
71
15
72
12
73
13
0
VERTEX
8
OBJECT__13
10
0
20
0
30
0
70
128
71
10
72
13
73
12
0
VERTEX
8
OBJECT__13
10
0
20
0
30
0
70
128
71
8
72
9
73
6
0
VERTEX
8
OBJECT__13
10
0
20
0
30
0
70
128
71
3
72
35
73
1
0
SEQEND
8
OBJECT__13
0
POLYLINE
8
OBJECT__15
66
1
70
64
71
29
72
29
62
253
0
VERTEX
8
OBJECT__15
10
0.000000
20
43.200001
30
25.797001
70
192
0
VERTEX
8
OBJECT__15
10
-16.582001
20
43.200001
30
19.761000
70
192
0
VERTEX
8
OBJECT__15
10
-8.356000
20
19.900000
30
22.959000
70
192
0
VERTEX
8
OBJECT__15
10
-16.712000
20
19.900000
30
19.917000
70
192
0
VERTEX
8
OBJECT__15
10
-25.405001
20
43.200001
30
4.480000
70
192
0
VERTEX
8
OBJECT__15
10
-21.159000
20
19.900000
30
12.216000
70
192
0
VERTEX
8
OBJECT__15
10
-25.605000
20
19.900000
30
4.515000
70
192
0
VERTEX
8
OBJECT__15
10
-22.341000
20
43.200001
30
-12.898000
70
192
0
VERTEX
8
OBJECT__15
10
-24.061001
20
19.900000
30
-4.243000
70
192
0
VERTEX
8
OBJECT__15
10
-22.517000
20
19.900000
30
-13.000000
70
192
0
VERTEX
8
OBJECT__15
10
-8.893000
20
19.900000
30
-24.431999
70
192
0
VERTEX
8
OBJECT__15
10
-15.705000
20
19.900000
30
-18.716000
70
192
0
VERTEX
8
OBJECT__15
10
-16.582001
20
43.200001
30
-19.761000
70
192
0
VERTEX
8
OBJECT__15
10
8.823000
20
43.200001
30
-24.240999
70
192
0
VERTEX
8
OBJECT__15
10
8.893000
20
19.900000
30
-24.431999
70
192
0
VERTEX
8
OBJECT__15
10
0.000000
20
19.900000
30
-24.431999
70
192
0
VERTEX
8
OBJECT__15
10
-8.823000
20
43.200001
30
-24.240999
70
192
0
VERTEX
8
OBJECT__15
10
22.517000
20
19.900000
30
-13.000000
70
192
0
VERTEX
8
OBJECT__15
10
15.705000
20
19.900000
30
-18.716000
70
192
0
VERTEX
8
OBJECT__15
10
16.582001
20
43.200001
30
-19.761000
70
192
0
VERTEX
8
OBJECT__15
10
22.341000
20
43.200001
30
-12.898000
70
192
0
VERTEX
8
OBJECT__15
10
25.405001
20
43.200001
30
4.480000
70
192
0
VERTEX
8
OBJECT__15
10
24.061001
20
19.900000
30
-4.243000
70
192
0
VERTEX
8
OBJECT__15
10
25.605000
20
19.900000
30
4.515000
70
192
0
VERTEX
8
OBJECT__15
10
16.582001
20
43.200001
30
19.761000
70
192
0
VERTEX
8
OBJECT__15
10
21.159000
20
19.900000
30
12.216000
70
192
0
VERTEX
8
OBJECT__15
10
16.712000
20
19.900000
30
19.917000
70
192
0
VERTEX
8
OBJECT__15
10
8.356000
20
19.900000
30
22.959000
70
192
0
VERTEX
8
OBJECT__15
10
0.000000
20
19.900000
30
26.000000
70
192
0
VERTEX
8
OBJECT__15
10
0
20
0
30
0
70
128
71
1
72
2
73
3
0
VERTEX
8
OBJECT__15
10
0
20
0
30
0
70
128
71
2
72
4
73
3
0
VERTEX
8
OBJECT__15
10
0
20
0
30
0
70
128
71
2
72
5
73
6
0
VERTEX
8
OBJECT__15
10
0
20
0
30
0
70
128
71
5
72
7
73
6
0
VERTEX
8
OBJECT__15
10
0
20
0
30
0
70
128
71
5
72
8
73
9
0
VERTEX
8
OBJECT__15
10
0
20
0
30
0
70
128
71
8
72
10
73
9
0
VERTEX
8
OBJECT__15
10
0
20
0
30
0
70
128
71
11
72
12
73
13
0
VERTEX
8
OBJECT__15
10
0
20
0
30
0
70
128
71
8
72
13
73
12
0
VERTEX
8
OBJECT__15
10
0
20
0
30
0
70
128
71
12
72
10
73
8
0
VERTEX
8
OBJECT__15
10
0
20
0
30
0
70
128
71
14
72
15
73
16
0
VERTEX
8
OBJECT__15
10
0
20
0
30
0
70
128
71
16
72
17
73
14
0
VERTEX
8
OBJECT__15
10
0
20
0
30
0
70
128
71
18
72
19
73
20
0
VERTEX
8
OBJECT__15
10
0
20
0
30
0
70
128
71
14
72
20
73
19
0
VERTEX
8
OBJECT__15
10
0
20
0
30
0
70
128
71
19
72
15
73
14
0
VERTEX
8
OBJECT__15
10
0
20
0
30
0
70
128
71
21
72
22
73
23
0
VERTEX
8
OBJECT__15
10
0
20
0
30
0
70
128
71
22
72
24
73
23
0
VERTEX
8
OBJECT__15
10
0
20
0
30
0
70
128
71
22
72
25
73
26
0
VERTEX
8
OBJECT__15
10
0
20
0
30
0
70
128
71
25
72
27
73
26
0
VERTEX
8
OBJECT__15
10
0
20
0
30
0
70
128
71
25
72
1
73
28
0
VERTEX
8
OBJECT__15
10
0
20
0
30
0
70
128
71
1
72
29
73
28
0
VERTEX
8
OBJECT__15
10
0
20
0
30
0
70
128
71
28
72
27
73
25
0
VERTEX
8
OBJECT__15
10
0
20
0
30
0
70
128
71
26
72
24
73
22
0
VERTEX
8
OBJECT__15
10
0
20
0
30
0
70
128
71
23
72
18
73
21
0
VERTEX
8
OBJECT__15
10
0
20
0
30
0
70
128
71
20
72
21
73
18
0
VERTEX
8
OBJECT__15
10
0
20
0
30
0
70
128
71
16
72
11
73
17
0
VERTEX
8
OBJECT__15
10
0
20
0
30
0
70
128
71
13
72
17
73
11
0
VERTEX
8
OBJECT__15
10
0
20
0
30
0
70
128
71
9
72
7
73
5
0
VERTEX
8
OBJECT__15
10
0
20
0
30
0
70
128
71
6
72
4
73
2
0
VERTEX
8
OBJECT__15
10
0
20
0
30
0
70
128
71
3
72
29
73
1
0
SEQEND
8
OBJECT__15
0
POLYLINE
8
OBJECT__16
66
1
70
64
71
26
72
26
62
253
0
VERTEX
8
OBJECT__16
10
-16.582001
20
43.200001
30
-19.761000
70
192
0
VERTEX
8
OBJECT__16
10
-22.341000
20
43.200001
30
-12.898000
70
192
0
VERTEX
8
OBJECT__16
10
-19.959000
20
43.200001
30
-13.777000
70
192
0
VERTEX
8
OBJECT__16
10
16.582001
20
43.200001
30
-19.761000
70
192
0
VERTEX
8
OBJECT__16
10
8.823000
20
43.200001
30
-24.240999
70
192
0
VERTEX
8
OBJECT__16
10
11.270000
20
43.200001
30
-21.474001
70
192
0
VERTEX
8
OBJECT__16
10
-16.082001
20
43.200001
30
-18.153000
70
192
0
VERTEX
8
OBJECT__16
10
-5.804000
20
43.200001
30
-23.547001
70
192
0
VERTEX
8
OBJECT__16
10
-8.823000
20
43.200001
30
-24.240999
70
192
0
VERTEX
8
OBJECT__16
10
-22.676001
20
43.200001
30
-8.600000
70
192
0
VERTEX
8
OBJECT__16
10
25.405001
20
43.200001
30
4.480000
70
192
0
VERTEX
8
OBJECT__16
10
24.075001
20
43.200001
30
2.923000
70
192
0
VERTEX
8
OBJECT__16
10
19.959000
20
43.200001
30
13.777000
70
192
0
VERTEX
8
OBJECT__16
10
22.341000
20
43.200001
30
-12.898000
70
192
0
VERTEX
8
OBJECT__16
10
22.676001
20
43.200001
30
-8.600000
70
192
0
VERTEX
8
OBJECT__16
10
5.804000
20
43.200001
30
-23.547001
70
192
0
VERTEX
8
OBJECT__16
10
-25.405001
20
43.200001
30
4.480000
70
192
0
VERTEX
8
OBJECT__16
10
-24.075001
20
43.200001
30
2.923000
70
192
0
VERTEX
8
OBJECT__16
10
16.582001
20
43.200001
30
19.761000
70
192
0
VERTEX
8
OBJECT__16
10
11.270000
20
43.200001
30
21.474001
70
192
0
VERTEX
8
OBJECT__16
10
16.082001
20
43.200001
30
-18.153000
70
192
0
VERTEX
8
OBJECT__16
10
-16.582001
20
43.200001
30
19.761000
70
192
0
VERTEX
8
OBJECT__16
10
-19.959000
20
43.200001
30
13.777000
70
192
0
VERTEX
8
OBJECT__16
10
0.000000
20
43.200001
30
25.797001
70
192
0
VERTEX
8
OBJECT__16
10
0.000000
20
43.200001
30
24.252001
70
192
0
VERTEX
8
OBJECT__16
10
-11.270000
20
43.200001
30
21.474001
70
192
0
VERTEX
8
OBJECT__16
10
0
20
0
30
0
70
128
71
1
72
2
73
3
0
VERTEX
8
OBJECT__16
10
0
20
0
30
0
70
128
71
4
72
5
73
6
0
VERTEX
8
OBJECT__16
10
0
20
0
30
0
70
128
71
7
72
8
73
9
0
VERTEX
8
OBJECT__16
10
0
20
0
30
0
70
128
71
2
72
10
73
3
0
VERTEX
8
OBJECT__16
10
0
20
0
30
0
70
128
71
11
72
12
73
13
0
VERTEX
8
OBJECT__16
10
0
20
0
30
0
70
128
71
11
72
14
73
15
0
VERTEX
8
OBJECT__16
10
0
20
0
30
0
70
128
71
5
72
16
73
6
0
VERTEX
8
OBJECT__16
10
0
20
0
30
0
70
128
71
5
72
9
73
8
0
VERTEX
8
OBJECT__16
10
0
20
0
30
0
70
128
71
3
72
7
73
1
0
VERTEX
8
OBJECT__16
10
0
20
0
30
0
70
128
71
17
72
18
73
10
0
VERTEX
8
OBJECT__16
10
0
20
0
30
0
70
128
71
19
72
13
73
20
0
VERTEX
8
OBJECT__16
10
0
20
0
30
0
70
128
71
15
72
12
73
11
0
VERTEX
8
OBJECT__16
10
0
20
0
30
0
70
128
71
21
72
15
73
14
0
VERTEX
8
OBJECT__16
10
0
20
0
30
0
70
128
71
8
72
16
73
5
0
VERTEX
8
OBJECT__16
10
0
20
0
30
0
70
128
71
10
72
2
73
17
0
VERTEX
8
OBJECT__16
10
0
20
0
30
0
70
128
71
17
72
22
73
23
0
VERTEX
8
OBJECT__16
10
0
20
0
30
0
70
128
71
24
72
25
73
26
0
VERTEX
8
OBJECT__16
10
0
20
0
30
0
70
128
71
13
72
19
73
11
0
VERTEX
8
OBJECT__16
10
0
20
0
30
0
70
128
71
6
72
21
73
4
0
VERTEX
8
OBJECT__16
10
0
20
0
30
0
70
128
71
23
72
18
73
17
0
VERTEX
8
OBJECT__16
10
0
20
0
30
0
70
128
71
26
72
22
73
24
0
VERTEX
8
OBJECT__16
10
0
20
0
30
0
70
128
71
14
72
4
73
21
0
VERTEX
8
OBJECT__16
10
0
20
0
30
0
70
128
71
26
72
23
73
22
0
VERTEX
8
OBJECT__16
10
0
20
0
30
0
70
128
71
9
72
1
73
7
0
VERTEX
8
OBJECT__16
10
0
20
0
30
0
70
128
71
20
72
25
73
24
0
VERTEX
8
OBJECT__16
10
0
20
0
30
0
70
128
71
20
72
24
73
19
0
SEQEND
8
OBJECT__16
0
POLYLINE
8
OBJECT__17
66
1
70
64
71
41
72
54
62
253
0
VERTEX
8
OBJECT__17
10
-9.807000
20
50.533001
30
18.686001
70
192
0
VERTEX
8
OBJECT__17
10
0.000000
20
50.533001
30
21.104000
70
192
0
VERTEX
8
OBJECT__17
10
0.000000
20
56.500000
30
15.805000
70
192
0
VERTEX
8
OBJECT__17
10
-17.368000
20
50.533001
30
11.988000
70
192
0
VERTEX
8
OBJECT__17
10
-7.345000
20
56.500000
30
13.995000
70
192
0
VERTEX
8
OBJECT__17
10
-20.950001
20
50.533001
30
2.544000
70
192
0
VERTEX
8
OBJECT__17
10
-13.007000
20
56.500000
30
8.978000
70
192
0
VERTEX
8
OBJECT__17
10
-19.732000
20
50.533001
30
-7.483000
70
192
0
VERTEX
8
OBJECT__17
10
-15.690000
20
56.500000
30
1.905000
70
192
0
VERTEX
8
OBJECT__17
10
-13.994000
20
50.533001
30
-15.796000
70
192
0
VERTEX
8
OBJECT__17
10
-14.778000
20
56.500000
30
-5.605000
70
192
0
VERTEX
8
OBJECT__17
10
-5.050000
20
50.533001
30
-20.490000
70
192
0
VERTEX
8
OBJECT__17
10
-10.481000
20
56.500000
30
-11.830000
70
192
0
VERTEX
8
OBJECT__17
10
5.050000
20
50.533001
30
-20.490000
70
192
0
VERTEX
8
OBJECT__17
10
-3.782000
20
56.500000
30
-15.346000
70
192
0
VERTEX
8
OBJECT__17
10
13.994000
20
50.533001
30
-15.796000
70
192
0
VERTEX
8
OBJECT__17
10
3.782000
20
56.500000
30
-15.346000
70
192
0
VERTEX
8
OBJECT__17
10
10.481000
20
56.500000
30
-11.830000
70
192
0
VERTEX
8
OBJECT__17
10
14.778000
20
56.500000
30
-5.605000
70
192
0
VERTEX
8
OBJECT__17
10
19.732000
20
50.533001
30
-7.483000
70
192
0
VERTEX
8
OBJECT__17
10
15.690000
20
56.500000
30
1.905000
70
192
0
VERTEX
8
OBJECT__17
10
20.950001
20
50.533001
30
2.544000
70
192
0
VERTEX
8
OBJECT__17
10
13.007000
20
56.500000
30
8.978000
70
192
0
VERTEX
8
OBJECT__17
10
9.807000
20
50.533001
30
18.686001
70
192
0
VERTEX
8
OBJECT__17
10
17.368000
20
50.533001
30
11.988000
70
192
0
VERTEX
8
OBJECT__17
10
7.345000
20
56.500000
30
13.995000
70
192
0
VERTEX
8
OBJECT__17
10
-11.270000
20
43.200001
30
21.474001
70
192
0
VERTEX
8
OBJECT__17
10
0.000000
20
43.200001
30
24.252001
70
192
0
VERTEX
8
OBJECT__17
10
-24.075001
20
43.200001
30
2.923000
70
192
0
VERTEX
8
OBJECT__17
10
-19.959000
20
43.200001
30
13.777000
70
192
0
VERTEX
8
OBJECT__17
10
-22.676001
20
43.200001
30
-8.600000
70
192
0
VERTEX
8
OBJECT__17
10
-19.959000
20
43.200001
30
-13.777000
70
192
0
VERTEX
8
OBJECT__17
10
-16.082001
20
43.200001
30
-18.153000
70
192
0
VERTEX
8
OBJECT__17
10
-5.804000
20
43.200001
30
-23.547001
70
192
0
VERTEX
8
OBJECT__17
10
5.804000
20
43.200001
30
-23.547001
70
192
0
VERTEX
8
OBJECT__17
10
16.082001
20
43.200001
30
-18.153000
70
192
0
VERTEX
8
OBJECT__17
10
11.270000
20
43.200001
30
-21.474001
70
192
0
VERTEX
8
OBJECT__17
10
24.075001
20
43.200001
30
2.923000
70
192
0
VERTEX
8
OBJECT__17
10
22.676001
20
43.200001
30
-8.600000
70
192
0
VERTEX
8
OBJECT__17
10
19.959000
20
43.200001
30
13.777000
70
192
0
VERTEX
8
OBJECT__17
10
11.270000
20
43.200001
30
21.474001
70
192
0
VERTEX
8
OBJECT__17
10
0
20
0
30
0
70
128
71
1
72
2
73
3
0
VERTEX
8
OBJECT__17
10
0
20
0
30
0
70
128
71
4
72
1
73
5
0
VERTEX
8
OBJECT__17
10
0
20
0
30
0
70
128
71
6
72
4
73
7
0
VERTEX
8
OBJECT__17
10
0
20
0
30
0
70
128
71
8
72
6
73
9
0
VERTEX
8
OBJECT__17
10
0
20
0
30
0
70
128
71
10
72
8
73
11
0
VERTEX
8
OBJECT__17
10
0
20
0
30
0
70
128
71
12
72
10
73
13
0
VERTEX
8
OBJECT__17
10
0
20
0
30
0
70
128
71
14
72
12
73
15
0
VERTEX
8
OBJECT__17
10
0
20
0
30
0
70
128
71
16
72
14
73
17
0
VERTEX
8
OBJECT__17
10
0
20
0
30
0
70
128
71
16
72
18
73
19
0
VERTEX
8
OBJECT__17
10
0
20
0
30
0
70
128
71
20
72
19
73
21
0
VERTEX
8
OBJECT__17
10
0
20
0
30
0
70
128
71
22
72
21
73
23
0
VERTEX
8
OBJECT__17
10
0
20
0
30
0
70
128
71
24
72
25
73
23
0
VERTEX
8
OBJECT__17
10
0
20
0
30
0
70
128
71
2
72
24
73
26
0
VERTEX
8
OBJECT__17
10
0
20
0
30
0
70
128
71
27
72
28
73
2
0
VERTEX
8
OBJECT__17
10
0
20
0
30
0
70
128
71
27
72
1
73
4
0
VERTEX
8
OBJECT__17
10
0
20
0
30
0
70
128
71
29
72
30
73
4
0
VERTEX
8
OBJECT__17
10
0
20
0
30
0
70
128
71
31
72
29
73
6
0
VERTEX
8
OBJECT__17
10
0
20
0
30
0
70
128
71
8
72
10
73
32
0
VERTEX
8
OBJECT__17
10
0
20
0
30
0
70
128
71
10
72
33
73
32
0
VERTEX
8
OBJECT__17
10
0
20
0
30
0
70
128
71
34
72
33
73
10
0
VERTEX
8
OBJECT__17
10
0
20
0
30
0
70
128
71
35
72
34
73
12
0
VERTEX
8
OBJECT__17
10
0
20
0
30
0
70
128
71
16
72
36
73
37
0
VERTEX
8
OBJECT__17
10
0
20
0
30
0
70
128
71
37
72
14
73
16
0
VERTEX
8
OBJECT__17
10
0
20
0
30
0
70
128
71
36
72
16
73
20
0
VERTEX
8
OBJECT__17
10
0
20
0
30
0
70
128
71
38
72
39
73
20
0
VERTEX
8
OBJECT__17
10
0
20
0
30
0
70
128
71
40
72
38
73
22
0
VERTEX
8
OBJECT__17
10
0
20
0
30
0
70
128
71
41
72
40
73
25
0
VERTEX
8
OBJECT__17
10
0
20
0
30
0
70
128
71
28
72
41
73
24
0
VERTEX
8
OBJECT__17
10
0
20
0
30
0
70
128
71
24
72
2
73
28
0
VERTEX
8
OBJECT__17
10
0
20
0
30
0
70
128
71
25
72
24
73
41
0
VERTEX
8
OBJECT__17
10
0
20
0
30
0
70
128
71
22
72
25
73
40
0
VERTEX
8
OBJECT__17
10
0
20
0
30
0
70
128
71
20
72
22
73
38
0
VERTEX
8
OBJECT__17
10
0
20
0
30
0
70
128
71
20
72
39
73
36
0
VERTEX
8
OBJECT__17
10
0
20
0
30
0
70
128
71
37
72
35
73
14
0
VERTEX
8
OBJECT__17
10
0
20
0
30
0
70
128
71
12
72
14
73
35
0
VERTEX
8
OBJECT__17
10
0
20
0
30
0
70
128
71
10
72
12
73
34
0
VERTEX
8
OBJECT__17
10
0
20
0
30
0
70
128
71
32
72
31
73
8
0
VERTEX
8
OBJECT__17
10
0
20
0
30
0
70
128
71
6
72
8
73
31
0
VERTEX
8
OBJECT__17
10
0
20
0
30
0
70
128
71
4
72
6
73
29
0
VERTEX
8
OBJECT__17
10
0
20
0
30
0
70
128
71
4
72
30
73
27
0
VERTEX
8
OBJECT__17
10
0
20
0
30
0
70
128
71
2
72
1
73
27
0
VERTEX
8
OBJECT__17
10
0
20
0
30
0
70
128
71
26
72
3
73
2
0
VERTEX
8
OBJECT__17
10
0
20
0
30
0
70
128
71
23
72
26
73
24
0
VERTEX
8
OBJECT__17
10
0
20
0
30
0
70
128
71
23
72
25
73
22
0
VERTEX
8
OBJECT__17
10
0
20
0
30
0
70
128
71
21
72
22
73
20
0
VERTEX
8
OBJECT__17
10
0
20
0
30
0
70
128
71
19
72
20
73
16
0
VERTEX
8
OBJECT__17
10
0
20
0
30
0
70
128
71
17
72
18
73
16
0
VERTEX
8
OBJECT__17
10
0
20
0
30
0
70
128
71
15
72
17
73
14
0
VERTEX
8
OBJECT__17
10
0
20
0
30
0
70
128
71
13
72
15
73
12
0
VERTEX
8
OBJECT__17
10
0
20
0
30
0
70
128
71
11
72
13
73
10
0
VERTEX
8
OBJECT__17
10
0
20
0
30
0
70
128
71
9
72
11
73
8
0
VERTEX
8
OBJECT__17
10
0
20
0
30
0
70
128
71
7
72
9
73
6
0
VERTEX
8
OBJECT__17
10
0
20
0
30
0
70
128
71
5
72
7
73
4
0
VERTEX
8
OBJECT__17
10
0
20
0
30
0
70
128
71
3
72
5
73
1
0
SEQEND
8
OBJECT__17
0
POLYLINE
8
OBJECT__18
66
1
70
64
71
28
72
28
62
253
0
VERTEX
8
OBJECT__18
10
18.000000
20
-32.000000
30
-14.500000
70
192
0
VERTEX
8
OBJECT__18
10
18.000000
20
-32.000000
30
-83.699997
70
192
0
VERTEX
8
OBJECT__18
10
15.938000
20
-23.635000
30
-83.699997
70
192
0
VERTEX
8
OBJECT__18
10
12.728000
20
-19.271999
30
-14.500000
70
192
0
VERTEX
8
OBJECT__18
10
0.000000
20
-14.000000
30
-14.500000
70
192
0
VERTEX
8
OBJECT__18
10
10.225000
20
-17.186001
30
-83.699997
70
192
0
VERTEX
8
OBJECT__18
10
2.170000
20
-14.131000
30
-83.699997
70
192
0
VERTEX
8
OBJECT__18
10
12.361000
20
-19.597000
30
-83.699997
70
192
0
VERTEX
8
OBJECT__18
10
-12.728000
20
-19.271999
30
-14.500000
70
192
0
VERTEX
8
OBJECT__18
10
-6.383000
20
-15.170000
30
-83.699997
70
192
0
VERTEX
8
OBJECT__18
10
0.047000
20
-14.389000
30
-83.699997
70
192
0
VERTEX
8
OBJECT__18
10
-13.473000
20
-20.063999
30
-83.699997
70
192
0
VERTEX
8
OBJECT__18
10
-17.476999
20
-27.691999
30
-83.699997
70
192
0
VERTEX
8
OBJECT__18
10
-18.000000
20
-32.000000
30
-14.500000
70
192
0
VERTEX
8
OBJECT__18
10
-12.598000
20
-19.459999
30
-83.699997
70
192
0
VERTEX
8
OBJECT__18
10
-12.728000
20
-44.728001
30
-14.500000
70
192
0
VERTEX
8
OBJECT__18
10
-17.476999
20
-36.307999
30
-83.699997
70
192
0
VERTEX
8
OBJECT__18
10
-13.473000
20
-43.936001
30
-83.699997
70
192
0
VERTEX
8
OBJECT__18
10
-17.476999
20
-32.000000
30
-83.699997
70
192
0
VERTEX
8
OBJECT__18
10
-12.598000
20
-44.540001
30
-83.699997
70
192
0
VERTEX
8
OBJECT__18
10
-6.383000
20
-48.830002
30
-83.699997
70
192
0
VERTEX
8
OBJECT__18
10
0.000000
20
-50.000000
30
-14.500000
70
192
0
VERTEX
8
OBJECT__18
10
2.170000
20
-49.868999
30
-83.699997
70
192
0
VERTEX
8
OBJECT__18
10
10.225000
20
-46.813999
30
-83.699997
70
192
0
VERTEX
8
OBJECT__18
10
12.728000
20
-44.728001
30
-14.500000
70
192
0
VERTEX
8
OBJECT__18
10
0.047000
20
-49.611000
30
-83.699997
70
192
0
VERTEX
8
OBJECT__18
10
15.938000
20
-40.365002
30
-83.699997
70
192
0
VERTEX
8
OBJECT__18
10
12.361000
20
-44.403000
30
-83.699997
70
192
0
VERTEX
8
OBJECT__18
10
0
20
0
30
0
70
128
71
1
72
2
73
3
0
VERTEX
8
OBJECT__18
10
0
20
0
30
0
70
128
71
3
72
4
73
1
0
VERTEX
8
OBJECT__18
10
0
20
0
30
0
70
128
71
5
72
4
73
6
0
VERTEX
8
OBJECT__18
10
0
20
0
30
0
70
128
71
6
72
7
73
5
0
VERTEX
8
OBJECT__18
10
0
20
0
30
0
70
128
71
4
72
8
73
6
0
VERTEX
8
OBJECT__18
10
0
20
0
30
0
70
128
71
9
72
5
73
10
0
VERTEX
8
OBJECT__18
10
0
20
0
30
0
70
128
71
5
72
11
73
10
0
VERTEX
8
OBJECT__18
10
0
20
0
30
0
70
128
71
9
72
12
73
13
0
VERTEX
8
OBJECT__18
10
0
20
0
30
0
70
128
71
13
72
14
73
9
0
VERTEX
8
OBJECT__18
10
0
20
0
30
0
70
128
71
9
72
15
73
12
0
VERTEX
8
OBJECT__18
10
0
20
0
30
0
70
128
71
16
72
14
73
17
0
VERTEX
8
OBJECT__18
10
0
20
0
30
0
70
128
71
17
72
18
73
16
0
VERTEX
8
OBJECT__18
10
0
20
0
30
0
70
128
71
14
72
19
73
17
0
VERTEX
8
OBJECT__18
10
0
20
0
30
0
70
128
71
16
72
20
73
21
0
VERTEX
8
OBJECT__18
10
0
20
0
30
0
70
128
71
21
72
22
73
16
0
VERTEX
8
OBJECT__18
10
0
20
0
30
0
70
128
71
22
72
23
73
24
0
VERTEX
8
OBJECT__18
10
0
20
0
30
0
70
128
71
24
72
25
73
22
0
VERTEX
8
OBJECT__18
10
0
20
0
30
0
70
128
71
22
72
26
73
23
0
VERTEX
8
OBJECT__18
10
0
20
0
30
0
70
128
71
1
72
25
73
27
0
VERTEX
8
OBJECT__18
10
0
20
0
30
0
70
128
71
25
72
28
73
27
0
VERTEX
8
OBJECT__18
10
0
20
0
30
0
70
128
71
27
72
2
73
1
0
VERTEX
8
OBJECT__18
10
0
20
0
30
0
70
128
71
24
72
28
73
25
0
VERTEX
8
OBJECT__18
10
0
20
0
30
0
70
128
71
21
72
26
73
22
0
VERTEX
8
OBJECT__18
10
0
20
0
30
0
70
128
71
18
72
20
73
16
0
VERTEX
8
OBJECT__18
10
0
20
0
30
0
70
128
71
13
72
19
73
14
0
VERTEX
8
OBJECT__18
10
0
20
0
30
0
70
128
71
10
72
15
73
9
0
VERTEX
8
OBJECT__18
10
0
20
0
30
0
70
128
71
7
72
11
73
5
0
VERTEX
8
OBJECT__18
10
0
20
0
30
0
70
128
71
3
72
8
73
4
0
SEQEND
8
OBJECT__18
0
POLYLINE
8
OBJECT__19
66
1
70
64
71
42
72
42
62
253
0
VERTEX
8
OBJECT__19
10
27.000000
20
-32.000000
30
-84.900002
70
192
0
VERTEX
8
OBJECT__19
10
23.907000
20
-19.452000
30
-84.900002
70
192
0
VERTEX
8
OBJECT__19
10
15.938000
20
-23.635000
30
-83.699997
70
192
0
VERTEX
8
OBJECT__19
10
15.338000
20
-9.779000
30
-84.900002
70
192
0
VERTEX
8
OBJECT__19
10
10.225000
20
-17.186001
30
-83.699997
70
192
0
VERTEX
8
OBJECT__19
10
12.361000
20
-19.597000
30
-83.699997
70
192
0
VERTEX
8
OBJECT__19
10
21.351000
20
-16.566000
30
-84.900002
70
192
0
VERTEX
8
OBJECT__19
10
8.076000
20
-7.026000
30
-84.900002
70
192
0
VERTEX
8
OBJECT__19
10
2.170000
20
-14.131000
30
-83.699997
70
192
0
VERTEX
8
OBJECT__19
10
-8.310000
20
-6.601000
30
-84.900002
70
192
0
VERTEX
8
OBJECT__19
10
-6.383000
20
-15.170000
30
-83.699997
70
192
0
VERTEX
8
OBJECT__19
10
0.047000
20
-14.389000
30
-83.699997
70
192
0
VERTEX
8
OBJECT__19
10
3.254000
20
-5.197000
30
-84.900002
70
192
0
VERTEX
8
OBJECT__19
10
-9.574000
20
-6.755000
30
-84.900002
70
192
0
VERTEX
8
OBJECT__19
10
-20.209999
20
-14.096000
30
-84.900002
70
192
0
VERTEX
8
OBJECT__19
10
-12.598000
20
-19.459999
30
-83.699997
70
192
0
VERTEX
8
OBJECT__19
10
-13.473000
20
-20.063999
30
-83.699997
70
192
0
VERTEX
8
OBJECT__19
10
-21.400000
20
-16.363001
30
-84.900002
70
192
0
VERTEX
8
OBJECT__19
10
-26.215000
20
-25.538000
30
-84.900002
70
192
0
VERTEX
8
OBJECT__19
10
-17.476999
20
-27.691999
30
-83.699997
70
192
0
VERTEX
8
OBJECT__19
10
-26.215000
20
-32.000000
30
-84.900002
70
192
0
VERTEX
8
OBJECT__19
10
-26.215000
20
-38.462002
30
-84.900002
70
192
0
VERTEX
8
OBJECT__19
10
-17.476999
20
-36.307999
30
-83.699997
70
192
0
VERTEX
8
OBJECT__19
10
-17.476999
20
-32.000000
30
-83.699997
70
192
0
VERTEX
8
OBJECT__19
10
-21.400000
20
-47.637001
30
-84.900002
70
192
0
VERTEX
8
OBJECT__19
10
-13.473000
20
-43.936001
30
-83.699997
70
192
0
VERTEX
8
OBJECT__19
10
-9.574000
20
-57.244999
30
-84.900002
70
192
0
VERTEX
8
OBJECT__19
10
-6.383000
20
-48.830002
30
-83.699997
70
192
0
VERTEX
8
OBJECT__19
10
-12.598000
20
-44.540001
30
-83.699997
70
192
0
VERTEX
8
OBJECT__19
10
-20.209999
20
-49.903999
30
-84.900002
70
192
0
VERTEX
8
OBJECT__19
10
-8.310000
20
-57.398998
30
-84.900002
70
192
0
VERTEX
8
OBJECT__19
10
3.254000
20
-58.803001
30
-84.900002
70
192
0
VERTEX
8
OBJECT__19
10
0.047000
20
-49.611000
30
-83.699997
70
192
0
VERTEX
8
OBJECT__19
10
2.170000
20
-49.868999
30
-83.699997
70
192
0
VERTEX
8
OBJECT__19
10
10.225000
20
-46.813999
30
-83.699997
70
192
0
VERTEX
8
OBJECT__19
10
8.076000
20
-56.973999
30
-84.900002
70
192
0
VERTEX
8
OBJECT__19
10
15.338000
20
-54.221001
30
-84.900002
70
192
0
VERTEX
8
OBJECT__19
10
21.351000
20
-47.433998
30
-84.900002
70
192
0
VERTEX
8
OBJECT__19
10
12.361000
20
-44.403000
30
-83.699997
70
192
0
VERTEX
8
OBJECT__19
10
15.938000
20
-40.365002
30
-83.699997
70
192
0
VERTEX
8
OBJECT__19
10
18.000000
20
-32.000000
30
-83.699997
70
192
0
VERTEX
8
OBJECT__19
10
23.907000
20
-44.548000
30
-84.900002
70
192
0
VERTEX
8
OBJECT__19
10
0
20
0
30
0
70
128
71
1
72
2
73
3
0
VERTEX
8
OBJECT__19
10
0
20
0
30
0
70
128
71
4
72
5
73
6
0
VERTEX
8
OBJECT__19
10
0
20
0
30
0
70
128
71
6
72
7
73
4
0
VERTEX
8
OBJECT__19
10
0
20
0
30
0
70
128
71
3
72
2
73
7
0
VERTEX
8
OBJECT__19
10
0
20
0
30
0
70
128
71
5
72
4
73
8
0
VERTEX
8
OBJECT__19
10
0
20
0
30
0
70
128
71
8
72
9
73
5
0
VERTEX
8
OBJECT__19
10
0
20
0
30
0
70
128
71
10
72
11
73
12
0
VERTEX
8
OBJECT__19
10
0
20
0
30
0
70
128
71
12
72
13
73
10
0
VERTEX
8
OBJECT__19
10
0
20
0
30
0
70
128
71
12
72
9
73
13
0
VERTEX
8
OBJECT__19
10
0
20
0
30
0
70
128
71
14
72
15
73
16
0
VERTEX
8
OBJECT__19
10
0
20
0
30
0
70
128
71
15
72
17
73
16
0
VERTEX
8
OBJECT__19
10
0
20
0
30
0
70
128
71
18
72
19
73
20
0
VERTEX
8
OBJECT__19
10
0
20
0
30
0
70
128
71
17
72
15
73
18
0
VERTEX
8
OBJECT__19
10
0
20
0
30
0
70
128
71
21
72
22
73
23
0
VERTEX
8
OBJECT__19
10
0
20
0
30
0
70
128
71
21
72
24
73
20
0
VERTEX
8
OBJECT__19
10
0
20
0
30
0
70
128
71
20
72
19
73
21
0
VERTEX
8
OBJECT__19
10
0
20
0
30
0
70
128
71
25
72
26
73
23
0
VERTEX
8
OBJECT__19
10
0
20
0
30
0
70
128
71
23
72
22
73
25
0
VERTEX
8
OBJECT__19
10
0
20
0
30
0
70
128
71
27
72
28
73
29
0
VERTEX
8
OBJECT__19
10
0
20
0
30
0
70
128
71
29
72
30
73
27
0
VERTEX
8
OBJECT__19
10
0
20
0
30
0
70
128
71
31
72
32
73
33
0
VERTEX
8
OBJECT__19
10
0
20
0
30
0
70
128
71
32
72
34
73
33
0
VERTEX
8
OBJECT__19
10
0
20
0
30
0
70
128
71
28
72
27
73
31
0
VERTEX
8
OBJECT__19
10
0
20
0
30
0
70
128
71
35
72
34
73
36
0
VERTEX
8
OBJECT__19
10
0
20
0
30
0
70
128
71
34
72
32
73
36
0
VERTEX
8
OBJECT__19
10
0
20
0
30
0
70
128
71
37
72
38
73
39
0
VERTEX
8
OBJECT__19
10
0
20
0
30
0
70
128
71
38
72
40
73
39
0
VERTEX
8
OBJECT__19
10
0
20
0
30
0
70
128
71
39
72
35
73
37
0
VERTEX
8
OBJECT__19
10
0
20
0
30
0
70
128
71
1
72
41
73
40
0
VERTEX
8
OBJECT__19
10
0
20
0
30
0
70
128
71
40
72
42
73
1
0
VERTEX
8
OBJECT__19
10
0
20
0
30
0
70
128
71
38
72
42
73
40
0
VERTEX
8
OBJECT__19
10
0
20
0
30
0
70
128
71
36
72
37
73
35
0
VERTEX
8
OBJECT__19
10
0
20
0
30
0
70
128
71
33
72
28
73
31
0
VERTEX
8
OBJECT__19
10
0
20
0
30
0
70
128
71
29
72
26
73
30
0
VERTEX
8
OBJECT__19
10
0
20
0
30
0
70
128
71
25
72
30
73
26
0
VERTEX
8
OBJECT__19
10
0
20
0
30
0
70
128
71
23
72
24
73
21
0
VERTEX
8
OBJECT__19
10
0
20
0
30
0
70
128
71
20
72
17
73
18
0
VERTEX
8
OBJECT__19
10
0
20
0
30
0
70
128
71
16
72
11
73
14
0
VERTEX
8
OBJECT__19
10
0
20
0
30
0
70
128
71
10
72
14
73
11
0
VERTEX
8
OBJECT__19
10
0
20
0
30
0
70
128
71
8
72
13
73
9
0
VERTEX
8
OBJECT__19
10
0
20
0
30
0
70
128
71
6
72
3
73
7
0
VERTEX
8
OBJECT__19
10
0
20
0
30
0
70
128
71
3
72
41
73
1
0
SEQEND
8
OBJECT__19
0
POLYLINE
8
OBJECT__21
66
1
70
64
71
32
72
32
62
253
0
VERTEX
8
OBJECT__21
10
27.000000
20
-32.000000
30
-88.199997
70
192
0
VERTEX
8
OBJECT__21
10
21.843000
20
-16.129999
30
-88.199997
70
192
0
VERTEX
8
OBJECT__21
10
23.907000
20
-19.452000
30
-84.900002
70
192
0
VERTEX
8
OBJECT__21
10
21.351000
20
-16.566000
30
-84.900002
70
192
0
VERTEX
8
OBJECT__21
10
8.343000
20
-6.321000
30
-88.199997
70
192
0
VERTEX
8
OBJECT__21
10
15.338000
20
-9.779000
30
-84.900002
70
192
0
VERTEX
8
OBJECT__21
10
8.076000
20
-7.026000
30
-84.900002
70
192
0
VERTEX
8
OBJECT__21
10
-8.343000
20
-6.321000
30
-88.199997
70
192
0
VERTEX
8
OBJECT__21
10
-8.310000
20
-6.601000
30
-84.900002
70
192
0
VERTEX
8
OBJECT__21
10
3.254000
20
-5.197000
30
-84.900002
70
192
0
VERTEX
8
OBJECT__21
10
-21.843000
20
-16.129999
30
-88.199997
70
192
0
VERTEX
8
OBJECT__21
10
-20.209999
20
-14.096000
30
-84.900002
70
192
0
VERTEX
8
OBJECT__21
10
-9.574000
20
-6.755000
30
-84.900002
70
192
0
VERTEX
8
OBJECT__21
10
-21.400000
20
-16.363001
30
-84.900002
70
192
0
VERTEX
8
OBJECT__21
10
-27.000000
20
-32.000000
30
-88.199997
70
192
0
VERTEX
8
OBJECT__21
10
-26.215000
20
-25.538000
30
-84.900002
70
192
0
VERTEX
8
OBJECT__21
10
-26.215000
20
-32.000000
30
-84.900002
70
192
0
VERTEX
8
OBJECT__21
10
-21.843000
20
-47.869999
30
-88.199997
70
192
0
VERTEX
8
OBJECT__21
10
-21.400000
20
-47.637001
30
-84.900002
70
192
0
VERTEX
8
OBJECT__21
10
-26.215000
20
-38.462002
30
-84.900002
70
192
0
VERTEX
8
OBJECT__21
10
-8.343000
20
-57.679001
30
-88.199997
70
192
0
VERTEX
8
OBJECT__21
10
-9.574000
20
-57.244999
30
-84.900002
70
192
0
VERTEX
8
OBJECT__21
10
-20.209999
20
-49.903999
30
-84.900002
70
192
0
VERTEX
8
OBJECT__21
10
-8.310000
20
-57.398998
30
-84.900002
70
192
0
VERTEX
8
OBJECT__21
10
8.343000
20
-57.679001
30
-88.199997
70
192
0
VERTEX
8
OBJECT__21
10
3.254000
20
-58.803001
30
-84.900002
70
192
0
VERTEX
8
OBJECT__21
10
8.076000
20
-56.973999
30
-84.900002
70
192
0
VERTEX
8
OBJECT__21
10
21.843000
20
-47.869999
30
-88.199997
70
192
0
VERTEX
8
OBJECT__21
10
21.351000
20
-47.433998
30
-84.900002
70
192
0
VERTEX
8
OBJECT__21
10
15.338000
20
-54.221001
30
-84.900002
70
192
0
VERTEX
8
OBJECT__21
10
27.000000
20
-32.000000
30
-84.900002
70
192
0
VERTEX
8
OBJECT__21
10
23.907000
20
-44.548000
30
-84.900002
70
192
0
VERTEX
8
OBJECT__21
10
0
20
0
30
0
70
128
71
1
72
2
73
3
0
VERTEX
8
OBJECT__21
10
0
20
0
30
0
70
128
71
2
72
4
73
3
0
VERTEX
8
OBJECT__21
10
0
20
0
30
0
70
128
71
2
72
5
73
6
0
VERTEX
8
OBJECT__21
10
0
20
0
30
0
70
128
71
5
72
7
73
6
0
VERTEX
8
OBJECT__21
10
0
20
0
30
0
70
128
71
8
72
9
73
10
0
VERTEX
8
OBJECT__21
10
0
20
0
30
0
70
128
71
10
72
5
73
8
0
VERTEX
8
OBJECT__21
10
0
20
0
30
0
70
128
71
8
72
11
73
12
0
VERTEX
8
OBJECT__21
10
0
20
0
30
0
70
128
71
12
72
13
73
8
0
VERTEX
8
OBJECT__21
10
0
20
0
30
0
70
128
71
11
72
14
73
12
0
VERTEX
8
OBJECT__21
10
0
20
0
30
0
70
128
71
11
72
15
73
16
0
VERTEX
8
OBJECT__21
10
0
20
0
30
0
70
128
71
15
72
17
73
16
0
VERTEX
8
OBJECT__21
10
0
20
0
30
0
70
128
71
18
72
19
73
20
0
VERTEX
8
OBJECT__21
10
0
20
0
30
0
70
128
71
20
72
15
73
18
0
VERTEX
8
OBJECT__21
10
0
20
0
30
0
70
128
71
21
72
22
73
23
0
VERTEX
8
OBJECT__21
10
0
20
0
30
0
70
128
71
23
72
18
73
21
0
VERTEX
8
OBJECT__21
10
0
20
0
30
0
70
128
71
21
72
24
73
22
0
VERTEX
8
OBJECT__21
10
0
20
0
30
0
70
128
71
21
72
25
73
26
0
VERTEX
8
OBJECT__21
10
0
20
0
30
0
70
128
71
25
72
27
73
26
0
VERTEX
8
OBJECT__21
10
0
20
0
30
0
70
128
71
28
72
29
73
30
0
VERTEX
8
OBJECT__21
10
0
20
0
30
0
70
128
71
30
72
25
73
28
0
VERTEX
8
OBJECT__21
10
0
20
0
30
0
70
128
71
1
72
31
73
32
0
VERTEX
8
OBJECT__21
10
0
20
0
30
0
70
128
71
32
72
28
73
1
0
VERTEX
8
OBJECT__21
10
0
20
0
30
0
70
128
71
32
72
29
73
28
0
VERTEX
8
OBJECT__21
10
0
20
0
30
0
70
128
71
30
72
27
73
25
0
VERTEX
8
OBJECT__21
10
0
20
0
30
0
70
128
71
26
72
24
73
21
0
VERTEX
8
OBJECT__21
10
0
20
0
30
0
70
128
71
23
72
19
73
18
0
VERTEX
8
OBJECT__21
10
0
20
0
30
0
70
128
71
20
72
17
73
15
0
VERTEX
8
OBJECT__21
10
0
20
0
30
0
70
128
71
16
72
14
73
11
0
VERTEX
8
OBJECT__21
10
0
20
0
30
0
70
128
71
13
72
9
73
8
0
VERTEX
8
OBJECT__21
10
0
20
0
30
0
70
128
71
10
72
7
73
5
0
VERTEX
8
OBJECT__21
10
0
20
0
30
0
70
128
71
6
72
4
73
2
0
VERTEX
8
OBJECT__21
10
0
20
0
30
0
70
128
71
3
72
31
73
1
0
SEQEND
8
OBJECT__21
0
POLYLINE
8
OBJECT__22
66
1
70
64
71
10
72
8
62
253
0
VERTEX
8
OBJECT__22
10
27.000000
20
-32.000000
30
-88.199997
70
192
0
VERTEX
8
OBJECT__22
10
-8.343000
20
-57.679001
30
-88.199997
70
192
0
VERTEX
8
OBJECT__22
10
-21.843000
20
-47.869999
30
-88.199997
70
192
0
VERTEX
8
OBJECT__22
10
21.843000
20
-47.869999
30
-88.199997
70
192
0
VERTEX
8
OBJECT__22
10
-27.000000
20
-32.000000
30
-88.199997
70
192
0
VERTEX
8
OBJECT__22
10
8.343000
20
-6.321000
30
-88.199997
70
192
0
VERTEX
8
OBJECT__22
10
21.843000
20
-16.129999
30
-88.199997
70
192
0
VERTEX
8
OBJECT__22
10
-21.843000
20
-16.129999
30
-88.199997
70
192
0
VERTEX
8
OBJECT__22
10
-8.343000
20
-6.321000
30
-88.199997
70
192
0
VERTEX
8
OBJECT__22
10
8.343000
20
-57.679001
30
-88.199997
70
192
0
VERTEX
8
OBJECT__22
10
0
20
0
30
0
70
128
71
1
72
2
73
3
0
VERTEX
8
OBJECT__22
10
0
20
0
30
0
70
128
71
2
72
1
73
4
0
VERTEX
8
OBJECT__22
10
0
20
0
30
0
70
128
71
5
72
6
73
7
0
VERTEX
8
OBJECT__22
10
0
20
0
30
0
70
128
71
5
72
8
73
9
0
VERTEX
8
OBJECT__22
10
0
20
0
30
0
70
128
71
4
72
10
73
2
0
VERTEX
8
OBJECT__22
10
0
20
0
30
0
70
128
71
9
72
6
73
5
0
VERTEX
8
OBJECT__22
10
0
20
0
30
0
70
128
71
7
72
1
73
5
0
VERTEX
8
OBJECT__22
10
0
20
0
30
0
70
128
71
3
72
5
73
1
0
SEQEND
8
OBJECT__22
0
POLYLINE
8
OBJECT__23
66
1
70
64
71
29
72
27
62
253
0
VERTEX
8
OBJECT__23
10
-0.065000
20
45.019001
30
4.999000
70
192
0
VERTEX
8
OBJECT__23
10
23.798000
20
53.592999
30
-9.865000
70
192
0
VERTEX
8
OBJECT__23
10
25.615000
20
49.764999
30
-3.589000
70
192
0
VERTEX
8
OBJECT__23
10
25.888000
20
48.085999
30
-0.663000
70
192
0
VERTEX
8
OBJECT__23
10
20.546000
20
57.000999
30
-15.007000
70
192
0
VERTEX
8
OBJECT__23
10
22.983000
20
54.680000
30
-11.558000
70
192
0
VERTEX
8
OBJECT__23
10
7.789000
20
63.473999
30
-24.021999
70
192
0
VERTEX
8
OBJECT__23
10
12.823000
20
61.896999
30
-21.933001
70
192
0
VERTEX
8
OBJECT__23
10
13.498000
20
61.606998
30
-21.542000
70
192
0
VERTEX
8
OBJECT__23
10
18.482000
20
58.800999
30
-17.652000
70
192
0
VERTEX
8
OBJECT__23
10
19.228001
20
58.256001
30
-16.874001
70
192
0
VERTEX
8
OBJECT__23
10
25.864000
20
47.916000
30
-0.349000
70
192
0
VERTEX
8
OBJECT__23
10
-2.198000
20
64.377998
30
-25.200001
70
192
0
VERTEX
8
OBJECT__23
10
0.025000
20
64.445000
30
-25.285000
70
192
0
VERTEX
8
OBJECT__23
10
-7.944000
20
63.509998
30
-24.073000
70
192
0
VERTEX
8
OBJECT__23
10
5.996000
20
63.902000
30
-24.583000
70
192
0
VERTEX
8
OBJECT__23
10
7.171000
20
63.667999
30
-24.278999
70
192
0
VERTEX
8
OBJECT__23
10
-9.686000
20
63.056000
30
-23.476999
70
192
0
VERTEX
8
OBJECT__23
10
-8.069000
20
63.491001
30
-24.048000
70
192
0
VERTEX
8
OBJECT__23
10
-18.052999
20
59.183998
30
-18.195000
70
192
0
VERTEX
8
OBJECT__23
10
-15.063000
20
60.925999
30
-20.615999
70
192
0
VERTEX
8
OBJECT__23
10
-20.695999
20
56.994999
30
-15.006000
70
192
0
VERTEX
8
OBJECT__23
10
-23.506001
20
54.178001
30
-10.781000
70
192
0
VERTEX
8
OBJECT__23
10
-22.073000
20
55.854000
30
-13.344000
70
192
0
VERTEX
8
OBJECT__23
10
-25.903999
20
47.933998
30
-0.352000
70
192
0
VERTEX
8
OBJECT__23
10
-25.975000
20
48.562000
30
-1.505000
70
192
0
VERTEX
8
OBJECT__23
10
-25.575001
20
50.342999
30
-4.572000
70
192
0
VERTEX
8
OBJECT__23
10
-25.573000
20
45.019001
30
4.999000
70
192
0
VERTEX
8
OBJECT__23
10
25.443001
20
45.019001
30
4.999000
70
192
0
VERTEX
8
OBJECT__23
10
0
20
0
30
0
70
128
71
1
72
2
73
3
0
VERTEX
8
OBJECT__23
10
0
20
0
30
0
70
128
71
3
72
4
73
1
0
VERTEX
8
OBJECT__23
10
0
20
0
30
0
70
128
71
1
72
5
73
6
0
VERTEX
8
OBJECT__23
10
0
20
0
30
0
70
128
71
6
72
2
73
1
0
VERTEX
8
OBJECT__23
10
0
20
0
30
0
70
128
71
1
72
7
73
8
0
VERTEX
8
OBJECT__23
10
0
20
0
30
0
70
128
71
8
72
9
73
1
0
VERTEX
8
OBJECT__23
10
0
20
0
30
0
70
128
71
9
72
10
73
1
0
VERTEX
8
OBJECT__23
10
0
20
0
30
0
70
128
71
10
72
11
73
1
0
VERTEX
8
OBJECT__23
10
0
20
0
30
0
70
128
71
11
72
5
73
1
0
VERTEX
8
OBJECT__23
10
0
20
0
30
0
70
128
71
4
72
12
73
1
0
VERTEX
8
OBJECT__23
10
0
20
0
30
0
70
128
71
1
72
13
73
14
0
VERTEX
8
OBJECT__23
10
0
20
0
30
0
70
128
71
1
72
15
73
13
0
VERTEX
8
OBJECT__23
10
0
20
0
30
0
70
128
71
14
72
16
73
1
0
VERTEX
8
OBJECT__23
10
0
20
0
30
0
70
128
71
16
72
17
73
1
0
VERTEX
8
OBJECT__23
10
0
20
0
30
0
70
128
71
17
72
7
73
1
0
VERTEX
8
OBJECT__23
10
0
20
0
30
0
70
128
71
1
72
18
73
19
0
VERTEX
8
OBJECT__23
10
0
20
0
30
0
70
128
71
1
72
20
73
21
0
VERTEX
8
OBJECT__23
10
0
20
0
30
0
70
128
71
1
72
22
73
20
0
VERTEX
8
OBJECT__23
10
0
20
0
30
0
70
128
71
21
72
18
73
1
0
VERTEX
8
OBJECT__23
10
0
20
0
30
0
70
128
71
1
72
23
73
24
0
VERTEX
8
OBJECT__23
10
0
20
0
30
0
70
128
71
1
72
25
73
26
0
VERTEX
8
OBJECT__23
10
0
20
0
30
0
70
128
71
26
72
27
73
1
0
VERTEX
8
OBJECT__23
10
0
20
0
30
0
70
128
71
27
72
23
73
1
0
VERTEX
8
OBJECT__23
10
0
20
0
30
0
70
128
71
1
72
28
73
25
0
VERTEX
8
OBJECT__23
10
0
20
0
30
0
70
128
71
24
72
22
73
1
0
VERTEX
8
OBJECT__23
10
0
20
0
30
0
70
128
71
19
72
15
73
1
0
VERTEX
8
OBJECT__23
10
0
20
0
30
0
70
128
71
12
72
29
73
1
0
SEQEND
8
OBJECT__23
0
POLYLINE
8
OBJECT__24
66
1
70
64
71
9
72
7
62
253
0
VERTEX
8
OBJECT__24
10
25.443001
20
45.019001
30
4.999000
70
192
0
VERTEX
8
OBJECT__24
10
24.943001
20
44.681000
30
6.307000
70
192
0
VERTEX
8
OBJECT__24
10
24.736000
20
44.681000
30
6.307000
70
192
0
VERTEX
8
OBJECT__24
10
-25.280001
20
44.681000
30
6.307000
70
192
0
VERTEX
8
OBJECT__24
10
-25.364000
20
44.709000
30
5.967000
70
192
0
VERTEX
8
OBJECT__24
10
-0.065000
20
45.019001
30
4.999000
70
192
0
VERTEX
8
OBJECT__24
10
-25.573000
20
45.019001
30
4.999000
70
192
0
VERTEX
8
OBJECT__24
10
25.379999
20
44.877998
30
5.314000
70
192
0
VERTEX
8
OBJECT__24
10
25.150000
20
44.681000
30
6.307000
70
192
0
VERTEX
8
OBJECT__24
10
0
20
0
30
0
70
128
71
1
72
2
73
3
0
VERTEX
8
OBJECT__24
10
0
20
0
30
0
70
128
71
4
72
5
73
6
0
VERTEX
8
OBJECT__24
10
0
20
0
30
0
70
128
71
6
72
3
73
4
0
VERTEX
8
OBJECT__24
10
0
20
0
30
0
70
128
71
5
72
7
73
6
0
VERTEX
8
OBJECT__24
10
0
20
0
30
0
70
128
71
2
72
1
73
8
0
VERTEX
8
OBJECT__24
10
0
20
0
30
0
70
128
71
8
72
9
73
2
0
VERTEX
8
OBJECT__24
10
0
20
0
30
0
70
128
71
3
72
6
73
1
0
SEQEND
8
OBJECT__24
0
POLYLINE
8
OBJECT__26
66
1
70
64
71
24
72
22
62
253
0
VERTEX
8
OBJECT__26
10
-20.851000
20
44.438999
30
15.539000
70
192
0
VERTEX
8
OBJECT__26
10
-13.795000
20
44.277000
30
21.724001
70
192
0
VERTEX
8
OBJECT__26
10
-14.859000
20
44.292000
30
21.176001
70
192
0
VERTEX
8
OBJECT__26
10
-21.377001
20
44.458000
30
14.815000
70
192
0
VERTEX
8
OBJECT__26
10
-23.715000
20
44.564999
30
10.738000
70
192
0
VERTEX
8
OBJECT__26
10
-16.311001
20
44.319000
30
20.114000
70
192
0
VERTEX
8
OBJECT__26
10
-25.280001
20
44.681000
30
6.307000
70
192
0
VERTEX
8
OBJECT__26
10
-0.291000
20
44.169998
30
25.830999
70
192
0
VERTEX
8
OBJECT__26
10
-6.829000
20
44.193001
30
24.929001
70
192
0
VERTEX
8
OBJECT__26
10
6.792000
20
44.200001
30
24.674999
70
192
0
VERTEX
8
OBJECT__26
10
3.599000
20
44.176998
30
25.572001
70
192
0
VERTEX
8
OBJECT__26
10
-6.980000
20
44.195000
30
24.879999
70
192
0
VERTEX
8
OBJECT__26
10
-8.784000
20
44.209999
30
24.304001
70
192
0
VERTEX
8
OBJECT__26
10
-0.065000
20
44.169998
30
25.832001
70
192
0
VERTEX
8
OBJECT__26
10
0.161000
20
44.169998
30
25.830999
70
192
0
VERTEX
8
OBJECT__26
10
12.136000
20
44.250000
30
22.747999
70
192
0
VERTEX
8
OBJECT__26
10
9.992000
20
44.223999
30
23.775999
70
192
0
VERTEX
8
OBJECT__26
10
13.626000
20
44.278000
30
21.697001
70
192
0
VERTEX
8
OBJECT__26
10
21.247000
20
44.458000
30
14.815000
70
192
0
VERTEX
8
OBJECT__26
10
17.737000
20
44.354000
30
18.797001
70
192
0
VERTEX
8
OBJECT__26
10
24.736000
20
44.681000
30
6.307000
70
192
0
VERTEX
8
OBJECT__26
10
23.584999
20
44.564999
30
10.738000
70
192
0
VERTEX
8
OBJECT__26
10
24.943001
20
44.681000
30
6.307000
70
192
0
VERTEX
8
OBJECT__26
10
25.150000
20
44.681000
30
6.307000
70
192
0
VERTEX
8
OBJECT__26
10
0
20
0
30
0
70
128
71
1
72
2
73
3
0
VERTEX
8
OBJECT__26
10
0
20
0
30
0
70
128
71
2
72
4
73
5
0
VERTEX
8
OBJECT__26
10
0
20
0
30
0
70
128
71
3
72
6
73
1
0
VERTEX
8
OBJECT__26
10
0
20
0
30
0
70
128
71
7
72
8
73
9
0
VERTEX
8
OBJECT__26
10
0
20
0
30
0
70
128
71
7
72
10
73
11
0
VERTEX
8
OBJECT__26
10
0
20
0
30
0
70
128
71
1
72
4
73
2
0
VERTEX
8
OBJECT__26
10
0
20
0
30
0
70
128
71
7
72
12
73
13
0
VERTEX
8
OBJECT__26
10
0
20
0
30
0
70
128
71
7
72
14
73
8
0
VERTEX
8
OBJECT__26
10
0
20
0
30
0
70
128
71
11
72
15
73
7
0
VERTEX
8
OBJECT__26
10
0
20
0
30
0
70
128
71
13
72
2
73
7
0
VERTEX
8
OBJECT__26
10
0
20
0
30
0
70
128
71
15
72
14
73
7
0
VERTEX
8
OBJECT__26
10
0
20
0
30
0
70
128
71
7
72
16
73
17
0
VERTEX
8
OBJECT__26
10
0
20
0
30
0
70
128
71
9
72
12
73
7
0
VERTEX
8
OBJECT__26
10
0
20
0
30
0
70
128
71
7
72
18
73
16
0
VERTEX
8
OBJECT__26
10
0
20
0
30
0
70
128
71
7
72
19
73
20
0
VERTEX
8
OBJECT__26
10
0
20
0
30
0
70
128
71
7
72
21
73
22
0
VERTEX
8
OBJECT__26
10
0
20
0
30
0
70
128
71
17
72
10
73
7
0
VERTEX
8
OBJECT__26
10
0
20
0
30
0
70
128
71
22
72
19
73
7
0
VERTEX
8
OBJECT__26
10
0
20
0
30
0
70
128
71
22
72
21
73
23
0
VERTEX
8
OBJECT__26
10
0
20
0
30
0
70
128
71
20
72
18
73
7
0
VERTEX
8
OBJECT__26
10
0
20
0
30
0
70
128
71
5
72
7
73
2
0
VERTEX
8
OBJECT__26
10
0
20
0
30
0
70
128
71
23
72
24
73
22
0
SEQEND
8
OBJECT__26
0
POLYLINE
8
OBJECT__27
66
1
70
64
71
12
72
10
62
253
0
VERTEX
8
OBJECT__27
10
-0.065000
20
44.169998
30
25.832001
70
192
0
VERTEX
8
OBJECT__27
10
-0.065000
20
62.063999
30
26.614000
70
192
0
VERTEX
8
OBJECT__27
10
-0.293000
20
53.118999
30
26.222000
70
192
0
VERTEX
8
OBJECT__27
10
-0.180000
20
62.064999
30
26.614000
70
192
0
VERTEX
8
OBJECT__27
10
-0.293000
20
55.820000
30
26.340000
70
192
0
VERTEX
8
OBJECT__27
10
0.163000
20
53.118999
30
26.222000
70
192
0
VERTEX
8
OBJECT__27
10
0.163000
20
55.820999
30
26.340000
70
192
0
VERTEX
8
OBJECT__27
10
0.161000
20
44.169998
30
25.830999
70
192
0
VERTEX
8
OBJECT__27
10
0.050000
20
62.064999
30
26.614000
70
192
0
VERTEX
8
OBJECT__27
10
-0.291000
20
44.169998
30
25.830999
70
192
0
VERTEX
8
OBJECT__27
10
0.164000
20
62.069000
30
26.613001
70
192
0
VERTEX
8
OBJECT__27
10
-0.294000
20
62.069000
30
26.613001
70
192
0
VERTEX
8
OBJECT__27
10
0
20
0
30
0
70
128
71
1
72
2
73
3
0
VERTEX
8
OBJECT__27
10
0
20
0
30
0
70
128
71
2
72
4
73
5
0
VERTEX
8
OBJECT__27
10
0
20
0
30
0
70
128
71
5
72
3
73
2
0
VERTEX
8
OBJECT__27
10
0
20
0
30
0
70
128
71
2
72
6
73
7
0
VERTEX
8
OBJECT__27
10
0
20
0
30
0
70
128
71
1
72
8
73
6
0
VERTEX
8
OBJECT__27
10
0
20
0
30
0
70
128
71
6
72
2
73
1
0
VERTEX
8
OBJECT__27
10
0
20
0
30
0
70
128
71
7
72
9
73
2
0
VERTEX
8
OBJECT__27
10
0
20
0
30
0
70
128
71
3
72
10
73
1
0
VERTEX
8
OBJECT__27
10
0
20
0
30
0
70
128
71
7
72
11
73
9
0
VERTEX
8
OBJECT__27
10
0
20
0
30
0
70
128
71
4
72
12
73
5
0
SEQEND
8
OBJECT__27
0
POLYLINE
8
OBJECT__28
66
1
70
64
71
30
72
31
62
253
0
VERTEX
8
OBJECT__28
10
-6.043000
20
67.581001
30
26.073999
70
192
0
VERTEX
8
OBJECT__28
10
-6.523000
20
55.891998
30
25.570000
70
192
0
VERTEX
8
OBJECT__28
10
-5.110000
20
65.623001
30
26.264999
70
192
0
VERTEX
8
OBJECT__28
10
-3.171000
20
63.069000
30
26.472000
70
192
0
VERTEX
8
OBJECT__28
10
-3.817000
20
63.919998
30
26.403000
70
192
0
VERTEX
8
OBJECT__28
10
-0.293000
20
55.820000
30
26.340000
70
192
0
VERTEX
8
OBJECT__28
10
-0.305000
20
62.070000
30
26.613001
70
192
0
VERTEX
8
OBJECT__28
10
-0.317000
20
62.070000
30
26.613001
70
192
0
VERTEX
8
OBJECT__28
10
-0.294000
20
62.069000
30
26.613001
70
192
0
VERTEX
8
OBJECT__28
10
-10.497000
20
67.594002
30
24.587999
70
192
0
VERTEX
8
OBJECT__28
10
-12.739000
20
55.993999
30
23.020000
70
192
0
VERTEX
8
OBJECT__28
10
-12.081000
20
67.619003
30
23.569000
70
192
0
VERTEX
8
OBJECT__28
10
-15.878000
20
67.679001
30
21.125000
70
192
0
VERTEX
8
OBJECT__28
10
-11.500000
20
67.610001
30
23.943001
70
192
0
VERTEX
8
OBJECT__28
10
-17.653000
20
56.110001
30
19.295000
70
192
0
VERTEX
8
OBJECT__28
10
-21.042999
20
67.856003
30
15.193000
70
192
0
VERTEX
8
OBJECT__28
10
-21.209000
20
56.220001
30
15.005000
70
192
0
VERTEX
8
OBJECT__28
10
-16.311001
20
44.319000
30
20.114000
70
192
0
VERTEX
8
OBJECT__28
10
-14.859000
20
44.292000
30
21.176001
70
192
0
VERTEX
8
OBJECT__28
10
-21.209999
20
56.157001
30
15.004000
70
192
0
VERTEX
8
OBJECT__28
10
-20.851000
20
44.438999
30
15.539000
70
192
0
VERTEX
8
OBJECT__28
10
-21.377001
20
44.458000
30
14.815000
70
192
0
VERTEX
8
OBJECT__28
10
-13.795000
20
44.277000
30
21.724001
70
192
0
VERTEX
8
OBJECT__28
10
-8.784000
20
44.209999
30
24.304001
70
192
0
VERTEX
8
OBJECT__28
10
-6.829000
20
44.193001
30
24.929001
70
192
0
VERTEX
8
OBJECT__28
10
-0.291000
20
44.169998
30
25.830999
70
192
0
VERTEX
8
OBJECT__28
10
-0.293000
20
53.118999
30
26.222000
70
192
0
VERTEX
8
OBJECT__28
10
-6.980000
20
44.195000
30
24.879999
70
192
0
VERTEX
8
OBJECT__28
10
-16.389000
20
67.696999
30
20.539000
70
192
0
VERTEX
8
OBJECT__28
10
-5.458000
20
67.579002
30
26.268999
70
192
0
VERTEX
8
OBJECT__28
10
0
20
0
30
0
70
128
71
1
72
2
73
3
0
VERTEX
8
OBJECT__28
10
0
20
0
30
0
70
128
71
2
72
4
73
5
0
VERTEX
8
OBJECT__28
10
0
20
0
30
0
70
128
71
5
72
3
73
2
0
VERTEX
8
OBJECT__28
10
0
20
0
30
0
70
128
71
6
72
7
73
8
0
VERTEX
8
OBJECT__28
10
0
20
0
30
0
70
128
71
6
72
9
73
7
0
VERTEX
8
OBJECT__28
10
0
20
0
30
0
70
128
71
8
72
2
73
6
0
VERTEX
8
OBJECT__28
10
0
20
0
30
0
70
128
71
8
72
4
73
2
0
VERTEX
8
OBJECT__28
10
0
20
0
30
0
70
128
71
2
72
1
73
10
0
VERTEX
8
OBJECT__28
10
0
20
0
30
0
70
128
71
10
72
11
73
2
0
VERTEX
8
OBJECT__28
10
0
20
0
30
0
70
128
71
11
72
12
73
13
0
VERTEX
8
OBJECT__28
10
0
20
0
30
0
70
128
71
11
72
14
73
12
0
VERTEX
8
OBJECT__28
10
0
20
0
30
0
70
128
71
13
72
15
73
11
0
VERTEX
8
OBJECT__28
10
0
20
0
30
0
70
128
71
16
72
17
73
15
0
VERTEX
8
OBJECT__28
10
0
20
0
30
0
70
128
71
11
72
18
73
19
0
VERTEX
8
OBJECT__28
10
0
20
0
30
0
70
128
71
20
72
21
73
18
0
VERTEX
8
OBJECT__28
10
0
20
0
30
0
70
128
71
18
72
11
73
20
0
VERTEX
8
OBJECT__28
10
0
20
0
30
0
70
128
71
20
72
22
73
21
0
VERTEX
8
OBJECT__28
10
0
20
0
30
0
70
128
71
20
72
11
73
15
0
VERTEX
8
OBJECT__28
10
0
20
0
30
0
70
128
71
15
72
17
73
20
0
VERTEX
8
OBJECT__28
10
0
20
0
30
0
70
128
71
11
72
23
73
24
0
VERTEX
8
OBJECT__28
10
0
20
0
30
0
70
128
71
24
72
2
73
11
0
VERTEX
8
OBJECT__28
10
0
20
0
30
0
70
128
71
25
72
26
73
27
0
VERTEX
8
OBJECT__28
10
0
20
0
30
0
70
128
71
27
72
2
73
25
0
VERTEX
8
OBJECT__28
10
0
20
0
30
0
70
128
71
2
72
28
73
25
0
VERTEX
8
OBJECT__28
10
0
20
0
30
0
70
128
71
27
72
6
73
2
0
VERTEX
8
OBJECT__28
10
0
20
0
30
0
70
128
71
24
72
28
73
2
0
VERTEX
8
OBJECT__28
10
0
20
0
30
0
70
128
71
19
72
23
73
11
0
VERTEX
8
OBJECT__28
10
0
20
0
30
0
70
128
71
15
72
29
73
16
0
VERTEX
8
OBJECT__28
10
0
20
0
30
0
70
128
71
13
72
29
73
15
0
VERTEX
8
OBJECT__28
10
0
20
0
30
0
70
128
71
10
72
14
73
11
0
VERTEX
8
OBJECT__28
10
0
20
0
30
0
70
128
71
3
72
30
73
1
0
SEQEND
8
OBJECT__28
0
POLYLINE
8
OBJECT__29
66
1
70
64
71
63
72
61
62
253
0
VERTEX
8
OBJECT__29
10
24.811001
20
75.566002
30
0.454000
70
192
0
VERTEX
8
OBJECT__29
10
25.615000
20
49.764999
30
-3.589000
70
192
0
VERTEX
8
OBJECT__29
10
23.798000
20
53.592999
30
-9.865000
70
192
0
VERTEX
8
OBJECT__29
10
25.864000
20
47.916000
30
-0.349000
70
192
0
VERTEX
8
OBJECT__29
10
25.888000
20
48.085999
30
-0.663000
70
192
0
VERTEX
8
OBJECT__29
10
23.794001
20
75.793999
30
-8.242000
70
192
0
VERTEX
8
OBJECT__29
10
22.983000
20
54.680000
30
-11.558000
70
192
0
VERTEX
8
OBJECT__29
10
20.546000
20
57.000999
30
-15.007000
70
192
0
VERTEX
8
OBJECT__29
10
19.834999
20
75.945000
30
-14.012000
70
192
0
VERTEX
8
OBJECT__29
10
16.875000
20
76.057999
30
-18.327000
70
192
0
VERTEX
8
OBJECT__29
10
12.823000
20
61.896999
30
-21.933001
70
192
0
VERTEX
8
OBJECT__29
10
7.789000
20
63.473999
30
-24.021999
70
192
0
VERTEX
8
OBJECT__29
10
18.482000
20
58.800999
30
-17.652000
70
192
0
VERTEX
8
OBJECT__29
10
13.498000
20
61.606998
30
-21.542000
70
192
0
VERTEX
8
OBJECT__29
10
19.228001
20
58.256001
30
-16.874001
70
192
0
VERTEX
8
OBJECT__29
10
-7.944000
20
63.509998
30
-24.073000
70
192
0
VERTEX
8
OBJECT__29
10
-7.709000
20
76.185997
30
-23.222000
70
192
0
VERTEX
8
OBJECT__29
10
-6.182000
20
76.208000
30
-24.025999
70
192
0
VERTEX
8
OBJECT__29
10
6.052000
20
76.208000
30
-24.025999
70
192
0
VERTEX
8
OBJECT__29
10
0.025000
20
64.445000
30
-25.285000
70
192
0
VERTEX
8
OBJECT__29
10
5.996000
20
63.902000
30
-24.583000
70
192
0
VERTEX
8
OBJECT__29
10
7.579000
20
76.185997
30
-23.222000
70
192
0
VERTEX
8
OBJECT__29
10
7.171000
20
63.667999
30
-24.278999
70
192
0
VERTEX
8
OBJECT__29
10
-2.198000
20
64.377998
30
-25.200001
70
192
0
VERTEX
8
OBJECT__29
10
-19.965000
20
75.945000
30
-14.012000
70
192
0
VERTEX
8
OBJECT__29
10
-15.063000
20
60.925999
30
-20.615999
70
192
0
VERTEX
8
OBJECT__29
10
-18.052999
20
59.183998
30
-18.195000
70
192
0
VERTEX
8
OBJECT__29
10
-17.004999
20
76.057999
30
-18.327000
70
192
0
VERTEX
8
OBJECT__29
10
-8.069000
20
63.491001
30
-24.048000
70
192
0
VERTEX
8
OBJECT__29
10
-9.686000
20
63.056000
30
-23.476999
70
192
0
VERTEX
8
OBJECT__29
10
-23.924000
20
75.793999
30
-8.242000
70
192
0
VERTEX
8
OBJECT__29
10
-20.695999
20
56.994999
30
-15.006000
70
192
0
VERTEX
8
OBJECT__29
10
-22.073000
20
55.854000
30
-13.344000
70
192
0
VERTEX
8
OBJECT__29
10
-24.941000
20
75.566002
30
0.454000
70
192
0
VERTEX
8
OBJECT__29
10
-25.575001
20
50.342999
30
-4.572000
70
192
0
VERTEX
8
OBJECT__29
10
-25.975000
20
48.562000
30
-1.505000
70
192
0
VERTEX
8
OBJECT__29
10
-23.506001
20
54.178001
30
-10.781000
70
192
0
VERTEX
8
OBJECT__29
10
-25.903999
20
47.933998
30
-0.352000
70
192
0
VERTEX
8
OBJECT__29
10
-25.344000
20
75.475998
30
3.904000
70
192
0
VERTEX
8
OBJECT__29
10
-21.017000
20
69.653000
30
15.222000
70
192
0
VERTEX
8
OBJECT__29
10
-20.990000
20
71.516998
30
15.253000
70
192
0
VERTEX
8
OBJECT__29
10
-20.990000
20
71.522003
30
15.253000
70
192
0
VERTEX
8
OBJECT__29
10
-21.042999
20
67.856003
30
15.193000
70
192
0
VERTEX
8
OBJECT__29
10
-25.573000
20
45.019001
30
4.999000
70
192
0
VERTEX
8
OBJECT__29
10
-21.209000
20
56.220001
30
15.005000
70
192
0
VERTEX
8
OBJECT__29
10
-21.209999
20
56.157001
30
15.004000
70
192
0
VERTEX
8
OBJECT__29
10
-25.364000
20
44.709000
30
5.967000
70
192
0
VERTEX
8
OBJECT__29
10
-25.280001
20
44.681000
30
6.307000
70
192
0
VERTEX
8
OBJECT__29
10
-23.715000
20
44.564999
30
10.738000
70
192
0
VERTEX
8
OBJECT__29
10
-21.377001
20
44.458000
30
14.815000
70
192
0
VERTEX
8
OBJECT__29
10
-20.938000
20
75.177002
30
15.312000
70
192
0
VERTEX
8
OBJECT__29
10
21.080000
20
56.157001
30
15.004000
70
192
0
VERTEX
8
OBJECT__29
10
25.150000
20
44.681000
30
6.307000
70
192
0
VERTEX
8
OBJECT__29
10
25.379999
20
44.877998
30
5.314000
70
192
0
VERTEX
8
OBJECT__29
10
23.584999
20
44.564999
30
10.738000
70
192
0
VERTEX
8
OBJECT__29
10
21.247000
20
44.458000
30
14.815000
70
192
0
VERTEX
8
OBJECT__29
10
25.214001
20
75.475998
30
3.904000
70
192
0
VERTEX
8
OBJECT__29
10
20.913000
20
67.856003
30
15.193000
70
192
0
VERTEX
8
OBJECT__29
10
21.079000
20
56.220001
30
15.005000
70
192
0
VERTEX
8
OBJECT__29
10
25.443001
20
45.019001
30
4.999000
70
192
0
VERTEX
8
OBJECT__29
10
20.808001
20
75.177002
30
15.312000
70
192
0
VERTEX
8
OBJECT__29
10
20.860001
20
71.522003
30
15.253000
70
192
0
VERTEX
8
OBJECT__29
10
20.860001
20
71.516998
30
15.253000
70
192
0
VERTEX
8
OBJECT__29
10
0
20
0
30
0
70
128
71
1
72
2
73
3
0
VERTEX
8
OBJECT__29
10
0
20
0
30
0
70
128
71
1
72
4
73
5
0
VERTEX
8
OBJECT__29
10
0
20
0
30
0
70
128
71
5
72
2
73
1
0
VERTEX
8
OBJECT__29
10
0
20
0
30
0
70
128
71
6
72
7
73
8
0
VERTEX
8
OBJECT__29
10
0
20
0
30
0
70
128
71
6
72
3
73
7
0
VERTEX
8
OBJECT__29
10
0
20
0
30
0
70
128
71
8
72
9
73
6
0
VERTEX
8
OBJECT__29
10
0
20
0
30
0
70
128
71
10
72
11
73
12
0
VERTEX
8
OBJECT__29
10
0
20
0
30
0
70
128
71
13
72
14
73
10
0
VERTEX
8
OBJECT__29
10
0
20
0
30
0
70
128
71
9
72
8
73
15
0
VERTEX
8
OBJECT__29
10
0
20
0
30
0
70
128
71
15
72
13
73
9
0
VERTEX
8
OBJECT__29
10
0
20
0
30
0
70
128
71
10
72
9
73
13
0
VERTEX
8
OBJECT__29
10
0
20
0
30
0
70
128
71
14
72
11
73
10
0
VERTEX
8
OBJECT__29
10
0
20
0
30
0
70
128
71
16
72
17
73
18
0
VERTEX
8
OBJECT__29
10
0
20
0
30
0
70
128
71
18
72
19
73
20
0
VERTEX
8
OBJECT__29
10
0
20
0
30
0
70
128
71
21
72
20
73
19
0
VERTEX
8
OBJECT__29
10
0
20
0
30
0
70
128
71
22
72
12
73
23
0
VERTEX
8
OBJECT__29
10
0
20
0
30
0
70
128
71
23
72
21
73
22
0
VERTEX
8
OBJECT__29
10
0
20
0
30
0
70
128
71
19
72
22
73
21
0
VERTEX
8
OBJECT__29
10
0
20
0
30
0
70
128
71
20
72
24
73
18
0
VERTEX
8
OBJECT__29
10
0
20
0
30
0
70
128
71
25
72
26
73
27
0
VERTEX
8
OBJECT__29
10
0
20
0
30
0
70
128
71
26
72
25
73
28
0
VERTEX
8
OBJECT__29
10
0
20
0
30
0
70
128
71
17
72
29
73
30
0
VERTEX
8
OBJECT__29
10
0
20
0
30
0
70
128
71
30
72
28
73
17
0
VERTEX
8
OBJECT__29
10
0
20
0
30
0
70
128
71
28
72
30
73
26
0
VERTEX
8
OBJECT__29
10
0
20
0
30
0
70
128
71
17
72
16
73
29
0
VERTEX
8
OBJECT__29
10
0
20
0
30
0
70
128
71
31
72
25
73
32
0
VERTEX
8
OBJECT__29
10
0
20
0
30
0
70
128
71
32
72
33
73
31
0
VERTEX
8
OBJECT__29
10
0
20
0
30
0
70
128
71
34
72
35
73
36
0
VERTEX
8
OBJECT__29
10
0
20
0
30
0
70
128
71
34
72
31
73
37
0
VERTEX
8
OBJECT__29
10
0
20
0
30
0
70
128
71
37
72
35
73
34
0
VERTEX
8
OBJECT__29
10
0
20
0
30
0
70
128
71
36
72
38
73
34
0
VERTEX
8
OBJECT__29
10
0
20
0
30
0
70
128
71
39
72
34
73
38
0
VERTEX
8
OBJECT__29
10
0
20
0
30
0
70
128
71
39
72
40
73
41
0
VERTEX
8
OBJECT__29
10
0
20
0
30
0
70
128
71
41
72
42
73
39
0
VERTEX
8
OBJECT__29
10
0
20
0
30
0
70
128
71
39
72
43
73
40
0
VERTEX
8
OBJECT__29
10
0
20
0
30
0
70
128
71
39
72
44
73
45
0
VERTEX
8
OBJECT__29
10
0
20
0
30
0
70
128
71
44
72
46
73
45
0
VERTEX
8
OBJECT__29
10
0
20
0
30
0
70
128
71
45
72
43
73
39
0
VERTEX
8
OBJECT__29
10
0
20
0
30
0
70
128
71
46
72
44
73
47
0
VERTEX
8
OBJECT__29
10
0
20
0
30
0
70
128
71
47
72
48
73
46
0
VERTEX
8
OBJECT__29
10
0
20
0
30
0
70
128
71
48
72
49
73
46
0
VERTEX
8
OBJECT__29
10
0
20
0
30
0
70
128
71
49
72
50
73
46
0
VERTEX
8
OBJECT__29
10
0
20
0
30
0
70
128
71
42
72
51
73
39
0
VERTEX
8
OBJECT__29
10
0
20
0
30
0
70
128
71
52
72
53
73
54
0
VERTEX
8
OBJECT__29
10
0
20
0
30
0
70
128
71
52
72
55
73
53
0
VERTEX
8
OBJECT__29
10
0
20
0
30
0
70
128
71
52
72
56
73
55
0
VERTEX
8
OBJECT__29
10
0
20
0
30
0
70
128
71
57
72
58
73
59
0
VERTEX
8
OBJECT__29
10
0
20
0
30
0
70
128
71
59
72
60
73
57
0
VERTEX
8
OBJECT__29
10
0
20
0
30
0
70
128
71
57
72
61
73
62
0
VERTEX
8
OBJECT__29
10
0
20
0
30
0
70
128
71
62
72
63
73
57
0
VERTEX
8
OBJECT__29
10
0
20
0
30
0
70
128
71
63
72
58
73
57
0
VERTEX
8
OBJECT__29
10
0
20
0
30
0
70
128
71
59
72
52
73
60
0
VERTEX
8
OBJECT__29
10
0
20
0
30
0
70
128
71
57
72
60
73
4
0
VERTEX
8
OBJECT__29
10
0
20
0
30
0
70
128
71
4
72
1
73
57
0
VERTEX
8
OBJECT__29
10
0
20
0
30
0
70
128
71
54
72
60
73
52
0
VERTEX
8
OBJECT__29
10
0
20
0
30
0
70
128
71
38
72
44
73
39
0
VERTEX
8
OBJECT__29
10
0
20
0
30
0
70
128
71
33
72
37
73
31
0
VERTEX
8
OBJECT__29
10
0
20
0
30
0
70
128
71
27
72
32
73
25
0
VERTEX
8
OBJECT__29
10
0
20
0
30
0
70
128
71
18
72
24
73
16
0
VERTEX
8
OBJECT__29
10
0
20
0
30
0
70
128
71
12
72
22
73
10
0
VERTEX
8
OBJECT__29
10
0
20
0
30
0
70
128
71
3
72
6
73
1
0
SEQEND
8
OBJECT__29
0
POLYLINE
8
OBJECT__30
66
1
70
64
71
28
72
29
62
253
0
VERTEX
8
OBJECT__30
10
20.913000
20
67.856003
30
15.193000
70
192
0
VERTEX
8
OBJECT__30
10
16.462000
20
67.692001
30
20.474001
70
192
0
VERTEX
8
OBJECT__30
10
17.523001
20
56.110001
30
19.295000
70
192
0
VERTEX
8
OBJECT__30
10
21.079000
20
56.220001
30
15.005000
70
192
0
VERTEX
8
OBJECT__30
10
12.609000
20
55.993999
30
23.020000
70
192
0
VERTEX
8
OBJECT__30
10
16.315001
20
67.690002
30
20.579000
70
192
0
VERTEX
8
OBJECT__30
10
12.011000
20
67.626999
30
23.667999
70
192
0
VERTEX
8
OBJECT__30
10
6.393000
20
55.891998
30
25.570000
70
192
0
VERTEX
8
OBJECT__30
10
11.529000
20
67.620003
30
24.014000
70
192
0
VERTEX
8
OBJECT__30
10
0.163000
20
55.820999
30
26.340000
70
192
0
VERTEX
8
OBJECT__30
10
0.187000
20
62.070000
30
26.613001
70
192
0
VERTEX
8
OBJECT__30
10
0.175000
20
62.070000
30
26.613001
70
192
0
VERTEX
8
OBJECT__30
10
2.060000
20
62.509998
30
26.547001
70
192
0
VERTEX
8
OBJECT__30
10
4.469000
20
64.588997
30
26.320999
70
192
0
VERTEX
8
OBJECT__30
10
3.723000
20
63.945000
30
26.391001
70
192
0
VERTEX
8
OBJECT__30
10
5.906000
20
67.583000
30
26.059000
70
192
0
VERTEX
8
OBJECT__30
10
5.328000
20
67.579002
30
26.268999
70
192
0
VERTEX
8
OBJECT__30
10
3.599000
20
44.176998
30
25.572001
70
192
0
VERTEX
8
OBJECT__30
10
0.163000
20
53.118999
30
26.222000
70
192
0
VERTEX
8
OBJECT__30
10
0.161000
20
44.169998
30
25.830999
70
192
0
VERTEX
8
OBJECT__30
10
9.992000
20
44.223999
30
23.775999
70
192
0
VERTEX
8
OBJECT__30
10
12.136000
20
44.250000
30
22.747999
70
192
0
VERTEX
8
OBJECT__30
10
6.792000
20
44.200001
30
24.674999
70
192
0
VERTEX
8
OBJECT__30
10
21.080000
20
56.157001
30
15.004000
70
192
0
VERTEX
8
OBJECT__30
10
13.626000
20
44.278000
30
21.697001
70
192
0
VERTEX
8
OBJECT__30
10
17.737000
20
44.354000
30
18.797001
70
192
0
VERTEX
8
OBJECT__30
10
21.247000
20
44.458000
30
14.815000
70
192
0
VERTEX
8
OBJECT__30
10
0.164000
20
62.069000
30
26.613001
70
192
0
VERTEX
8
OBJECT__30
10
0
20
0
30
0
70
128
71
1
72
2
73
3
0
VERTEX
8
OBJECT__30
10
0
20
0
30
0
70
128
71
3
72
4
73
1
0
VERTEX
8
OBJECT__30
10
0
20
0
30
0
70
128
71
5
72
3
73
6
0
VERTEX
8
OBJECT__30
10
0
20
0
30
0
70
128
71
6
72
7
73
5
0
VERTEX
8
OBJECT__30
10
0
20
0
30
0
70
128
71
8
72
5
73
9
0
VERTEX
8
OBJECT__30
10
0
20
0
30
0
70
128
71
10
72
11
73
12
0
VERTEX
8
OBJECT__30
10
0
20
0
30
0
70
128
71
10
72
8
73
13
0
VERTEX
8
OBJECT__30
10
0
20
0
30
0
70
128
71
13
72
11
73
10
0
VERTEX
8
OBJECT__30
10
0
20
0
30
0
70
128
71
8
72
14
73
15
0
VERTEX
8
OBJECT__30
10
0
20
0
30
0
70
128
71
15
72
13
73
8
0
VERTEX
8
OBJECT__30
10
0
20
0
30
0
70
128
71
16
72
17
73
14
0
VERTEX
8
OBJECT__30
10
0
20
0
30
0
70
128
71
14
72
8
73
16
0
VERTEX
8
OBJECT__30
10
0
20
0
30
0
70
128
71
18
72
8
73
19
0
VERTEX
8
OBJECT__30
10
0
20
0
30
0
70
128
71
8
72
10
73
19
0
VERTEX
8
OBJECT__30
10
0
20
0
30
0
70
128
71
19
72
20
73
18
0
VERTEX
8
OBJECT__30
10
0
20
0
30
0
70
128
71
5
72
21
73
22
0
VERTEX
8
OBJECT__30
10
0
20
0
30
0
70
128
71
8
72
23
73
21
0
VERTEX
8
OBJECT__30
10
0
20
0
30
0
70
128
71
21
72
5
73
8
0
VERTEX
8
OBJECT__30
10
0
20
0
30
0
70
128
71
24
72
4
73
3
0
VERTEX
8
OBJECT__30
10
0
20
0
30
0
70
128
71
5
72
25
73
26
0
VERTEX
8
OBJECT__30
10
0
20
0
30
0
70
128
71
26
72
24
73
5
0
VERTEX
8
OBJECT__30
10
0
20
0
30
0
70
128
71
26
72
27
73
24
0
VERTEX
8
OBJECT__30
10
0
20
0
30
0
70
128
71
3
72
5
73
24
0
VERTEX
8
OBJECT__30
10
0
20
0
30
0
70
128
71
22
72
25
73
5
0
VERTEX
8
OBJECT__30
10
0
20
0
30
0
70
128
71
18
72
23
73
8
0
VERTEX
8
OBJECT__30
10
0
20
0
30
0
70
128
71
12
72
28
73
10
0
VERTEX
8
OBJECT__30
10
0
20
0
30
0
70
128
71
9
72
16
73
8
0
VERTEX
8
OBJECT__30
10
0
20
0
30
0
70
128
71
7
72
9
73
5
0
VERTEX
8
OBJECT__30
10
0
20
0
30
0
70
128
71
2
72
6
73
3
0
SEQEND
8
OBJECT__30
0
POLYLINE
8
OBJECT__31
66
1
70
64
71
15
72
14
62
253
0
VERTEX
8
OBJECT__31
10
-5.199000
20
67.583000
30
26.513000
70
192
0
VERTEX
8
OBJECT__31
10
-5.294000
20
67.580002
30
26.337000
70
192
0
VERTEX
8
OBJECT__31
10
-5.110000
20
65.623001
30
26.264999
70
192
0
VERTEX
8
OBJECT__31
10
-3.758000
20
64.025002
30
26.580000
70
192
0
VERTEX
8
OBJECT__31
10
-3.817000
20
63.919998
30
26.403000
70
192
0
VERTEX
8
OBJECT__31
10
-0.302000
20
62.414001
30
26.771000
70
192
0
VERTEX
8
OBJECT__31
10
-3.171000
20
63.069000
30
26.472000
70
192
0
VERTEX
8
OBJECT__31
10
-0.298000
20
62.548000
30
27.125000
70
192
0
VERTEX
8
OBJECT__31
10
-2.951000
20
63.464001
30
26.978001
70
192
0
VERTEX
8
OBJECT__31
10
-4.792000
20
65.922997
30
26.754000
70
192
0
VERTEX
8
OBJECT__31
10
-5.060000
20
67.554001
30
26.757999
70
192
0
VERTEX
8
OBJECT__31
10
-3.532000
20
64.239998
30
26.907000
70
192
0
VERTEX
8
OBJECT__31
10
-5.065000
20
67.586998
30
26.759001
70
192
0
VERTEX
8
OBJECT__31
10
-0.317000
20
62.070000
30
26.613001
70
192
0
VERTEX
8
OBJECT__31
10
-5.458000
20
67.579002
30
26.268999
70
192
0
VERTEX
8
OBJECT__31
10
0
20
0
30
0
70
128
71
1
72
2
73
3
0
VERTEX
8
OBJECT__31
10
0
20
0
30
0
70
128
71
3
72
4
73
1
0
VERTEX
8
OBJECT__31
10
0
20
0
30
0
70
128
71
3
72
5
73
4
0
VERTEX
8
OBJECT__31
10
0
20
0
30
0
70
128
71
6
72
4
73
7
0
VERTEX
8
OBJECT__31
10
0
20
0
30
0
70
128
71
4
72
5
73
7
0
VERTEX
8
OBJECT__31
10
0
20
0
30
0
70
128
71
6
72
8
73
9
0
VERTEX
8
OBJECT__31
10
0
20
0
30
0
70
128
71
9
72
4
73
6
0
VERTEX
8
OBJECT__31
10
0
20
0
30
0
70
128
71
1
72
10
73
11
0
VERTEX
8
OBJECT__31
10
0
20
0
30
0
70
128
71
1
72
4
73
10
0
VERTEX
8
OBJECT__31
10
0
20
0
30
0
70
128
71
4
72
12
73
10
0
VERTEX
8
OBJECT__31
10
0
20
0
30
0
70
128
71
11
72
13
73
1
0
VERTEX
8
OBJECT__31
10
0
20
0
30
0
70
128
71
9
72
12
73
4
0
VERTEX
8
OBJECT__31
10
0
20
0
30
0
70
128
71
7
72
14
73
6
0
VERTEX
8
OBJECT__31
10
0
20
0
30
0
70
128
71
2
72
15
73
3
0
SEQEND
8
OBJECT__31
0
POLYLINE
8
OBJECT__32
66
1
70
64
71
18
72
17
62
253
0
VERTEX
8
OBJECT__32
10
-2.140000
20
72.586998
30
26.327999
70
192
0
VERTEX
8
OBJECT__32
10
-0.303000
20
72.827003
30
26.424000
70
192
0
VERTEX
8
OBJECT__32
10
-0.303000
20
72.819000
30
26.427999
70
192
0
VERTEX
8
OBJECT__32
10
-0.300000
20
72.750999
30
26.469999
70
192
0
VERTEX
8
OBJECT__32
10
-0.307000
20
72.913002
30
26.391001
70
192
0
VERTEX
8
OBJECT__32
10
-0.297000
20
72.711998
30
26.545000
70
192
0
VERTEX
8
OBJECT__32
10
-3.742000
20
71.102997
30
26.405001
70
192
0
VERTEX
8
OBJECT__32
10
-3.744000
20
71.235001
30
26.236000
70
192
0
VERTEX
8
OBJECT__32
10
-5.199000
20
67.583000
30
26.513000
70
192
0
VERTEX
8
OBJECT__32
10
-4.570000
20
70.539001
30
26.188999
70
192
0
VERTEX
8
OBJECT__32
10
-5.458000
20
67.579002
30
26.268999
70
192
0
VERTEX
8
OBJECT__32
10
-5.294000
20
67.580002
30
26.337000
70
192
0
VERTEX
8
OBJECT__32
10
-5.065000
20
67.586998
30
26.759001
70
192
0
VERTEX
8
OBJECT__32
10
-4.299000
20
70.216003
30
26.669001
70
192
0
VERTEX
8
OBJECT__32
10
-3.540000
20
70.860001
30
26.716000
70
192
0
VERTEX
8
OBJECT__32
10
-2.009000
20
72.160004
30
26.811001
70
192
0
VERTEX
8
OBJECT__32
10
-0.283000
20
72.547997
30
26.860001
70
192
0
VERTEX
8
OBJECT__32
10
-0.311000
20
73.002998
30
26.375000
70
192
0
VERTEX
8
OBJECT__32
10
0
20
0
30
0
70
128
71
1
72
3
73
2
0
VERTEX
8
OBJECT__32
10
0
20
0
30
0
70
128
71
1
72
4
73
3
0
VERTEX
8
OBJECT__32
10
0
20
0
30
0
70
128
71
2
72
5
73
1
0
VERTEX
8
OBJECT__32
10
0
20
0
30
0
70
128
71
6
72
4
73
1
0
VERTEX
8
OBJECT__32
10
0
20
0
30
0
70
128
71
1
72
7
73
6
0
VERTEX
8
OBJECT__32
10
0
20
0
30
0
70
128
71
1
72
8
73
7
0
VERTEX
8
OBJECT__32
10
0
20
0
30
0
70
128
71
9
72
7
73
10
0
VERTEX
8
OBJECT__32
10
0
20
0
30
0
70
128
71
7
72
8
73
10
0
VERTEX
8
OBJECT__32
10
0
20
0
30
0
70
128
71
10
72
11
73
12
0
VERTEX
8
OBJECT__32
10
0
20
0
30
0
70
128
71
9
72
13
73
14
0
VERTEX
8
OBJECT__32
10
0
20
0
30
0
70
128
71
14
72
7
73
9
0
VERTEX
8
OBJECT__32
10
0
20
0
30
0
70
128
71
7
72
15
73
16
0
VERTEX
8
OBJECT__32
10
0
20
0
30
0
70
128
71
16
72
6
73
7
0
VERTEX
8
OBJECT__32
10
0
20
0
30
0
70
128
71
16
72
17
73
6
0
VERTEX
8
OBJECT__32
10
0
20
0
30
0
70
128
71
14
72
15
73
7
0
VERTEX
8
OBJECT__32
10
0
20
0
30
0
70
128
71
10
72
12
73
9
0
VERTEX
8
OBJECT__32
10
0
20
0
30
0
70
128
71
5
72
18
73
1
0
SEQEND
8
OBJECT__32
0
POLYLINE
8
OBJECT__33
66
1
70
64
71
15
72
14
62
253
0
VERTEX
8
OBJECT__33
10
3.628000
20
64.025002
30
26.580000
70
192
0
VERTEX
8
OBJECT__33
10
0.172000
20
62.414001
30
26.771000
70
192
0
VERTEX
8
OBJECT__33
10
2.060000
20
62.509998
30
26.547001
70
192
0
VERTEX
8
OBJECT__33
10
0.187000
20
62.070000
30
26.613001
70
192
0
VERTEX
8
OBJECT__33
10
5.086000
20
67.582001
30
26.497000
70
192
0
VERTEX
8
OBJECT__33
10
4.469000
20
64.588997
30
26.320999
70
192
0
VERTEX
8
OBJECT__33
10
3.723000
20
63.945000
30
26.391001
70
192
0
VERTEX
8
OBJECT__33
10
5.328000
20
67.579002
30
26.268999
70
192
0
VERTEX
8
OBJECT__33
10
5.185000
20
67.579002
30
26.325001
70
192
0
VERTEX
8
OBJECT__33
10
4.926000
20
67.556000
30
26.759001
70
192
0
VERTEX
8
OBJECT__33
10
4.146000
20
64.856003
30
26.819000
70
192
0
VERTEX
8
OBJECT__33
10
4.935000
20
67.586998
30
26.759001
70
192
0
VERTEX
8
OBJECT__33
10
3.440000
20
64.268997
30
26.893000
70
192
0
VERTEX
8
OBJECT__33
10
1.793000
20
62.902000
30
27.065001
70
192
0
VERTEX
8
OBJECT__33
10
0.168000
20
62.548000
30
27.125000
70
192
0
VERTEX
8
OBJECT__33
10
0
20
0
30
0
70
128
71
1
72
2
73
3
0
VERTEX
8
OBJECT__33
10
0
20
0
30
0
70
128
71
2
72
4
73
3
0
VERTEX
8
OBJECT__33
10
0
20
0
30
0
70
128
71
5
72
1
73
6
0
VERTEX
8
OBJECT__33
10
0
20
0
30
0
70
128
71
1
72
7
73
6
0
VERTEX
8
OBJECT__33
10
0
20
0
30
0
70
128
71
6
72
8
73
9
0
VERTEX
8
OBJECT__33
10
0
20
0
30
0
70
128
71
5
72
10
73
11
0
VERTEX
8
OBJECT__33
10
0
20
0
30
0
70
128
71
5
72
12
73
10
0
VERTEX
8
OBJECT__33
10
0
20
0
30
0
70
128
71
11
72
1
73
5
0
VERTEX
8
OBJECT__33
10
0
20
0
30
0
70
128
71
1
72
13
73
14
0
VERTEX
8
OBJECT__33
10
0
20
0
30
0
70
128
71
14
72
2
73
1
0
VERTEX
8
OBJECT__33
10
0
20
0
30
0
70
128
71
14
72
15
73
2
0
VERTEX
8
OBJECT__33
10
0
20
0
30
0
70
128
71
11
72
13
73
1
0
VERTEX
8
OBJECT__33
10
0
20
0
30
0
70
128
71
6
72
9
73
5
0
VERTEX
8
OBJECT__33
10
0
20
0
30
0
70
128
71
3
72
7
73
1
0
SEQEND
8
OBJECT__33
0
POLYLINE
8
OBJECT__34
66
1
70
64
71
14
72
13
62
253
0
VERTEX
8
OBJECT__34
10
3.608000
20
71.107002
30
26.405001
70
192
0
VERTEX
8
OBJECT__34
10
5.086000
20
67.582001
30
26.497000
70
192
0
VERTEX
8
OBJECT__34
10
4.969000
20
69.489998
30
26.179001
70
192
0
VERTEX
8
OBJECT__34
10
5.185000
20
67.579002
30
26.325001
70
192
0
VERTEX
8
OBJECT__34
10
3.627000
20
71.235001
30
26.243999
70
192
0
VERTEX
8
OBJECT__34
10
0.149000
20
72.683998
30
26.530001
70
192
0
VERTEX
8
OBJECT__34
10
3.021000
20
72.023003
30
26.274000
70
192
0
VERTEX
8
OBJECT__34
10
2.804000
20
71.650002
30
26.757000
70
192
0
VERTEX
8
OBJECT__34
10
3.384000
20
70.901001
30
26.726999
70
192
0
VERTEX
8
OBJECT__34
10
0.145000
20
72.547997
30
26.860001
70
192
0
VERTEX
8
OBJECT__34
10
4.618000
20
69.306999
30
26.663000
70
192
0
VERTEX
8
OBJECT__34
10
4.935000
20
67.586998
30
26.759001
70
192
0
VERTEX
8
OBJECT__34
10
0.161000
20
73.003998
30
26.375000
70
192
0
VERTEX
8
OBJECT__34
10
5.328000
20
67.579002
30
26.268999
70
192
0
VERTEX
8
OBJECT__34
10
0
20
0
30
0
70
128
71
1
72
2
73
3
0
VERTEX
8
OBJECT__34
10
0
20
0
30
0
70
128
71
2
72
4
73
3
0
VERTEX
8
OBJECT__34
10
0
20
0
30
0
70
128
71
3
72
5
73
1
0
VERTEX
8
OBJECT__34
10
0
20
0
30
0
70
128
71
6
72
1
73
7
0
VERTEX
8
OBJECT__34
10
0
20
0
30
0
70
128
71
1
72
5
73
7
0
VERTEX
8
OBJECT__34
10
0
20
0
30
0
70
128
71
6
72
8
73
1
0
VERTEX
8
OBJECT__34
10
0
20
0
30
0
70
128
71
8
72
9
73
1
0
VERTEX
8
OBJECT__34
10
0
20
0
30
0
70
128
71
6
72
10
73
8
0
VERTEX
8
OBJECT__34
10
0
20
0
30
0
70
128
71
2
72
1
73
11
0
VERTEX
8
OBJECT__34
10
0
20
0
30
0
70
128
71
1
72
9
73
11
0
VERTEX
8
OBJECT__34
10
0
20
0
30
0
70
128
71
11
72
12
73
2
0
VERTEX
8
OBJECT__34
10
0
20
0
30
0
70
128
71
7
72
13
73
6
0
VERTEX
8
OBJECT__34
10
0
20
0
30
0
70
128
71
4
72
14
73
3
0
SEQEND
8
OBJECT__34
0
POLYLINE
8
OBJECT__35
66
1
70
64
71
21
72
20
62
253
0
VERTEX
8
OBJECT__35
10
20.860001
20
71.516998
30
15.253000
70
192
0
VERTEX
8
OBJECT__35
10
11.931000
20
71.306000
30
23.499001
70
192
0
VERTEX
8
OBJECT__35
10
16.462000
20
67.692001
30
20.474001
70
192
0
VERTEX
8
OBJECT__35
10
16.315001
20
67.690002
30
20.579000
70
192
0
VERTEX
8
OBJECT__35
10
12.011000
20
67.626999
30
23.667999
70
192
0
VERTEX
8
OBJECT__35
10
20.913000
20
67.856003
30
15.193000
70
192
0
VERTEX
8
OBJECT__35
10
20.860001
20
71.522003
30
15.253000
70
192
0
VERTEX
8
OBJECT__35
10
18.239000
20
75.101997
30
18.430000
70
192
0
VERTEX
8
OBJECT__35
10
20.808001
20
75.177002
30
15.312000
70
192
0
VERTEX
8
OBJECT__35
10
12.923000
20
75.014000
30
22.646000
70
192
0
VERTEX
8
OBJECT__35
10
6.703000
20
74.953003
30
25.292000
70
192
0
VERTEX
8
OBJECT__35
10
3.021000
20
72.023003
30
26.274000
70
192
0
VERTEX
8
OBJECT__35
10
3.627000
20
71.235001
30
26.243999
70
192
0
VERTEX
8
OBJECT__35
10
11.689000
20
75.001999
30
23.170000
70
192
0
VERTEX
8
OBJECT__35
10
0.160000
20
73.967003
30
26.290001
70
192
0
VERTEX
8
OBJECT__35
10
0.161000
20
73.003998
30
26.375000
70
192
0
VERTEX
8
OBJECT__35
10
0.160000
20
74.931000
30
26.205999
70
192
0
VERTEX
8
OBJECT__35
10
4.969000
20
69.489998
30
26.179001
70
192
0
VERTEX
8
OBJECT__35
10
5.906000
20
67.583000
30
26.059000
70
192
0
VERTEX
8
OBJECT__35
10
11.529000
20
67.620003
30
24.014000
70
192
0
VERTEX
8
OBJECT__35
10
5.328000
20
67.579002
30
26.268999
70
192
0
VERTEX
8
OBJECT__35
10
0
20
0
30
0
70
128
71
1
72
2
73
3
0
VERTEX
8
OBJECT__35
10
0
20
0
30
0
70
128
71
2
72
4
73
3
0
VERTEX
8
OBJECT__35
10
0
20
0
30
0
70
128
71
2
72
5
73
4
0
VERTEX
8
OBJECT__35
10
0
20
0
30
0
70
128
71
3
72
6
73
1
0
VERTEX
8
OBJECT__35
10
0
20
0
30
0
70
128
71
2
72
7
73
8
0
VERTEX
8
OBJECT__35
10
0
20
0
30
0
70
128
71
7
72
9
73
8
0
VERTEX
8
OBJECT__35
10
0
20
0
30
0
70
128
71
8
72
10
73
2
0
VERTEX
8
OBJECT__35
10
0
20
0
30
0
70
128
71
11
72
12
73
13
0
VERTEX
8
OBJECT__35
10
0
20
0
30
0
70
128
71
2
72
14
73
11
0
VERTEX
8
OBJECT__35
10
0
20
0
30
0
70
128
71
15
72
16
73
12
0
VERTEX
8
OBJECT__35
10
0
20
0
30
0
70
128
71
11
72
17
73
15
0
VERTEX
8
OBJECT__35
10
0
20
0
30
0
70
128
71
12
72
11
73
15
0
VERTEX
8
OBJECT__35
10
0
20
0
30
0
70
128
71
2
72
18
73
19
0
VERTEX
8
OBJECT__35
10
0
20
0
30
0
70
128
71
19
72
20
73
2
0
VERTEX
8
OBJECT__35
10
0
20
0
30
0
70
128
71
18
72
21
73
19
0
VERTEX
8
OBJECT__35
10
0
20
0
30
0
70
128
71
2
72
13
73
18
0
VERTEX
8
OBJECT__35
10
0
20
0
30
0
70
128
71
20
72
5
73
2
0
VERTEX
8
OBJECT__35
10
0
20
0
30
0
70
128
71
13
72
2
73
11
0
VERTEX
8
OBJECT__35
10
0
20
0
30
0
70
128
71
10
72
14
73
2
0
VERTEX
8
OBJECT__35
10
0
20
0
30
0
70
128
71
1
72
7
73
2
0
SEQEND
8
OBJECT__35
0
POLYLINE
8
OBJECT__36
66
1
70
64
71
13
72
12
62
253
0
VERTEX
8
OBJECT__36
10
-0.065000
20
73.967003
30
26.291000
70
192
0
VERTEX
8
OBJECT__36
10
0.160000
20
73.967003
30
26.290001
70
192
0
VERTEX
8
OBJECT__36
10
0.047000
20
74.931000
30
26.207001
70
192
0
VERTEX
8
OBJECT__36
10
0.160000
20
74.931000
30
26.205999
70
192
0
VERTEX
8
OBJECT__36
10
-0.065000
20
74.931000
30
26.207001
70
192
0
VERTEX
8
OBJECT__36
10
-0.177000
20
74.931000
30
26.207001
70
192
0
VERTEX
8
OBJECT__36
10
-0.290000
20
73.967003
30
26.290001
70
192
0
VERTEX
8
OBJECT__36
10
-0.178000
20
73.008003
30
26.375000
70
192
0
VERTEX
8
OBJECT__36
10
-0.291000
20
73.003998
30
26.375000
70
192
0
VERTEX
8
OBJECT__36
10
-0.065000
20
73.009003
30
26.375000
70
192
0
VERTEX
8
OBJECT__36
10
0.048000
20
73.008003
30
26.375000
70
192
0
VERTEX
8
OBJECT__36
10
0.161000
20
73.003998
30
26.375000
70
192
0
VERTEX
8
OBJECT__36
10
-0.290000
20
74.931000
30
26.205999
70
192
0
VERTEX
8
OBJECT__36
10
0
20
0
30
0
70
128
71
1
72
2
73
3
0
VERTEX
8
OBJECT__36
10
0
20
0
30
0
70
128
71
2
72
4
73
3
0
VERTEX
8
OBJECT__36
10
0
20
0
30
0
70
128
71
1
72
5
73
6
0
VERTEX
8
OBJECT__36
10
0
20
0
30
0
70
128
71
6
72
7
73
1
0
VERTEX
8
OBJECT__36
10
0
20
0
30
0
70
128
71
1
72
7
73
8
0
VERTEX
8
OBJECT__36
10
0
20
0
30
0
70
128
71
7
72
9
73
8
0
VERTEX
8
OBJECT__36
10
0
20
0
30
0
70
128
71
1
72
10
73
11
0
VERTEX
8
OBJECT__36
10
0
20
0
30
0
70
128
71
11
72
2
73
1
0
VERTEX
8
OBJECT__36
10
0
20
0
30
0
70
128
71
11
72
12
73
2
0
VERTEX
8
OBJECT__36
10
0
20
0
30
0
70
128
71
8
72
10
73
1
0
VERTEX
8
OBJECT__36
10
0
20
0
30
0
70
128
71
6
72
13
73
7
0
VERTEX
8
OBJECT__36
10
0
20
0
30
0
70
128
71
3
72
5
73
1
0
SEQEND
8
OBJECT__36
0
POLYLINE
8
OBJECT__37
66
1
70
64
71
26
72
26
62
253
0
VERTEX
8
OBJECT__37
10
-21.017000
20
69.653000
30
15.222000
70
192
0
VERTEX
8
OBJECT__37
10
-12.124000
20
69.432999
30
23.615000
70
192
0
VERTEX
8
OBJECT__37
10
-12.061000
20
71.306000
30
23.499001
70
192
0
VERTEX
8
OBJECT__37
10
-20.990000
20
71.522003
30
15.253000
70
192
0
VERTEX
8
OBJECT__37
10
-20.990000
20
71.516998
30
15.253000
70
192
0
VERTEX
8
OBJECT__37
10
-16.676001
20
75.069000
30
20.035999
70
192
0
VERTEX
8
OBJECT__37
10
-11.898000
20
75.000999
30
23.205000
70
192
0
VERTEX
8
OBJECT__37
10
-16.389000
20
67.696999
30
20.539000
70
192
0
VERTEX
8
OBJECT__37
10
-15.878000
20
67.679001
30
21.125000
70
192
0
VERTEX
8
OBJECT__37
10
-21.042999
20
67.856003
30
15.193000
70
192
0
VERTEX
8
OBJECT__37
10
-4.570000
20
70.539001
30
26.188999
70
192
0
VERTEX
8
OBJECT__37
10
-10.497000
20
67.594002
30
24.587999
70
192
0
VERTEX
8
OBJECT__37
10
-11.500000
20
67.610001
30
23.943001
70
192
0
VERTEX
8
OBJECT__37
10
-12.081000
20
67.619003
30
23.569000
70
192
0
VERTEX
8
OBJECT__37
10
-6.043000
20
67.581001
30
26.073999
70
192
0
VERTEX
8
OBJECT__37
10
-5.458000
20
67.579002
30
26.268999
70
192
0
VERTEX
8
OBJECT__37
10
-0.290000
20
73.967003
30
26.290001
70
192
0
VERTEX
8
OBJECT__37
10
-0.311000
20
73.002998
30
26.375000
70
192
0
VERTEX
8
OBJECT__37
10
-0.301000
20
73.002998
30
26.375000
70
192
0
VERTEX
8
OBJECT__37
10
-0.291000
20
73.003998
30
26.375000
70
192
0
VERTEX
8
OBJECT__37
10
-0.290000
20
74.931000
30
26.205999
70
192
0
VERTEX
8
OBJECT__37
10
-5.195000
20
74.944000
30
25.684999
70
192
0
VERTEX
8
OBJECT__37
10
-2.140000
20
72.586998
30
26.327999
70
192
0
VERTEX
8
OBJECT__37
10
-3.744000
20
71.235001
30
26.236000
70
192
0
VERTEX
8
OBJECT__37
10
-11.337000
20
74.992996
30
23.577000
70
192
0
VERTEX
8
OBJECT__37
10
-20.938000
20
75.177002
30
15.312000
70
192
0
VERTEX
8
OBJECT__37
10
0
20
0
30
0
70
128
71
1
72
2
73
3
0
VERTEX
8
OBJECT__37
10
0
20
0
30
0
70
128
71
3
72
4
73
5
0
VERTEX
8
OBJECT__37
10
0
20
0
30
0
70
128
71
4
72
3
73
6
0
VERTEX
8
OBJECT__37
10
0
20
0
30
0
70
128
71
3
72
7
73
6
0
VERTEX
8
OBJECT__37
10
0
20
0
30
0
70
128
71
2
72
8
73
9
0
VERTEX
8
OBJECT__37
10
0
20
0
30
0
70
128
71
1
72
10
73
8
0
VERTEX
8
OBJECT__37
10
0
20
0
30
0
70
128
71
8
72
2
73
1
0
VERTEX
8
OBJECT__37
10
0
20
0
30
0
70
128
71
11
72
3
73
12
0
VERTEX
8
OBJECT__37
10
0
20
0
30
0
70
128
71
3
72
13
73
12
0
VERTEX
8
OBJECT__37
10
0
20
0
30
0
70
128
71
13
72
3
73
2
0
VERTEX
8
OBJECT__37
10
0
20
0
30
0
70
128
71
2
72
14
73
13
0
VERTEX
8
OBJECT__37
10
0
20
0
30
0
70
128
71
12
72
15
73
11
0
VERTEX
8
OBJECT__37
10
0
20
0
30
0
70
128
71
15
72
16
73
11
0
VERTEX
8
OBJECT__37
10
0
20
0
30
0
70
128
71
17
72
18
73
19
0
VERTEX
8
OBJECT__37
10
0
20
0
30
0
70
128
71
19
72
20
73
17
0
VERTEX
8
OBJECT__37
10
0
20
0
30
0
70
128
71
21
72
22
73
23
0
VERTEX
8
OBJECT__37
10
0
20
0
30
0
70
128
71
23
72
18
73
21
0
VERTEX
8
OBJECT__37
10
0
20
0
30
0
70
128
71
3
72
24
73
22
0
VERTEX
8
OBJECT__37
10
0
20
0
30
0
70
128
71
24
72
23
73
22
0
VERTEX
8
OBJECT__37
10
0
20
0
30
0
70
128
71
22
72
25
73
3
0
VERTEX
8
OBJECT__37
10
0
20
0
30
0
70
128
71
25
72
7
73
3
0
VERTEX
8
OBJECT__37
10
0
20
0
30
0
70
128
71
17
72
21
73
18
0
VERTEX
8
OBJECT__37
10
0
20
0
30
0
70
128
71
11
72
24
73
3
0
VERTEX
8
OBJECT__37
10
0
20
0
30
0
70
128
71
9
72
14
73
2
0
VERTEX
8
OBJECT__37
10
0
20
0
30
0
70
128
71
6
72
26
73
4
0
VERTEX
8
OBJECT__37
10
0
20
0
30
0
70
128
71
3
72
5
73
1
0
SEQEND
8
OBJECT__37
0
POLYLINE
8
OBJECT__38
66
1
70
64
71
34
72
32
62
253
0
VERTEX
8
OBJECT__38
10
20.559999
20
75.662003
30
14.957000
70
192
0
VERTEX
8
OBJECT__38
10
20.500999
20
75.657997
30
15.110000
70
192
0
VERTEX
8
OBJECT__38
10
20.719999
20
75.480003
30
15.258000
70
192
0
VERTEX
8
OBJECT__38
10
25.214001
20
75.475998
30
3.904000
70
192
0
VERTEX
8
OBJECT__38
10
24.843000
20
75.952003
30
3.869000
70
192
0
VERTEX
8
OBJECT__38
10
20.808001
20
75.177002
30
15.312000
70
192
0
VERTEX
8
OBJECT__38
10
23.443001
20
76.265999
30
-8.099000
70
192
0
VERTEX
8
OBJECT__38
10
24.811001
20
75.566002
30
0.454000
70
192
0
VERTEX
8
OBJECT__38
10
23.392000
20
76.267998
30
-8.173000
70
192
0
VERTEX
8
OBJECT__38
10
23.794001
20
75.793999
30
-8.242000
70
192
0
VERTEX
8
OBJECT__38
10
19.834999
20
75.945000
30
-14.012000
70
192
0
VERTEX
8
OBJECT__38
10
16.625999
20
76.526001
30
-18.035000
70
192
0
VERTEX
8
OBJECT__38
10
16.875000
20
76.057999
30
-18.327000
70
192
0
VERTEX
8
OBJECT__38
10
7.579000
20
76.185997
30
-23.222000
70
192
0
VERTEX
8
OBJECT__38
10
5.962000
20
76.672997
30
-23.650999
70
192
0
VERTEX
8
OBJECT__38
10
-6.182000
20
76.208000
30
-24.025999
70
192
0
VERTEX
8
OBJECT__38
10
-6.092000
20
76.672997
30
-23.650999
70
192
0
VERTEX
8
OBJECT__38
10
5.943000
20
76.672997
30
-23.650999
70
192
0
VERTEX
8
OBJECT__38
10
6.052000
20
76.208000
30
-24.025999
70
192
0
VERTEX
8
OBJECT__38
10
-16.708000
20
76.527000
30
-18.061001
70
192
0
VERTEX
8
OBJECT__38
10
-7.709000
20
76.185997
30
-23.222000
70
192
0
VERTEX
8
OBJECT__38
10
-17.004999
20
76.057999
30
-18.327000
70
192
0
VERTEX
8
OBJECT__38
10
-16.756001
20
76.526001
30
-18.035000
70
192
0
VERTEX
8
OBJECT__38
10
-23.573000
20
76.265999
30
-8.099000
70
192
0
VERTEX
8
OBJECT__38
10
-19.965000
20
75.945000
30
-14.012000
70
192
0
VERTEX
8
OBJECT__38
10
-23.924000
20
75.793999
30
-8.242000
70
192
0
VERTEX
8
OBJECT__38
10
-24.941000
20
75.566002
30
0.454000
70
192
0
VERTEX
8
OBJECT__38
10
-24.958000
20
75.956001
30
3.743000
70
192
0
VERTEX
8
OBJECT__38
10
-25.344000
20
75.475998
30
3.904000
70
192
0
VERTEX
8
OBJECT__38
10
-24.973000
20
75.952003
30
3.869000
70
192
0
VERTEX
8
OBJECT__38
10
-20.938000
20
75.177002
30
15.312000
70
192
0
VERTEX
8
OBJECT__38
10
-20.690001
20
75.662003
30
14.957000
70
192
0
VERTEX
8
OBJECT__38
10
-20.850000
20
75.480003
30
15.258000
70
192
0
VERTEX
8
OBJECT__38
10
-20.631001
20
75.657997
30
15.110000
70
192
0
VERTEX
8
OBJECT__38
10
0
20
0
30
0
70
128
71
1
72
2
73
3
0
VERTEX
8
OBJECT__38
10
0
20
0
30
0
70
128
71
4
72
5
73
1
0
VERTEX
8
OBJECT__38
10
0
20
0
30
0
70
128
71
1
72
6
73
4
0
VERTEX
8
OBJECT__38
10
0
20
0
30
0
70
128
71
7
72
5
73
8
0
VERTEX
8
OBJECT__38
10
0
20
0
30
0
70
128
71
5
72
4
73
8
0
VERTEX
8
OBJECT__38
10
0
20
0
30
0
70
128
71
9
72
10
73
11
0
VERTEX
8
OBJECT__38
10
0
20
0
30
0
70
128
71
11
72
12
73
9
0
VERTEX
8
OBJECT__38
10
0
20
0
30
0
70
128
71
11
72
13
73
12
0
VERTEX
8
OBJECT__38
10
0
20
0
30
0
70
128
71
12
72
13
73
14
0
VERTEX
8
OBJECT__38
10
0
20
0
30
0
70
128
71
14
72
15
73
12
0
VERTEX
8
OBJECT__38
10
0
20
0
30
0
70
128
71
16
72
17
73
18
0
VERTEX
8
OBJECT__38
10
0
20
0
30
0
70
128
71
18
72
19
73
16
0
VERTEX
8
OBJECT__38
10
0
20
0
30
0
70
128
71
20
72
17
73
21
0
VERTEX
8
OBJECT__38
10
0
20
0
30
0
70
128
71
17
72
16
73
21
0
VERTEX
8
OBJECT__38
10
0
20
0
30
0
70
128
71
22
72
23
73
20
0
VERTEX
8
OBJECT__38
10
0
20
0
30
0
70
128
71
24
72
23
73
25
0
VERTEX
8
OBJECT__38
10
0
20
0
30
0
70
128
71
23
72
22
73
25
0
VERTEX
8
OBJECT__38
10
0
20
0
30
0
70
128
71
24
72
26
73
27
0
VERTEX
8
OBJECT__38
10
0
20
0
30
0
70
128
71
27
72
28
73
24
0
VERTEX
8
OBJECT__38
10
0
20
0
30
0
70
128
71
29
72
30
73
28
0
VERTEX
8
OBJECT__38
10
0
20
0
30
0
70
128
71
29
72
31
73
32
0
VERTEX
8
OBJECT__38
10
0
20
0
30
0
70
128
71
32
72
31
73
33
0
VERTEX
8
OBJECT__38
10
0
20
0
30
0
70
128
71
33
72
34
73
32
0
VERTEX
8
OBJECT__38
10
0
20
0
30
0
70
128
71
32
72
30
73
29
0
VERTEX
8
OBJECT__38
10
0
20
0
30
0
70
128
71
27
72
29
73
28
0
VERTEX
8
OBJECT__38
10
0
20
0
30
0
70
128
71
25
72
26
73
24
0
VERTEX
8
OBJECT__38
10
0
20
0
30
0
70
128
71
21
72
22
73
20
0
VERTEX
8
OBJECT__38
10
0
20
0
30
0
70
128
71
18
72
15
73
19
0
VERTEX
8
OBJECT__38
10
0
20
0
30
0
70
128
71
14
72
19
73
15
0
VERTEX
8
OBJECT__38
10
0
20
0
30
0
70
128
71
9
72
7
73
10
0
VERTEX
8
OBJECT__38
10
0
20
0
30
0
70
128
71
8
72
10
73
7
0
VERTEX
8
OBJECT__38
10
0
20
0
30
0
70
128
71
3
72
6
73
1
0
SEQEND
8
OBJECT__38
0
POLYLINE
8
OBJECT__39
66
1
70
64
71
18
72
19
62
253
0
VERTEX
8
OBJECT__39
10
-20.938000
20
75.177002
30
15.312000
70
192
0
VERTEX
8
OBJECT__39
10
-16.676001
20
75.069000
30
20.035999
70
192
0
VERTEX
8
OBJECT__39
10
-16.844000
20
75.358002
30
19.754000
70
192
0
VERTEX
8
OBJECT__39
10
-11.786000
20
75.170998
30
23.000000
70
192
0
VERTEX
8
OBJECT__39
10
-11.898000
20
75.000999
30
23.205000
70
192
0
VERTEX
8
OBJECT__39
10
-11.337000
20
74.992996
30
23.577000
70
192
0
VERTEX
8
OBJECT__39
10
-5.195000
20
74.944000
30
25.684999
70
192
0
VERTEX
8
OBJECT__39
10
-6.265000
20
75.207001
30
25.340000
70
192
0
VERTEX
8
OBJECT__39
10
-0.289000
20
75.155998
30
26.082001
70
192
0
VERTEX
8
OBJECT__39
10
-0.290000
20
74.931000
30
26.205999
70
192
0
VERTEX
8
OBJECT__39
10
-0.289000
20
75.074997
30
26.171000
70
192
0
VERTEX
8
OBJECT__39
10
-4.766000
20
75.379997
30
25.403000
70
192
0
VERTEX
8
OBJECT__39
10
-10.432000
20
75.428001
30
23.606001
70
192
0
VERTEX
8
OBJECT__39
10
-0.287000
20
75.367996
30
25.846001
70
192
0
VERTEX
8
OBJECT__39
10
-20.631001
20
75.657997
30
15.110000
70
192
0
VERTEX
8
OBJECT__39
10
-20.850000
20
75.480003
30
15.258000
70
192
0
VERTEX
8
OBJECT__39
10
-11.670000
20
75.448997
30
22.839001
70
192
0
VERTEX
8
OBJECT__39
10
-15.866000
20
75.519997
30
20.240000
70
192
0
VERTEX
8
OBJECT__39
10
0
20
0
30
0
70
128
71
1
72
2
73
3
0
VERTEX
8
OBJECT__39
10
0
20
0
30
0
70
128
71
4
72
3
73
2
0
VERTEX
8
OBJECT__39
10
0
20
0
30
0
70
128
71
2
72
5
73
4
0
VERTEX
8
OBJECT__39
10
0
20
0
30
0
70
128
71
6
72
7
73
8
0
VERTEX
8
OBJECT__39
10
0
20
0
30
0
70
128
71
4
72
5
73
6
0
VERTEX
8
OBJECT__39
10
0
20
0
30
0
70
128
71
9
72
8
73
7
0
VERTEX
8
OBJECT__39
10
0
20
0
30
0
70
128
71
7
72
10
73
11
0
VERTEX
8
OBJECT__39
10
0
20
0
30
0
70
128
71
7
72
11
73
9
0
VERTEX
8
OBJECT__39
10
0
20
0
30
0
70
128
71
8
72
12
73
13
0
VERTEX
8
OBJECT__39
10
0
20
0
30
0
70
128
71
9
72
14
73
12
0
VERTEX
8
OBJECT__39
10
0
20
0
30
0
70
128
71
12
72
8
73
9
0
VERTEX
8
OBJECT__39
10
0
20
0
30
0
70
128
71
13
72
4
73
8
0
VERTEX
8
OBJECT__39
10
0
20
0
30
0
70
128
71
15
72
16
73
3
0
VERTEX
8
OBJECT__39
10
0
20
0
30
0
70
128
71
4
72
17
73
18
0
VERTEX
8
OBJECT__39
10
0
20
0
30
0
70
128
71
18
72
3
73
4
0
VERTEX
8
OBJECT__39
10
0
20
0
30
0
70
128
71
3
72
18
73
15
0
VERTEX
8
OBJECT__39
10
0
20
0
30
0
70
128
71
13
72
17
73
4
0
VERTEX
8
OBJECT__39
10
0
20
0
30
0
70
128
71
8
72
4
73
6
0
VERTEX
8
OBJECT__39
10
0
20
0
30
0
70
128
71
3
72
16
73
1
0
SEQEND
8
OBJECT__39
0
POLYLINE
8
OBJECT__40
66
1
70
64
71
41
72
53
62
253
0
VERTEX
8
OBJECT__40
10
-4.766000
20
75.379997
30
25.403000
70
192
0
VERTEX
8
OBJECT__40
10
-0.065000
20
78.087997
30
13.521000
70
192
0
VERTEX
8
OBJECT__40
10
-5.990000
20
78.125999
30
12.061000
70
192
0
VERTEX
8
OBJECT__40
10
-11.670000
20
75.448997
30
22.839001
70
192
0
VERTEX
8
OBJECT__40
10
-10.432000
20
75.428001
30
23.606001
70
192
0
VERTEX
8
OBJECT__40
10
-0.287000
20
75.367996
30
25.846001
70
192
0
VERTEX
8
OBJECT__40
10
6.628000
20
75.391998
30
24.938999
70
192
0
VERTEX
8
OBJECT__40
10
5.860000
20
78.125999
30
12.061000
70
192
0
VERTEX
8
OBJECT__40
10
0.157000
20
75.367996
30
25.846001
70
192
0
VERTEX
8
OBJECT__40
10
-0.065000
20
75.367996
30
25.847000
70
192
0
VERTEX
8
OBJECT__40
10
10.427000
20
78.232002
30
8.016000
70
192
0
VERTEX
8
OBJECT__40
10
18.018999
20
75.578003
30
18.131001
70
192
0
VERTEX
8
OBJECT__40
10
20.500999
20
75.657997
30
15.110000
70
192
0
VERTEX
8
OBJECT__40
10
11.556000
20
75.448997
30
22.823999
70
192
0
VERTEX
8
OBJECT__40
10
12.836000
20
75.463997
30
22.275000
70
192
0
VERTEX
8
OBJECT__40
10
24.843000
20
75.952003
30
3.869000
70
192
0
VERTEX
8
OBJECT__40
10
12.591000
20
78.380997
30
2.313000
70
192
0
VERTEX
8
OBJECT__40
10
23.443001
20
76.265999
30
-8.099000
70
192
0
VERTEX
8
OBJECT__40
10
11.856000
20
78.540001
30
-3.743000
70
192
0
VERTEX
8
OBJECT__40
10
16.625999
20
76.526001
30
-18.035000
70
192
0
VERTEX
8
OBJECT__40
10
8.389000
20
78.670998
30
-8.763000
70
192
0
VERTEX
8
OBJECT__40
10
5.962000
20
76.672997
30
-23.650999
70
192
0
VERTEX
8
OBJECT__40
10
2.986000
20
78.745003
30
-11.598000
70
192
0
VERTEX
8
OBJECT__40
10
5.943000
20
76.672997
30
-23.650999
70
192
0
VERTEX
8
OBJECT__40
10
-6.092000
20
76.672997
30
-23.650999
70
192
0
VERTEX
8
OBJECT__40
10
-3.116000
20
78.745003
30
-11.598000
70
192
0
VERTEX
8
OBJECT__40
10
-16.708000
20
76.527000
30
-18.061001
70
192
0
VERTEX
8
OBJECT__40
10
-8.519000
20
78.670998
30
-8.763000
70
192
0
VERTEX
8
OBJECT__40
10
-16.756001
20
76.526001
30
-18.035000
70
192
0
VERTEX
8
OBJECT__40
10
-23.573000
20
76.265999
30
-8.099000
70
192
0
VERTEX
8
OBJECT__40
10
-11.986000
20
78.540001
30
-3.743000
70
192
0
VERTEX
8
OBJECT__40
10
-24.958000
20
75.956001
30
3.743000
70
192
0
VERTEX
8
OBJECT__40
10
-12.721000
20
78.380997
30
2.313000
70
192
0
VERTEX
8
OBJECT__40
10
-24.973000
20
75.952003
30
3.869000
70
192
0
VERTEX
8
OBJECT__40
10
-20.690001
20
75.662003
30
14.957000
70
192
0
VERTEX
8
OBJECT__40
10
-10.557000
20
78.232002
30
8.016000
70
192
0
VERTEX
8
OBJECT__40
10
-15.866000
20
75.519997
30
20.240000
70
192
0
VERTEX
8
OBJECT__40
10
-20.631001
20
75.657997
30
15.110000
70
192
0
VERTEX
8
OBJECT__40
10
23.392000
20
76.267998
30
-8.173000
70
192
0
VERTEX
8
OBJECT__40
10
20.559999
20
75.662003
30
14.957000
70
192
0
VERTEX
8
OBJECT__40
10
-0.065000
20
79.237000
30
0.798000
70
192
0
VERTEX
8
OBJECT__40
10
0
20
0
30
0
70
128
71
1
72
2
73
3
0
VERTEX
8
OBJECT__40
10
0
20
0
30
0
70
128
71
3
72
4
73
5
0
VERTEX
8
OBJECT__40
10
0
20
0
30
0
70
128
71
3
72
5
73
1
0
VERTEX
8
OBJECT__40
10
0
20
0
30
0
70
128
71
1
72
6
73
2
0
VERTEX
8
OBJECT__40
10
0
20
0
30
0
70
128
71
7
72
8
73
2
0
VERTEX
8
OBJECT__40
10
0
20
0
30
0
70
128
71
2
72
9
73
7
0
VERTEX
8
OBJECT__40
10
0
20
0
30
0
70
128
71
2
72
10
73
9
0
VERTEX
8
OBJECT__40
10
0
20
0
30
0
70
128
71
11
72
12
73
13
0
VERTEX
8
OBJECT__40
10
0
20
0
30
0
70
128
71
12
72
11
73
8
0
VERTEX
8
OBJECT__40
10
0
20
0
30
0
70
128
71
8
72
14
73
15
0
VERTEX
8
OBJECT__40
10
0
20
0
30
0
70
128
71
8
72
15
73
12
0
VERTEX
8
OBJECT__40
10
0
20
0
30
0
70
128
71
16
72
17
73
11
0
VERTEX
8
OBJECT__40
10
0
20
0
30
0
70
128
71
18
72
19
73
17
0
VERTEX
8
OBJECT__40
10
0
20
0
30
0
70
128
71
17
72
16
73
18
0
VERTEX
8
OBJECT__40
10
0
20
0
30
0
70
128
71
20
72
21
73
19
0
VERTEX
8
OBJECT__40
10
0
20
0
30
0
70
128
71
22
72
23
73
21
0
VERTEX
8
OBJECT__40
10
0
20
0
30
0
70
128
71
21
72
20
73
22
0
VERTEX
8
OBJECT__40
10
0
20
0
30
0
70
128
71
24
72
25
73
26
0
VERTEX
8
OBJECT__40
10
0
20
0
30
0
70
128
71
25
72
27
73
28
0
VERTEX
8
OBJECT__40
10
0
20
0
30
0
70
128
71
29
72
30
73
31
0
VERTEX
8
OBJECT__40
10
0
20
0
30
0
70
128
71
28
72
27
73
29
0
VERTEX
8
OBJECT__40
10
0
20
0
30
0
70
128
71
30
72
32
73
33
0
VERTEX
8
OBJECT__40
10
0
20
0
30
0
70
128
71
34
72
35
73
36
0
VERTEX
8
OBJECT__40
10
0
20
0
30
0
70
128
71
33
72
32
73
34
0
VERTEX
8
OBJECT__40
10
0
20
0
30
0
70
128
71
37
72
3
73
36
0
VERTEX
8
OBJECT__40
10
0
20
0
30
0
70
128
71
36
72
35
73
38
0
VERTEX
8
OBJECT__40
10
0
20
0
30
0
70
128
71
36
72
38
73
37
0
VERTEX
8
OBJECT__40
10
0
20
0
30
0
70
128
71
37
72
4
73
3
0
VERTEX
8
OBJECT__40
10
0
20
0
30
0
70
128
71
36
72
33
73
34
0
VERTEX
8
OBJECT__40
10
0
20
0
30
0
70
128
71
33
72
31
73
30
0
VERTEX
8
OBJECT__40
10
0
20
0
30
0
70
128
71
31
72
28
73
29
0
VERTEX
8
OBJECT__40
10
0
20
0
30
0
70
128
71
28
72
26
73
25
0
VERTEX
8
OBJECT__40
10
0
20
0
30
0
70
128
71
26
72
23
73
24
0
VERTEX
8
OBJECT__40
10
0
20
0
30
0
70
128
71
22
72
24
73
23
0
VERTEX
8
OBJECT__40
10
0
20
0
30
0
70
128
71
19
72
39
73
20
0
VERTEX
8
OBJECT__40
10
0
20
0
30
0
70
128
71
18
72
39
73
19
0
VERTEX
8
OBJECT__40
10
0
20
0
30
0
70
128
71
11
72
40
73
16
0
VERTEX
8
OBJECT__40
10
0
20
0
30
0
70
128
71
13
72
40
73
11
0
VERTEX
8
OBJECT__40
10
0
20
0
30
0
70
128
71
7
72
14
73
8
0
VERTEX
8
OBJECT__40
10
0
20
0
30
0
70
128
71
6
72
10
73
2
0
VERTEX
8
OBJECT__40
10
0
20
0
30
0
70
128
71
41
72
3
73
2
0
VERTEX
8
OBJECT__40
10
0
20
0
30
0
70
128
71
41
72
36
73
3
0
VERTEX
8
OBJECT__40
10
0
20
0
30
0
70
128
71
41
72
33
73
36
0
VERTEX
8
OBJECT__40
10
0
20
0
30
0
70
128
71
41
72
31
73
33
0
VERTEX
8
OBJECT__40
10
0
20
0
30
0
70
128
71
41
72
28
73
31
0
VERTEX
8
OBJECT__40
10
0
20
0
30
0
70
128
71
41
72
26
73
28
0
VERTEX
8
OBJECT__40
10
0
20
0
30
0
70
128
71
41
72
23
73
26
0
VERTEX
8
OBJECT__40
10
0
20
0
30
0
70
128
71
41
72
21
73
23
0
VERTEX
8
OBJECT__40
10
0
20
0
30
0
70
128
71
41
72
19
73
21
0
VERTEX
8
OBJECT__40
10
0
20
0
30
0
70
128
71
41
72
17
73
19
0
VERTEX
8
OBJECT__40
10
0
20
0
30
0
70
128
71
41
72
11
73
17
0
VERTEX
8
OBJECT__40
10
0
20
0
30
0
70
128
71
41
72
8
73
11
0
VERTEX
8
OBJECT__40
10
0
20
0
30
0
70
128
71
41
72
2
73
8
0
SEQEND
8
OBJECT__40
0
POLYLINE
8
OBJECT__41
66
1
70
64
71
18
72
19
62
253
0
VERTEX
8
OBJECT__41
10
0.159000
20
75.074997
30
26.171000
70
192
0
VERTEX
8
OBJECT__41
10
6.703000
20
74.953003
30
25.292000
70
192
0
VERTEX
8
OBJECT__41
10
6.100000
20
75.206001
30
25.349001
70
192
0
VERTEX
8
OBJECT__41
10
0.159000
20
75.155998
30
26.082001
70
192
0
VERTEX
8
OBJECT__41
10
11.590000
20
75.169998
30
22.985001
70
192
0
VERTEX
8
OBJECT__41
10
11.689000
20
75.001999
30
23.170000
70
192
0
VERTEX
8
OBJECT__41
10
12.923000
20
75.014000
30
22.646000
70
192
0
VERTEX
8
OBJECT__41
10
18.239000
20
75.101997
30
18.430000
70
192
0
VERTEX
8
OBJECT__41
10
16.686001
20
75.358002
30
19.778000
70
192
0
VERTEX
8
OBJECT__41
10
20.719999
20
75.480003
30
15.258000
70
192
0
VERTEX
8
OBJECT__41
10
20.808001
20
75.177002
30
15.312000
70
192
0
VERTEX
8
OBJECT__41
10
18.018999
20
75.578003
30
18.131001
70
192
0
VERTEX
8
OBJECT__41
10
12.836000
20
75.463997
30
22.275000
70
192
0
VERTEX
8
OBJECT__41
10
20.500999
20
75.657997
30
15.110000
70
192
0
VERTEX
8
OBJECT__41
10
0.157000
20
75.367996
30
25.846001
70
192
0
VERTEX
8
OBJECT__41
10
11.556000
20
75.448997
30
22.823999
70
192
0
VERTEX
8
OBJECT__41
10
6.628000
20
75.391998
30
24.938999
70
192
0
VERTEX
8
OBJECT__41
10
0.160000
20
74.931000
30
26.205999
70
192
0
VERTEX
8
OBJECT__41
10
0
20
0
30
0
70
128
71
1
72
2
73
3
0
VERTEX
8
OBJECT__41
10
0
20
0
30
0
70
128
71
3
72
4
73
1
0
VERTEX
8
OBJECT__41
10
0
20
0
30
0
70
128
71
5
72
3
73
2
0
VERTEX
8
OBJECT__41
10
0
20
0
30
0
70
128
71
2
72
6
73
5
0
VERTEX
8
OBJECT__41
10
0
20
0
30
0
70
128
71
7
72
8
73
9
0
VERTEX
8
OBJECT__41
10
0
20
0
30
0
70
128
71
5
72
6
73
7
0
VERTEX
8
OBJECT__41
10
0
20
0
30
0
70
128
71
10
72
9
73
8
0
VERTEX
8
OBJECT__41
10
0
20
0
30
0
70
128
71
8
72
11
73
10
0
VERTEX
8
OBJECT__41
10
0
20
0
30
0
70
128
71
9
72
12
73
13
0
VERTEX
8
OBJECT__41
10
0
20
0
30
0
70
128
71
10
72
14
73
12
0
VERTEX
8
OBJECT__41
10
0
20
0
30
0
70
128
71
12
72
9
73
10
0
VERTEX
8
OBJECT__41
10
0
20
0
30
0
70
128
71
13
72
5
73
9
0
VERTEX
8
OBJECT__41
10
0
20
0
30
0
70
128
71
15
72
4
73
3
0
VERTEX
8
OBJECT__41
10
0
20
0
30
0
70
128
71
5
72
16
73
17
0
VERTEX
8
OBJECT__41
10
0
20
0
30
0
70
128
71
17
72
3
73
5
0
VERTEX
8
OBJECT__41
10
0
20
0
30
0
70
128
71
3
72
17
73
15
0
VERTEX
8
OBJECT__41
10
0
20
0
30
0
70
128
71
13
72
16
73
5
0
VERTEX
8
OBJECT__41
10
0
20
0
30
0
70
128
71
9
72
5
73
7
0
VERTEX
8
OBJECT__41
10
0
20
0
30
0
70
128
71
1
72
18
73
2
0
SEQEND
8
OBJECT__41
0
POLYLINE
8
OBJECT__42
66
1
70
64
71
46
72
46
62
253
0
VERTEX
8
OBJECT__42
10
-0.065000
20
70.872002
30
91.030998
70
192
0
VERTEX
8
OBJECT__42
10
0.145000
20
72.547997
30
26.860001
70
192
0
VERTEX
8
OBJECT__42
10
0.040000
20
72.551003
30
26.860001
70
192
0
VERTEX
8
OBJECT__42
10
2.883000
20
69.911003
30
91.021004
70
192
0
VERTEX
8
OBJECT__42
10
2.804000
20
71.650002
30
26.757000
70
192
0
VERTEX
8
OBJECT__42
10
3.384000
20
70.901001
30
26.726999
70
192
0
VERTEX
8
OBJECT__42
10
4.935000
20
67.586998
30
26.759001
70
192
0
VERTEX
8
OBJECT__42
10
4.618000
20
69.306999
30
26.663000
70
192
0
VERTEX
8
OBJECT__42
10
4.444000
20
68.033997
30
91.001999
70
192
0
VERTEX
8
OBJECT__42
10
4.935000
20
65.872002
30
90.978996
70
192
0
VERTEX
8
OBJECT__42
10
4.926000
20
67.556000
30
26.759001
70
192
0
VERTEX
8
OBJECT__42
10
3.389000
20
69.302002
30
91.014999
70
192
0
VERTEX
8
OBJECT__42
10
3.440000
20
64.268997
30
26.893000
70
192
0
VERTEX
8
OBJECT__42
10
4.146000
20
64.856003
30
26.819000
70
192
0
VERTEX
8
OBJECT__42
10
4.091000
20
63.094002
30
90.862000
70
192
0
VERTEX
8
OBJECT__42
10
1.793000
20
62.902000
30
27.065001
70
192
0
VERTEX
8
OBJECT__42
10
3.371000
20
62.506001
30
90.837997
70
192
0
VERTEX
8
OBJECT__42
10
1.831000
20
61.249001
30
90.785004
70
192
0
VERTEX
8
OBJECT__42
10
0.041000
20
62.542999
30
27.125999
70
192
0
VERTEX
8
OBJECT__42
10
0.147000
20
62.547001
30
27.125999
70
192
0
VERTEX
8
OBJECT__42
10
0.158000
20
62.547001
30
27.125000
70
192
0
VERTEX
8
OBJECT__42
10
0.168000
20
62.548000
30
27.125000
70
192
0
VERTEX
8
OBJECT__42
10
-0.065000
20
60.875999
30
90.768997
70
192
0
VERTEX
8
OBJECT__42
10
-0.065000
20
62.542000
30
27.125999
70
192
0
VERTEX
8
OBJECT__42
10
-3.013000
20
61.835999
30
90.809998
70
192
0
VERTEX
8
OBJECT__42
10
-0.298000
20
62.548000
30
27.125000
70
192
0
VERTEX
8
OBJECT__42
10
-0.288000
20
62.547001
30
27.125000
70
192
0
VERTEX
8
OBJECT__42
10
-0.277000
20
62.547001
30
27.125999
70
192
0
VERTEX
8
OBJECT__42
10
-0.171000
20
62.542999
30
27.125999
70
192
0
VERTEX
8
OBJECT__42
10
-2.951000
20
63.464001
30
26.978001
70
192
0
VERTEX
8
OBJECT__42
10
-3.519000
20
62.445000
30
90.834999
70
192
0
VERTEX
8
OBJECT__42
10
-4.574000
20
63.712002
30
90.888000
70
192
0
VERTEX
8
OBJECT__42
10
-5.065000
20
65.872002
30
90.978996
70
192
0
VERTEX
8
OBJECT__42
10
-5.060000
20
67.554001
30
26.757999
70
192
0
VERTEX
8
OBJECT__42
10
-4.792000
20
65.922997
30
26.754000
70
192
0
VERTEX
8
OBJECT__42
10
-3.532000
20
64.239998
30
26.907000
70
192
0
VERTEX
8
OBJECT__42
10
-5.065000
20
67.586998
30
26.759001
70
192
0
VERTEX
8
OBJECT__42
10
-4.221000
20
68.651001
30
91.008003
70
192
0
VERTEX
8
OBJECT__42
10
-3.501000
20
69.239998
30
91.014000
70
192
0
VERTEX
8
OBJECT__42
10
-3.540000
20
70.860001
30
26.716000
70
192
0
VERTEX
8
OBJECT__42
10
-4.299000
20
70.216003
30
26.669001
70
192
0
VERTEX
8
OBJECT__42
10
-2.009000
20
72.160004
30
26.811001
70
192
0
VERTEX
8
OBJECT__42
10
-1.961000
20
70.499001
30
91.027000
70
192
0
VERTEX
8
OBJECT__42
10
-0.283000
20
72.547997
30
26.860001
70
192
0
VERTEX
8
OBJECT__42
10
-0.174000
20
72.551003
30
26.860001
70
192
0
VERTEX
8
OBJECT__42
10
-0.065000
20
72.553001
30
26.860001
70
192
0
VERTEX
8
OBJECT__42
10
0
20
0
30
0
70
128
71
1
72
2
73
3
0
VERTEX
8
OBJECT__42
10
0
20
0
30
0
70
128
71
4
72
5
73
2
0
VERTEX
8
OBJECT__42
10
0
20
0
30
0
70
128
71
4
72
6
73
5
0
VERTEX
8
OBJECT__42
10
0
20
0
30
0
70
128
71
4
72
7
73
8
0
VERTEX
8
OBJECT__42
10
0
20
0
30
0
70
128
71
8
72
6
73
4
0
VERTEX
8
OBJECT__42
10
0
20
0
30
0
70
128
71
9
72
10
73
11
0
VERTEX
8
OBJECT__42
10
0
20
0
30
0
70
128
71
7
72
4
73
12
0
VERTEX
8
OBJECT__42
10
0
20
0
30
0
70
128
71
12
72
9
73
7
0
VERTEX
8
OBJECT__42
10
0
20
0
30
0
70
128
71
11
72
7
73
9
0
VERTEX
8
OBJECT__42
10
0
20
0
30
0
70
128
71
2
72
1
73
4
0
VERTEX
8
OBJECT__42
10
0
20
0
30
0
70
128
71
10
72
13
73
14
0
VERTEX
8
OBJECT__42
10
0
20
0
30
0
70
128
71
10
72
15
73
16
0
VERTEX
8
OBJECT__42
10
0
20
0
30
0
70
128
71
16
72
13
73
10
0
VERTEX
8
OBJECT__42
10
0
20
0
30
0
70
128
71
16
72
17
73
18
0
VERTEX
8
OBJECT__42
10
0
20
0
30
0
70
128
71
16
72
15
73
17
0
VERTEX
8
OBJECT__42
10
0
20
0
30
0
70
128
71
18
72
19
73
20
0
VERTEX
8
OBJECT__42
10
0
20
0
30
0
70
128
71
21
72
22
73
18
0
VERTEX
8
OBJECT__42
10
0
20
0
30
0
70
128
71
20
72
21
73
18
0
VERTEX
8
OBJECT__42
10
0
20
0
30
0
70
128
71
23
72
24
73
19
0
VERTEX
8
OBJECT__42
10
0
20
0
30
0
70
128
71
19
72
18
73
23
0
VERTEX
8
OBJECT__42
10
0
20
0
30
0
70
128
71
18
72
22
73
16
0
VERTEX
8
OBJECT__42
10
0
20
0
30
0
70
128
71
23
72
25
73
26
0
VERTEX
8
OBJECT__42
10
0
20
0
30
0
70
128
71
26
72
27
73
23
0
VERTEX
8
OBJECT__42
10
0
20
0
30
0
70
128
71
27
72
28
73
23
0
VERTEX
8
OBJECT__42
10
0
20
0
30
0
70
128
71
28
72
29
73
23
0
VERTEX
8
OBJECT__42
10
0
20
0
30
0
70
128
71
30
72
26
73
25
0
VERTEX
8
OBJECT__42
10
0
20
0
30
0
70
128
71
25
72
31
73
30
0
VERTEX
8
OBJECT__42
10
0
20
0
30
0
70
128
71
31
72
32
73
30
0
VERTEX
8
OBJECT__42
10
0
20
0
30
0
70
128
71
33
72
34
73
35
0
VERTEX
8
OBJECT__42
10
0
20
0
30
0
70
128
71
35
72
36
73
33
0
VERTEX
8
OBJECT__42
10
0
20
0
30
0
70
128
71
36
72
30
73
33
0
VERTEX
8
OBJECT__42
10
0
20
0
30
0
70
128
71
32
72
33
73
30
0
VERTEX
8
OBJECT__42
10
0
20
0
30
0
70
128
71
33
72
37
73
34
0
VERTEX
8
OBJECT__42
10
0
20
0
30
0
70
128
71
33
72
38
73
37
0
VERTEX
8
OBJECT__42
10
0
20
0
30
0
70
128
71
39
72
40
73
41
0
VERTEX
8
OBJECT__42
10
0
20
0
30
0
70
128
71
39
72
42
73
40
0
VERTEX
8
OBJECT__42
10
0
20
0
30
0
70
128
71
42
72
39
73
43
0
VERTEX
8
OBJECT__42
10
0
20
0
30
0
70
128
71
43
72
44
73
42
0
VERTEX
8
OBJECT__42
10
0
20
0
30
0
70
128
71
1
72
45
73
44
0
VERTEX
8
OBJECT__42
10
0
20
0
30
0
70
128
71
1
72
46
73
45
0
VERTEX
8
OBJECT__42
10
0
20
0
30
0
70
128
71
44
72
43
73
1
0
VERTEX
8
OBJECT__42
10
0
20
0
30
0
70
128
71
41
72
37
73
39
0
VERTEX
8
OBJECT__42
10
0
20
0
30
0
70
128
71
38
72
39
73
37
0
VERTEX
8
OBJECT__42
10
0
20
0
30
0
70
128
71
29
72
24
73
23
0
VERTEX
8
OBJECT__42
10
0
20
0
30
0
70
128
71
14
72
11
73
10
0
VERTEX
8
OBJECT__42
10
0
20
0
30
0
70
128
71
3
72
46
73
1
0
SEQEND
8
OBJECT__42
0
POLYLINE
8
OBJECT__43
66
1
70
64
71
20
72
19
62
253
0
VERTEX
8
OBJECT__43
10
3.387000
20
62.448002
30
91.183998
70
192
0
VERTEX
8
OBJECT__43
10
3.170000
20
62.723999
30
91.342003
70
192
0
VERTEX
8
OBJECT__43
10
3.165000
20
62.719002
30
91.342003
70
192
0
VERTEX
8
OBJECT__43
10
3.214000
20
62.771000
30
91.344002
70
192
0
VERTEX
8
OBJECT__43
10
3.703000
20
63.390999
30
91.371002
70
192
0
VERTEX
8
OBJECT__43
10
3.141000
20
62.695000
30
91.339996
70
192
0
VERTEX
8
OBJECT__43
10
4.788000
20
65.862999
30
91.332001
70
192
0
VERTEX
8
OBJECT__43
10
4.435000
20
65.821999
30
91.476997
70
192
0
VERTEX
8
OBJECT__43
10
4.435000
20
65.859001
30
91.478996
70
192
0
VERTEX
8
OBJECT__43
10
-0.031000
20
61.354000
30
91.281998
70
192
0
VERTEX
8
OBJECT__43
10
-0.065000
20
61.354000
30
91.281998
70
192
0
VERTEX
8
OBJECT__43
10
-0.065000
20
61.009998
30
91.124001
70
192
0
VERTEX
8
OBJECT__43
10
-0.065000
20
61.008999
30
91.120003
70
192
0
VERTEX
8
OBJECT__43
10
0.843000
20
61.445000
30
91.286003
70
192
0
VERTEX
8
OBJECT__43
10
3.135000
20
62.691002
30
91.339996
70
192
0
VERTEX
8
OBJECT__43
10
1.831000
20
61.249001
30
90.785004
70
192
0
VERTEX
8
OBJECT__43
10
-0.065000
20
60.875999
30
90.768997
70
192
0
VERTEX
8
OBJECT__43
10
4.091000
20
63.094002
30
90.862000
70
192
0
VERTEX
8
OBJECT__43
10
4.935000
20
65.872002
30
90.978996
70
192
0
VERTEX
8
OBJECT__43
10
3.371000
20
62.506001
30
90.837997
70
192
0
VERTEX
8
OBJECT__43
10
0
20
0
30
0
70
128
71
1
72
2
73
3
0
VERTEX
8
OBJECT__43
10
0
20
0
30
0
70
128
71
1
72
4
73
2
0
VERTEX
8
OBJECT__43
10
0
20
0
30
0
70
128
71
1
72
5
73
4
0
VERTEX
8
OBJECT__43
10
0
20
0
30
0
70
128
71
3
72
6
73
1
0
VERTEX
8
OBJECT__43
10
0
20
0
30
0
70
128
71
7
72
8
73
5
0
VERTEX
8
OBJECT__43
10
0
20
0
30
0
70
128
71
7
72
9
73
8
0
VERTEX
8
OBJECT__43
10
0
20
0
30
0
70
128
71
5
72
1
73
7
0
VERTEX
8
OBJECT__43
10
0
20
0
30
0
70
128
71
10
72
11
73
12
0
VERTEX
8
OBJECT__43
10
0
20
0
30
0
70
128
71
13
72
14
73
10
0
VERTEX
8
OBJECT__43
10
0
20
0
30
0
70
128
71
1
72
15
73
14
0
VERTEX
8
OBJECT__43
10
0
20
0
30
0
70
128
71
14
72
13
73
1
0
VERTEX
8
OBJECT__43
10
0
20
0
30
0
70
128
71
1
72
13
73
16
0
VERTEX
8
OBJECT__43
10
0
20
0
30
0
70
128
71
13
72
17
73
16
0
VERTEX
8
OBJECT__43
10
0
20
0
30
0
70
128
71
7
72
1
73
18
0
VERTEX
8
OBJECT__43
10
0
20
0
30
0
70
128
71
18
72
19
73
7
0
VERTEX
8
OBJECT__43
10
0
20
0
30
0
70
128
71
1
72
20
73
18
0
VERTEX
8
OBJECT__43
10
0
20
0
30
0
70
128
71
16
72
20
73
1
0
VERTEX
8
OBJECT__43
10
0
20
0
30
0
70
128
71
12
72
13
73
10
0
VERTEX
8
OBJECT__43
10
0
20
0
30
0
70
128
71
6
72
15
73
1
0
SEQEND
8
OBJECT__43
0
POLYLINE
8
OBJECT__44
66
1
70
64
71
17
72
16
62
253
0
VERTEX
8
OBJECT__44
10
-4.918000
20
65.862999
30
91.332001
70
192
0
VERTEX
8
OBJECT__44
10
-4.574000
20
63.712002
30
90.888000
70
192
0
VERTEX
8
OBJECT__44
10
-3.517000
20
62.448002
30
91.183998
70
192
0
VERTEX
8
OBJECT__44
10
-5.065000
20
65.872002
30
90.978996
70
192
0
VERTEX
8
OBJECT__44
10
-0.065000
20
61.008999
30
91.120003
70
192
0
VERTEX
8
OBJECT__44
10
-3.013000
20
61.835999
30
90.809998
70
192
0
VERTEX
8
OBJECT__44
10
-3.519000
20
62.445000
30
90.834999
70
192
0
VERTEX
8
OBJECT__44
10
-0.250000
20
61.356998
30
91.281998
70
192
0
VERTEX
8
OBJECT__44
10
-2.860000
20
62.326000
30
91.323997
70
192
0
VERTEX
8
OBJECT__44
10
-0.075000
20
61.354000
30
91.281998
70
192
0
VERTEX
8
OBJECT__44
10
-0.065000
20
61.009998
30
91.124001
70
192
0
VERTEX
8
OBJECT__44
10
-0.065000
20
61.354000
30
91.281998
70
192
0
VERTEX
8
OBJECT__44
10
-4.378000
20
64.567001
30
91.421997
70
192
0
VERTEX
8
OBJECT__44
10
-4.565000
20
65.785004
30
91.474998
70
192
0
VERTEX
8
OBJECT__44
10
-3.156000
20
62.763000
30
91.343002
70
192
0
VERTEX
8
OBJECT__44
10
-4.565000
20
65.859001
30
91.478996
70
192
0
VERTEX
8
OBJECT__44
10
-0.065000
20
60.875999
30
90.768997
70
192
0
VERTEX
8
OBJECT__44
10
0
20
0
30
0
70
128
71
2
72
3
73
1
0
VERTEX
8
OBJECT__44
10
0
20
0
30
0
70
128
71
1
72
4
73
2
0
VERTEX
8
OBJECT__44
10
0
20
0
30
0
70
128
71
5
72
3
73
6
0
VERTEX
8
OBJECT__44
10
0
20
0
30
0
70
128
71
3
72
7
73
6
0
VERTEX
8
OBJECT__44
10
0
20
0
30
0
70
128
71
5
72
8
73
9
0
VERTEX
8
OBJECT__44
10
0
20
0
30
0
70
128
71
10
72
5
73
11
0
VERTEX
8
OBJECT__44
10
0
20
0
30
0
70
128
71
11
72
12
73
10
0
VERTEX
8
OBJECT__44
10
0
20
0
30
0
70
128
71
10
72
8
73
5
0
VERTEX
8
OBJECT__44
10
0
20
0
30
0
70
128
71
9
72
3
73
5
0
VERTEX
8
OBJECT__44
10
0
20
0
30
0
70
128
71
1
72
13
73
14
0
VERTEX
8
OBJECT__44
10
0
20
0
30
0
70
128
71
3
72
15
73
13
0
VERTEX
8
OBJECT__44
10
0
20
0
30
0
70
128
71
13
72
1
73
3
0
VERTEX
8
OBJECT__44
10
0
20
0
30
0
70
128
71
14
72
16
73
1
0
VERTEX
8
OBJECT__44
10
0
20
0
30
0
70
128
71
9
72
15
73
3
0
VERTEX
8
OBJECT__44
10
0
20
0
30
0
70
128
71
6
72
17
73
5
0
VERTEX
8
OBJECT__44
10
0
20
0
30
0
70
128
71
2
72
7
73
3
0
SEQEND
8
OBJECT__44
0
POLYLINE
8
OBJECT__45
66
1
70
64
71
20
72
19
62
253
0
VERTEX
8
OBJECT__45
10
-3.517000
20
69.279999
30
91.362000
70
192
0
VERTEX
8
OBJECT__45
10
-3.300000
20
68.996002
30
91.505997
70
192
0
VERTEX
8
OBJECT__45
10
-3.295000
20
69.000999
30
91.505997
70
192
0
VERTEX
8
OBJECT__45
10
-3.344000
20
68.948997
30
91.505997
70
192
0
VERTEX
8
OBJECT__45
10
-3.833000
20
68.329002
30
91.500000
70
192
0
VERTEX
8
OBJECT__45
10
-3.271000
20
69.025002
30
91.505997
70
192
0
VERTEX
8
OBJECT__45
10
-4.918000
20
65.862999
30
91.332001
70
192
0
VERTEX
8
OBJECT__45
10
-4.565000
20
65.894997
30
91.478996
70
192
0
VERTEX
8
OBJECT__45
10
-4.565000
20
65.859001
30
91.478996
70
192
0
VERTEX
8
OBJECT__45
10
-0.099000
20
70.367996
30
91.517998
70
192
0
VERTEX
8
OBJECT__45
10
-0.065000
20
70.367996
30
91.517998
70
192
0
VERTEX
8
OBJECT__45
10
-0.065000
20
70.719002
30
91.377998
70
192
0
VERTEX
8
OBJECT__45
10
-0.065000
20
70.721001
30
91.374001
70
192
0
VERTEX
8
OBJECT__45
10
-0.973000
20
70.276001
30
91.516998
70
192
0
VERTEX
8
OBJECT__45
10
-3.265000
20
69.028999
30
91.505997
70
192
0
VERTEX
8
OBJECT__45
10
-1.961000
20
70.499001
30
91.027000
70
192
0
VERTEX
8
OBJECT__45
10
-0.065000
20
70.872002
30
91.030998
70
192
0
VERTEX
8
OBJECT__45
10
-4.221000
20
68.651001
30
91.008003
70
192
0
VERTEX
8
OBJECT__45
10
-5.065000
20
65.872002
30
90.978996
70
192
0
VERTEX
8
OBJECT__45
10
-3.501000
20
69.239998
30
91.014000
70
192
0
VERTEX
8
OBJECT__45
10
0
20
0
30
0
70
128
71
1
72
2
73
3
0
VERTEX
8
OBJECT__45
10
0
20
0
30
0
70
128
71
1
72
4
73
2
0
VERTEX
8
OBJECT__45
10
0
20
0
30
0
70
128
71
1
72
5
73
4
0
VERTEX
8
OBJECT__45
10
0
20
0
30
0
70
128
71
3
72
6
73
1
0
VERTEX
8
OBJECT__45
10
0
20
0
30
0
70
128
71
7
72
8
73
5
0
VERTEX
8
OBJECT__45
10
0
20
0
30
0
70
128
71
7
72
9
73
8
0
VERTEX
8
OBJECT__45
10
0
20
0
30
0
70
128
71
5
72
1
73
7
0
VERTEX
8
OBJECT__45
10
0
20
0
30
0
70
128
71
10
72
11
73
12
0
VERTEX
8
OBJECT__45
10
0
20
0
30
0
70
128
71
13
72
14
73
10
0
VERTEX
8
OBJECT__45
10
0
20
0
30
0
70
128
71
1
72
15
73
14
0
VERTEX
8
OBJECT__45
10
0
20
0
30
0
70
128
71
14
72
13
73
1
0
VERTEX
8
OBJECT__45
10
0
20
0
30
0
70
128
71
1
72
13
73
16
0
VERTEX
8
OBJECT__45
10
0
20
0
30
0
70
128
71
13
72
17
73
16
0
VERTEX
8
OBJECT__45
10
0
20
0
30
0
70
128
71
7
72
1
73
18
0
VERTEX
8
OBJECT__45
10
0
20
0
30
0
70
128
71
18
72
19
73
7
0
VERTEX
8
OBJECT__45
10
0
20
0
30
0
70
128
71
1
72
20
73
18
0
VERTEX
8
OBJECT__45
10
0
20
0
30
0
70
128
71
16
72
20
73
1
0
VERTEX
8
OBJECT__45
10
0
20
0
30
0
70
128
71
12
72
13
73
10
0
VERTEX
8
OBJECT__45
10
0
20
0
30
0
70
128
71
6
72
15
73
1
0
SEQEND
8
OBJECT__45
0
POLYLINE
8
OBJECT__46
66
1
70
64
71
17
72
16
62
253
0
VERTEX
8
OBJECT__46
10
3.387000
20
69.279999
30
91.362000
70
192
0
VERTEX
8
OBJECT__46
10
4.935000
20
65.872002
30
90.978996
70
192
0
VERTEX
8
OBJECT__46
10
4.444000
20
68.033997
30
91.001999
70
192
0
VERTEX
8
OBJECT__46
10
4.789000
20
65.862999
30
91.332001
70
192
0
VERTEX
8
OBJECT__46
10
3.389000
20
69.302002
30
91.014999
70
192
0
VERTEX
8
OBJECT__46
10
-0.065000
20
70.721001
30
91.374001
70
192
0
VERTEX
8
OBJECT__46
10
2.883000
20
69.911003
30
91.021004
70
192
0
VERTEX
8
OBJECT__46
10
0.120000
20
70.363998
30
91.517998
70
192
0
VERTEX
8
OBJECT__46
10
2.730000
20
69.394997
30
91.509003
70
192
0
VERTEX
8
OBJECT__46
10
-0.055000
20
70.367996
30
91.517998
70
192
0
VERTEX
8
OBJECT__46
10
-0.065000
20
70.719002
30
91.377998
70
192
0
VERTEX
8
OBJECT__46
10
-0.065000
20
70.367996
30
91.517998
70
192
0
VERTEX
8
OBJECT__46
10
4.248000
20
67.151001
30
91.489998
70
192
0
VERTEX
8
OBJECT__46
10
4.435000
20
65.932999
30
91.478996
70
192
0
VERTEX
8
OBJECT__46
10
3.026000
20
68.957001
30
91.505997
70
192
0
VERTEX
8
OBJECT__46
10
4.435000
20
65.859001
30
91.478996
70
192
0
VERTEX
8
OBJECT__46
10
-0.065000
20
70.872002
30
91.030998
70
192
0
VERTEX
8
OBJECT__46
10
0
20
0
30
0
70
128
71
1
72
2
73
3
0
VERTEX
8
OBJECT__46
10
0
20
0
30
0
70
128
71
2
72
1
73
4
0
VERTEX
8
OBJECT__46
10
0
20
0
30
0
70
128
71
3
72
5
73
1
0
VERTEX
8
OBJECT__46
10
0
20
0
30
0
70
128
71
6
72
1
73
7
0
VERTEX
8
OBJECT__46
10
0
20
0
30
0
70
128
71
1
72
5
73
7
0
VERTEX
8
OBJECT__46
10
0
20
0
30
0
70
128
71
6
72
8
73
9
0
VERTEX
8
OBJECT__46
10
0
20
0
30
0
70
128
71
10
72
6
73
11
0
VERTEX
8
OBJECT__46
10
0
20
0
30
0
70
128
71
11
72
12
73
10
0
VERTEX
8
OBJECT__46
10
0
20
0
30
0
70
128
71
10
72
8
73
6
0
VERTEX
8
OBJECT__46
10
0
20
0
30
0
70
128
71
9
72
1
73
6
0
VERTEX
8
OBJECT__46
10
0
20
0
30
0
70
128
71
4
72
13
73
14
0
VERTEX
8
OBJECT__46
10
0
20
0
30
0
70
128
71
1
72
15
73
13
0
VERTEX
8
OBJECT__46
10
0
20
0
30
0
70
128
71
13
72
4
73
1
0
VERTEX
8
OBJECT__46
10
0
20
0
30
0
70
128
71
14
72
16
73
4
0
VERTEX
8
OBJECT__46
10
0
20
0
30
0
70
128
71
9
72
15
73
1
0
VERTEX
8
OBJECT__46
10
0
20
0
30
0
70
128
71
7
72
17
73
6
0
SEQEND
8
OBJECT__46
0
POLYLINE
8
OBJECT__47
66
1
70
64
71
18
72
16
62
253
0
VERTEX
8
OBJECT__47
10
-3.344000
20
68.948997
30
91.505997
70
192
0
VERTEX
8
OBJECT__47
10
-3.833000
20
68.329002
30
91.500000
70
192
0
VERTEX
8
OBJECT__47
10
-4.565000
20
65.894997
30
91.478996
70
192
0
VERTEX
8
OBJECT__47
10
-4.565000
20
65.859001
30
91.478996
70
192
0
VERTEX
8
OBJECT__47
10
3.026000
20
68.957001
30
91.505997
70
192
0
VERTEX
8
OBJECT__47
10
2.730000
20
69.394997
30
91.509003
70
192
0
VERTEX
8
OBJECT__47
10
-3.300000
20
68.996002
30
91.505997
70
192
0
VERTEX
8
OBJECT__47
10
-3.265000
20
69.028999
30
91.505997
70
192
0
VERTEX
8
OBJECT__47
10
-3.271000
20
69.025002
30
91.505997
70
192
0
VERTEX
8
OBJECT__47
10
-0.099000
20
70.367996
30
91.517998
70
192
0
VERTEX
8
OBJECT__47
10
-0.973000
20
70.276001
30
91.516998
70
192
0
VERTEX
8
OBJECT__47
10
0.120000
20
70.363998
30
91.517998
70
192
0
VERTEX
8
OBJECT__47
10
-3.295000
20
69.000999
30
91.505997
70
192
0
VERTEX
8
OBJECT__47
10
-0.065000
20
70.367996
30
91.517998
70
192
0
VERTEX
8
OBJECT__47
10
-0.055000
20
70.367996
30
91.517998
70
192
0
VERTEX
8
OBJECT__47
10
4.435000
20
65.932999
30
91.478996
70
192
0
VERTEX
8
OBJECT__47
10
4.248000
20
67.151001
30
91.489998
70
192
0
VERTEX
8
OBJECT__47
10
4.435000
20
65.859001
30
91.478996
70
192
0
VERTEX
8
OBJECT__47
10
0
20
0
30
0
70
128
71
1
72
2
73
3
0
VERTEX
8
OBJECT__47
10
0
20
0
30
0
70
128
71
4
72
5
73
6
0
VERTEX
8
OBJECT__47
10
0
20
0
30
0
70
128
71
4
72
7
73
1
0
VERTEX
8
OBJECT__47
10
0
20
0
30
0
70
128
71
4
72
8
73
9
0
VERTEX
8
OBJECT__47
10
0
20
0
30
0
70
128
71
4
72
10
73
11
0
VERTEX
8
OBJECT__47
10
0
20
0
30
0
70
128
71
6
72
12
73
4
0
VERTEX
8
OBJECT__47
10
0
20
0
30
0
70
128
71
4
72
13
73
7
0
VERTEX
8
OBJECT__47
10
0
20
0
30
0
70
128
71
9
72
13
73
4
0
VERTEX
8
OBJECT__47
10
0
20
0
30
0
70
128
71
4
72
14
73
10
0
VERTEX
8
OBJECT__47
10
0
20
0
30
0
70
128
71
12
72
15
73
4
0
VERTEX
8
OBJECT__47
10
0
20
0
30
0
70
128
71
15
72
14
73
4
0
VERTEX
8
OBJECT__47
10
0
20
0
30
0
70
128
71
4
72
16
73
17
0
VERTEX
8
OBJECT__47
10
0
20
0
30
0
70
128
71
11
72
8
73
4
0
VERTEX
8
OBJECT__47
10
0
20
0
30
0
70
128
71
4
72
18
73
16
0
VERTEX
8
OBJECT__47
10
0
20
0
30
0
70
128
71
17
72
5
73
4
0
VERTEX
8
OBJECT__47
10
0
20
0
30
0
70
128
71
3
72
4
73
1
0
SEQEND
8
OBJECT__47
0
POLYLINE
8
OBJECT__48
66
1
70
64
71
18
72
16
62
253
0
VERTEX
8
OBJECT__48
10
-4.565000
20
65.859001
30
91.478996
70
192
0
VERTEX
8
OBJECT__48
10
3.214000
20
62.771000
30
91.344002
70
192
0
VERTEX
8
OBJECT__48
10
3.703000
20
63.390999
30
91.371002
70
192
0
VERTEX
8
OBJECT__48
10
4.435000
20
65.821999
30
91.476997
70
192
0
VERTEX
8
OBJECT__48
10
-3.156000
20
62.763000
30
91.343002
70
192
0
VERTEX
8
OBJECT__48
10
-0.031000
20
61.354000
30
91.281998
70
192
0
VERTEX
8
OBJECT__48
10
0.843000
20
61.445000
30
91.286003
70
192
0
VERTEX
8
OBJECT__48
10
-2.860000
20
62.326000
30
91.323997
70
192
0
VERTEX
8
OBJECT__48
10
-0.250000
20
61.356998
30
91.281998
70
192
0
VERTEX
8
OBJECT__48
10
3.170000
20
62.723999
30
91.342003
70
192
0
VERTEX
8
OBJECT__48
10
3.135000
20
62.691002
30
91.339996
70
192
0
VERTEX
8
OBJECT__48
10
3.141000
20
62.695000
30
91.339996
70
192
0
VERTEX
8
OBJECT__48
10
-0.065000
20
61.354000
30
91.281998
70
192
0
VERTEX
8
OBJECT__48
10
-0.075000
20
61.354000
30
91.281998
70
192
0
VERTEX
8
OBJECT__48
10
-4.565000
20
65.785004
30
91.474998
70
192
0
VERTEX
8
OBJECT__48
10
-4.378000
20
64.567001
30
91.421997
70
192
0
VERTEX
8
OBJECT__48
10
3.165000
20
62.719002
30
91.342003
70
192
0
VERTEX
8
OBJECT__48
10
4.435000
20
65.859001
30
91.478996
70
192
0
VERTEX
8
OBJECT__48
10
0
20
0
30
0
70
128
71
1
72
2
73
3
0
VERTEX
8
OBJECT__48
10
0
20
0
30
0
70
128
71
3
72
4
73
1
0
VERTEX
8
OBJECT__48
10
0
20
0
30
0
70
128
71
5
72
6
73
7
0
VERTEX
8
OBJECT__48
10
0
20
0
30
0
70
128
71
5
72
8
73
9
0
VERTEX
8
OBJECT__48
10
0
20
0
30
0
70
128
71
1
72
10
73
2
0
VERTEX
8
OBJECT__48
10
0
20
0
30
0
70
128
71
1
72
11
73
12
0
VERTEX
8
OBJECT__48
10
0
20
0
30
0
70
128
71
5
72
13
73
6
0
VERTEX
8
OBJECT__48
10
0
20
0
30
0
70
128
71
9
72
14
73
5
0
VERTEX
8
OBJECT__48
10
0
20
0
30
0
70
128
71
11
72
15
73
16
0
VERTEX
8
OBJECT__48
10
0
20
0
30
0
70
128
71
1
72
17
73
10
0
VERTEX
8
OBJECT__48
10
0
20
0
30
0
70
128
71
12
72
17
73
1
0
VERTEX
8
OBJECT__48
10
0
20
0
30
0
70
128
71
14
72
13
73
5
0
VERTEX
8
OBJECT__48
10
0
20
0
30
0
70
128
71
11
72
1
73
15
0
VERTEX
8
OBJECT__48
10
0
20
0
30
0
70
128
71
16
72
5
73
11
0
VERTEX
8
OBJECT__48
10
0
20
0
30
0
70
128
71
7
72
11
73
5
0
VERTEX
8
OBJECT__48
10
0
20
0
30
0
70
128
71
4
72
18
73
1
0
SEQEND
8
OBJECT__48
0
ENDSEC
0
EOF
