999
Converted by 3D Exploration 
999
XDimension Software, LLC
999
http://www.xdsoft.com/explorer/
0
SECTION
2
HEADER
9
$ACADVER
1
AC1008
9
$UCSORG
10
0.0
20
0.0
30
0.0
9
$UCSXDIR
10
1.0
20
0.0
30
0.0
9
$TILEMODE
70
1
9
$UCSYDIR
10
0.0
20
1.0
30
0.0
9
$EXTMIN
10
-41.348000
20
-23.000000
30
-23.000000
9
$EXTMAX
10
96.763000
20
23.000000
30
149.181000
0
ENDSEC
0
SECTION
2
TABLES
0
TABLE
2
LTYPE
70
1
0
LTYPE
2
CONTINUOUS
70
64
3
Solid line
72
65
73
0
40
0.0
0
ENDTAB
0
TABLE
2
LAYER
70
68
0
LAYER
2
OBJECT__0
70
0
62
253
6
CONTINUOUS
0
LAYER
2
OBJECT__1
70
0
62
253
6
CONTINUOUS
0
LAYER
2
OBJECT__3
70
0
62
253
6
CONTINUOUS
0
LAYER
2
OBJECT__4
70
0
62
253
6
CONTINUOUS
0
LAYER
2
OBJECT__5
70
0
62
253
6
CONTINUOUS
0
LAYER
2
OBJECT__6
70
0
62
253
6
CONTINUOUS
0
LAYER
2
OBJECT__8
70
0
62
253
6
CONTINUOUS
0
LAYER
2
OBJECT__9
70
0
62
253
6
CONTINUOUS
0
LAYER
2
OBJECT__10
70
0
62
253
6
CONTINUOUS
0
LAYER
2
OBJECT__11
70
0
62
253
6
CONTINUOUS
0
LAYER
2
OBJECT__12
70
0
62
253
6
CONTINUOUS
0
LAYER
2
OBJECT__13
70
0
62
253
6
CONTINUOUS
0
LAYER
2
OBJECT__14
70
0
62
253
6
CONTINUOUS
0
LAYER
2
OBJECT__15
70
0
62
253
6
CONTINUOUS
0
LAYER
2
OBJECT__16
70
0
62
253
6
CONTINUOUS
0
LAYER
2
OBJECT__17
70
0
62
253
6
CONTINUOUS
0
LAYER
2
OBJECT__18
70
0
62
253
6
CONTINUOUS
0
LAYER
2
OBJECT__20
70
0
62
253
6
CONTINUOUS
0
LAYER
2
OBJECT__21
70
0
62
253
6
CONTINUOUS
0
LAYER
2
OBJECT__23
70
0
62
253
6
CONTINUOUS
0
LAYER
2
OBJECT__24
70
0
62
253
6
CONTINUOUS
0
LAYER
2
OBJECT__25
70
0
62
253
6
CONTINUOUS
0
LAYER
2
OBJECT__26
70
0
62
253
6
CONTINUOUS
0
LAYER
2
OBJECT__28
70
0
62
253
6
CONTINUOUS
0
LAYER
2
OBJECT__29
70
0
62
253
6
CONTINUOUS
0
LAYER
2
OBJECT__30
70
0
62
253
6
CONTINUOUS
0
LAYER
2
OBJECT__31
70
0
62
253
6
CONTINUOUS
0
LAYER
2
OBJECT__32
70
0
62
253
6
CONTINUOUS
0
LAYER
2
OBJECT__33
70
0
62
253
6
CONTINUOUS
0
LAYER
2
OBJECT__34
70
0
62
253
6
CONTINUOUS
0
LAYER
2
OBJECT__35
70
0
62
253
6
CONTINUOUS
0
LAYER
2
OBJECT__36
70
0
62
253
6
CONTINUOUS
0
LAYER
2
OBJECT__37
70
0
62
253
6
CONTINUOUS
0
LAYER
2
OBJECT__38
70
0
62
253
6
CONTINUOUS
0
LAYER
2
OBJECT__39
70
0
62
253
6
CONTINUOUS
0
LAYER
2
OBJECT__40
70
0
62
253
6
CONTINUOUS
0
LAYER
2
OBJECT__41
70
0
62
253
6
CONTINUOUS
0
LAYER
2
OBJECT__42
70
0
62
253
6
CONTINUOUS
0
LAYER
2
OBJECT__43
70
0
62
253
6
CONTINUOUS
0
LAYER
2
OBJECT__44
70
0
62
253
6
CONTINUOUS
0
LAYER
2
OBJECT__45
70
0
62
253
6
CONTINUOUS
0
LAYER
2
OBJECT__46
70
0
62
253
6
CONTINUOUS
0
LAYER
2
OBJECT__47
70
0
62
253
6
CONTINUOUS
0
LAYER
2
OBJECT__48
70
0
62
253
6
CONTINUOUS
0
LAYER
2
OBJECT__49
70
0
62
253
6
CONTINUOUS
0
LAYER
2
OBJECT__50
70
0
62
253
6
CONTINUOUS
0
LAYER
2
OBJECT__51
70
0
62
253
6
CONTINUOUS
0
LAYER
2
OBJECT__52
70
0
62
253
6
CONTINUOUS
0
LAYER
2
OBJECT__53
70
0
62
253
6
CONTINUOUS
0
LAYER
2
OBJECT__54
70
0
62
253
6
CONTINUOUS
0
LAYER
2
OBJECT__55
70
0
62
253
6
CONTINUOUS
0
LAYER
2
OBJECT__56
70
0
62
253
6
CONTINUOUS
0
LAYER
2
OBJECT__57
70
0
62
253
6
CONTINUOUS
0
LAYER
2
OBJECT__58
70
0
62
253
6
CONTINUOUS
0
LAYER
2
OBJECT__59
70
0
62
253
6
CONTINUOUS
0
LAYER
2
OBJECT__60
70
0
62
253
6
CONTINUOUS
0
LAYER
2
OBJECT__61
70
0
62
253
6
CONTINUOUS
0
LAYER
2
OBJECT__62
70
0
62
253
6
CONTINUOUS
0
LAYER
2
OBJECT__63
70
0
62
253
6
CONTINUOUS
0
LAYER
2
OBJECT__65
70
0
62
253
6
CONTINUOUS
0
LAYER
2
OBJECT__66
70
0
62
253
6
CONTINUOUS
0
LAYER
2
OBJECT__67
70
0
62
253
6
CONTINUOUS
0
ENDTAB
0
TABLE
2
STYLE
70
1
0
STYLE
2
STANDARD
70
0
40
0.0
41
1.0
50
0.0
71
0
42
0.2
3
txt
4
1
0
ENDTAB
0
TABLE
2
UCS
70
0
0
ENDTAB
0
ENDSEC
0
SECTION
2
ENTITIES
0
POLYLINE
8
OBJECT__0
66
1
70
64
71
32
72
32
62
253
0
VERTEX
8
OBJECT__0
10
88.263000
20
-11.800000
30
72.976997
70
192
0
VERTEX
8
OBJECT__0
10
95.579002
20
-11.800000
30
72.976997
70
192
0
VERTEX
8
OBJECT__0
10
95.579002
20
-10.631000
30
78.097000
70
192
0
VERTEX
8
OBJECT__0
10
88.263000
20
-9.546000
30
79.913002
70
192
0
VERTEX
8
OBJECT__0
10
88.263000
20
-3.646000
30
84.199997
70
192
0
VERTEX
8
OBJECT__0
10
95.579002
20
-7.357000
30
82.203003
70
192
0
VERTEX
8
OBJECT__0
10
95.579002
20
-9.324000
30
79.736000
70
192
0
VERTEX
8
OBJECT__0
10
95.579002
20
-2.626000
30
84.481003
70
192
0
VERTEX
8
OBJECT__0
10
95.579002
20
2.626000
30
84.481003
70
192
0
VERTEX
8
OBJECT__0
10
88.263000
20
3.646000
30
84.199997
70
192
0
VERTEX
8
OBJECT__0
10
95.579002
20
-3.564000
30
84.028999
70
192
0
VERTEX
8
OBJECT__0
10
95.579002
20
3.564000
30
84.028999
70
192
0
VERTEX
8
OBJECT__0
10
95.579002
20
7.357000
30
82.203003
70
192
0
VERTEX
8
OBJECT__0
10
88.263000
20
9.546000
30
79.913002
70
192
0
VERTEX
8
OBJECT__0
10
88.263000
20
11.800000
30
72.976997
70
192
0
VERTEX
8
OBJECT__0
10
95.579002
20
10.631000
30
78.097000
70
192
0
VERTEX
8
OBJECT__0
10
95.579002
20
9.324000
30
79.736000
70
192
0
VERTEX
8
OBJECT__0
10
95.579002
20
11.800000
30
72.976997
70
192
0
VERTEX
8
OBJECT__0
10
95.579002
20
10.631000
30
67.857002
70
192
0
VERTEX
8
OBJECT__0
10
88.263000
20
9.546000
30
66.041000
70
192
0
VERTEX
8
OBJECT__0
10
88.263000
20
3.646000
30
61.755001
70
192
0
VERTEX
8
OBJECT__0
10
95.579002
20
7.357000
30
63.751999
70
192
0
VERTEX
8
OBJECT__0
10
95.579002
20
9.324000
30
66.218002
70
192
0
VERTEX
8
OBJECT__0
10
88.263000
20
-3.646000
30
61.755001
70
192
0
VERTEX
8
OBJECT__0
10
95.579002
20
2.626000
30
61.473000
70
192
0
VERTEX
8
OBJECT__0
10
95.579002
20
-2.626000
30
61.473000
70
192
0
VERTEX
8
OBJECT__0
10
95.579002
20
3.564000
30
61.924999
70
192
0
VERTEX
8
OBJECT__0
10
95.579002
20
-3.564000
30
61.924999
70
192
0
VERTEX
8
OBJECT__0
10
95.579002
20
-7.357000
30
63.751999
70
192
0
VERTEX
8
OBJECT__0
10
88.263000
20
-9.546000
30
66.041000
70
192
0
VERTEX
8
OBJECT__0
10
95.579002
20
-10.631000
30
67.857002
70
192
0
VERTEX
8
OBJECT__0
10
95.579002
20
-9.324000
30
66.218002
70
192
0
VERTEX
8
OBJECT__0
10
0
20
0
30
0
70
128
71
1
72
2
73
3
0
VERTEX
8
OBJECT__0
10
0
20
0
30
0
70
128
71
3
72
4
73
1
0
VERTEX
8
OBJECT__0
10
0
20
0
30
0
70
128
71
5
72
4
73
6
0
VERTEX
8
OBJECT__0
10
0
20
0
30
0
70
128
71
4
72
7
73
6
0
VERTEX
8
OBJECT__0
10
0
20
0
30
0
70
128
71
5
72
8
73
9
0
VERTEX
8
OBJECT__0
10
0
20
0
30
0
70
128
71
9
72
10
73
5
0
VERTEX
8
OBJECT__0
10
0
20
0
30
0
70
128
71
5
72
11
73
8
0
VERTEX
8
OBJECT__0
10
0
20
0
30
0
70
128
71
10
72
12
73
13
0
VERTEX
8
OBJECT__0
10
0
20
0
30
0
70
128
71
13
72
14
73
10
0
VERTEX
8
OBJECT__0
10
0
20
0
30
0
70
128
71
15
72
14
73
16
0
VERTEX
8
OBJECT__0
10
0
20
0
30
0
70
128
71
14
72
17
73
16
0
VERTEX
8
OBJECT__0
10
0
20
0
30
0
70
128
71
15
72
18
73
19
0
VERTEX
8
OBJECT__0
10
0
20
0
30
0
70
128
71
19
72
20
73
15
0
VERTEX
8
OBJECT__0
10
0
20
0
30
0
70
128
71
21
72
20
73
22
0
VERTEX
8
OBJECT__0
10
0
20
0
30
0
70
128
71
20
72
23
73
22
0
VERTEX
8
OBJECT__0
10
0
20
0
30
0
70
128
71
24
72
21
73
25
0
VERTEX
8
OBJECT__0
10
0
20
0
30
0
70
128
71
25
72
26
73
24
0
VERTEX
8
OBJECT__0
10
0
20
0
30
0
70
128
71
21
72
27
73
25
0
VERTEX
8
OBJECT__0
10
0
20
0
30
0
70
128
71
24
72
28
73
29
0
VERTEX
8
OBJECT__0
10
0
20
0
30
0
70
128
71
29
72
30
73
24
0
VERTEX
8
OBJECT__0
10
0
20
0
30
0
70
128
71
1
72
30
73
31
0
VERTEX
8
OBJECT__0
10
0
20
0
30
0
70
128
71
30
72
32
73
31
0
VERTEX
8
OBJECT__0
10
0
20
0
30
0
70
128
71
31
72
2
73
1
0
VERTEX
8
OBJECT__0
10
0
20
0
30
0
70
128
71
29
72
32
73
30
0
VERTEX
8
OBJECT__0
10
0
20
0
30
0
70
128
71
26
72
28
73
24
0
VERTEX
8
OBJECT__0
10
0
20
0
30
0
70
128
71
22
72
27
73
21
0
VERTEX
8
OBJECT__0
10
0
20
0
30
0
70
128
71
19
72
23
73
20
0
VERTEX
8
OBJECT__0
10
0
20
0
30
0
70
128
71
16
72
18
73
15
0
VERTEX
8
OBJECT__0
10
0
20
0
30
0
70
128
71
13
72
17
73
14
0
VERTEX
8
OBJECT__0
10
0
20
0
30
0
70
128
71
9
72
12
73
10
0
VERTEX
8
OBJECT__0
10
0
20
0
30
0
70
128
71
6
72
11
73
5
0
VERTEX
8
OBJECT__0
10
0
20
0
30
0
70
128
71
3
72
7
73
4
0
SEQEND
8
OBJECT__0
0
POLYLINE
8
OBJECT__1
66
1
70
64
71
44
72
44
62
253
0
VERTEX
8
OBJECT__1
10
95.579002
20
-11.800000
30
72.976997
70
192
0
VERTEX
8
OBJECT__1
10
96.445000
20
-11.300000
30
72.976997
70
192
0
VERTEX
8
OBJECT__1
10
96.445000
20
-10.181000
30
77.879997
70
192
0
VERTEX
8
OBJECT__1
10
95.579002
20
-9.324000
30
79.736000
70
192
0
VERTEX
8
OBJECT__1
10
96.445000
20
-8.929000
30
79.449997
70
192
0
VERTEX
8
OBJECT__1
10
96.445000
20
-7.045000
30
81.811996
70
192
0
VERTEX
8
OBJECT__1
10
95.579002
20
-10.631000
30
78.097000
70
192
0
VERTEX
8
OBJECT__1
10
95.579002
20
-3.564000
30
84.028999
70
192
0
VERTEX
8
OBJECT__1
10
96.445000
20
-3.413000
30
83.560997
70
192
0
VERTEX
8
OBJECT__1
10
96.445000
20
-2.514000
30
83.994003
70
192
0
VERTEX
8
OBJECT__1
10
95.579002
20
-7.357000
30
82.203003
70
192
0
VERTEX
8
OBJECT__1
10
95.579002
20
2.626000
30
84.481003
70
192
0
VERTEX
8
OBJECT__1
10
95.579002
20
-2.626000
30
84.481003
70
192
0
VERTEX
8
OBJECT__1
10
95.579002
20
3.564000
30
84.028999
70
192
0
VERTEX
8
OBJECT__1
10
96.445000
20
3.413000
30
83.560997
70
192
0
VERTEX
8
OBJECT__1
10
96.445000
20
7.045000
30
81.811996
70
192
0
VERTEX
8
OBJECT__1
10
96.445000
20
2.514000
30
83.994003
70
192
0
VERTEX
8
OBJECT__1
10
95.579002
20
9.324000
30
79.736000
70
192
0
VERTEX
8
OBJECT__1
10
96.445000
20
8.929000
30
79.449997
70
192
0
VERTEX
8
OBJECT__1
10
96.445000
20
10.181000
30
77.879997
70
192
0
VERTEX
8
OBJECT__1
10
95.579002
20
7.357000
30
82.203003
70
192
0
VERTEX
8
OBJECT__1
10
95.579002
20
10.631000
30
78.097000
70
192
0
VERTEX
8
OBJECT__1
10
96.445000
20
11.300000
30
72.976997
70
192
0
VERTEX
8
OBJECT__1
10
95.579002
20
10.631000
30
67.857002
70
192
0
VERTEX
8
OBJECT__1
10
95.579002
20
11.800000
30
72.976997
70
192
0
VERTEX
8
OBJECT__1
10
95.579002
20
9.324000
30
66.218002
70
192
0
VERTEX
8
OBJECT__1
10
96.445000
20
8.929000
30
66.504997
70
192
0
VERTEX
8
OBJECT__1
10
96.445000
20
7.045000
30
64.142998
70
192
0
VERTEX
8
OBJECT__1
10
96.445000
20
10.181000
30
68.073997
70
192
0
VERTEX
8
OBJECT__1
10
95.579002
20
3.564000
30
61.924999
70
192
0
VERTEX
8
OBJECT__1
10
96.445000
20
3.413000
30
62.393002
70
192
0
VERTEX
8
OBJECT__1
10
96.445000
20
2.514000
30
61.960999
70
192
0
VERTEX
8
OBJECT__1
10
95.579002
20
7.357000
30
63.751999
70
192
0
VERTEX
8
OBJECT__1
10
95.579002
20
-2.626000
30
61.473000
70
192
0
VERTEX
8
OBJECT__1
10
95.579002
20
2.626000
30
61.473000
70
192
0
VERTEX
8
OBJECT__1
10
95.579002
20
-3.564000
30
61.924999
70
192
0
VERTEX
8
OBJECT__1
10
96.445000
20
-3.413000
30
62.393002
70
192
0
VERTEX
8
OBJECT__1
10
96.445000
20
-7.045000
30
64.142998
70
192
0
VERTEX
8
OBJECT__1
10
96.445000
20
-2.514000
30
61.960999
70
192
0
VERTEX
8
OBJECT__1
10
95.579002
20
-9.324000
30
66.218002
70
192
0
VERTEX
8
OBJECT__1
10
96.445000
20
-8.929000
30
66.504997
70
192
0
VERTEX
8
OBJECT__1
10
96.445000
20
-10.181000
30
68.073997
70
192
0
VERTEX
8
OBJECT__1
10
95.579002
20
-7.357000
30
63.751999
70
192
0
VERTEX
8
OBJECT__1
10
95.579002
20
-10.631000
30
67.857002
70
192
0
VERTEX
8
OBJECT__1
10
0
20
0
30
0
70
128
71
1
72
2
73
3
0
VERTEX
8
OBJECT__1
10
0
20
0
30
0
70
128
71
4
72
5
73
6
0
VERTEX
8
OBJECT__1
10
0
20
0
30
0
70
128
71
4
72
7
73
3
0
VERTEX
8
OBJECT__1
10
0
20
0
30
0
70
128
71
3
72
5
73
4
0
VERTEX
8
OBJECT__1
10
0
20
0
30
0
70
128
71
8
72
9
73
10
0
VERTEX
8
OBJECT__1
10
0
20
0
30
0
70
128
71
8
72
11
73
6
0
VERTEX
8
OBJECT__1
10
0
20
0
30
0
70
128
71
6
72
9
73
8
0
VERTEX
8
OBJECT__1
10
0
20
0
30
0
70
128
71
12
72
13
73
10
0
VERTEX
8
OBJECT__1
10
0
20
0
30
0
70
128
71
14
72
15
73
16
0
VERTEX
8
OBJECT__1
10
0
20
0
30
0
70
128
71
14
72
12
73
17
0
VERTEX
8
OBJECT__1
10
0
20
0
30
0
70
128
71
17
72
15
73
14
0
VERTEX
8
OBJECT__1
10
0
20
0
30
0
70
128
71
18
72
19
73
20
0
VERTEX
8
OBJECT__1
10
0
20
0
30
0
70
128
71
18
72
21
73
16
0
VERTEX
8
OBJECT__1
10
0
20
0
30
0
70
128
71
16
72
19
73
18
0
VERTEX
8
OBJECT__1
10
0
20
0
30
0
70
128
71
22
72
20
73
23
0
VERTEX
8
OBJECT__1
10
0
20
0
30
0
70
128
71
24
72
25
73
23
0
VERTEX
8
OBJECT__1
10
0
20
0
30
0
70
128
71
26
72
27
73
28
0
VERTEX
8
OBJECT__1
10
0
20
0
30
0
70
128
71
26
72
24
73
29
0
VERTEX
8
OBJECT__1
10
0
20
0
30
0
70
128
71
29
72
27
73
26
0
VERTEX
8
OBJECT__1
10
0
20
0
30
0
70
128
71
30
72
31
73
32
0
VERTEX
8
OBJECT__1
10
0
20
0
30
0
70
128
71
30
72
33
73
28
0
VERTEX
8
OBJECT__1
10
0
20
0
30
0
70
128
71
28
72
31
73
30
0
VERTEX
8
OBJECT__1
10
0
20
0
30
0
70
128
71
34
72
35
73
32
0
VERTEX
8
OBJECT__1
10
0
20
0
30
0
70
128
71
36
72
37
73
38
0
VERTEX
8
OBJECT__1
10
0
20
0
30
0
70
128
71
36
72
34
73
39
0
VERTEX
8
OBJECT__1
10
0
20
0
30
0
70
128
71
39
72
37
73
36
0
VERTEX
8
OBJECT__1
10
0
20
0
30
0
70
128
71
40
72
41
73
42
0
VERTEX
8
OBJECT__1
10
0
20
0
30
0
70
128
71
40
72
43
73
38
0
VERTEX
8
OBJECT__1
10
0
20
0
30
0
70
128
71
38
72
41
73
40
0
VERTEX
8
OBJECT__1
10
0
20
0
30
0
70
128
71
44
72
42
73
2
0
VERTEX
8
OBJECT__1
10
0
20
0
30
0
70
128
71
2
72
1
73
44
0
VERTEX
8
OBJECT__1
10
0
20
0
30
0
70
128
71
42
72
44
73
40
0
VERTEX
8
OBJECT__1
10
0
20
0
30
0
70
128
71
38
72
43
73
36
0
VERTEX
8
OBJECT__1
10
0
20
0
30
0
70
128
71
32
72
39
73
34
0
VERTEX
8
OBJECT__1
10
0
20
0
30
0
70
128
71
32
72
35
73
30
0
VERTEX
8
OBJECT__1
10
0
20
0
30
0
70
128
71
28
72
33
73
26
0
VERTEX
8
OBJECT__1
10
0
20
0
30
0
70
128
71
23
72
29
73
24
0
VERTEX
8
OBJECT__1
10
0
20
0
30
0
70
128
71
23
72
25
73
22
0
VERTEX
8
OBJECT__1
10
0
20
0
30
0
70
128
71
20
72
22
73
18
0
VERTEX
8
OBJECT__1
10
0
20
0
30
0
70
128
71
16
72
21
73
14
0
VERTEX
8
OBJECT__1
10
0
20
0
30
0
70
128
71
10
72
17
73
12
0
VERTEX
8
OBJECT__1
10
0
20
0
30
0
70
128
71
10
72
13
73
8
0
VERTEX
8
OBJECT__1
10
0
20
0
30
0
70
128
71
6
72
11
73
4
0
VERTEX
8
OBJECT__1
10
0
20
0
30
0
70
128
71
3
72
7
73
1
0
SEQEND
8
OBJECT__1
0
POLYLINE
8
OBJECT__3
66
1
70
64
71
32
72
32
62
253
0
VERTEX
8
OBJECT__3
10
96.763000
20
-10.750000
30
72.976997
70
192
0
VERTEX
8
OBJECT__3
10
96.763000
20
-8.697000
30
79.295998
70
192
0
VERTEX
8
OBJECT__3
10
96.445000
20
-10.181000
30
77.879997
70
192
0
VERTEX
8
OBJECT__3
10
96.445000
20
-8.929000
30
79.449997
70
192
0
VERTEX
8
OBJECT__3
10
96.763000
20
-3.322000
30
83.200996
70
192
0
VERTEX
8
OBJECT__3
10
96.445000
20
-3.413000
30
83.560997
70
192
0
VERTEX
8
OBJECT__3
10
96.445000
20
-7.045000
30
81.811996
70
192
0
VERTEX
8
OBJECT__3
10
96.763000
20
3.322000
30
83.200996
70
192
0
VERTEX
8
OBJECT__3
10
96.445000
20
2.514000
30
83.994003
70
192
0
VERTEX
8
OBJECT__3
10
96.445000
20
-2.514000
30
83.994003
70
192
0
VERTEX
8
OBJECT__3
10
96.445000
20
3.413000
30
83.560997
70
192
0
VERTEX
8
OBJECT__3
10
96.763000
20
8.697000
30
79.295998
70
192
0
VERTEX
8
OBJECT__3
10
96.445000
20
7.045000
30
81.811996
70
192
0
VERTEX
8
OBJECT__3
10
96.445000
20
8.929000
30
79.449997
70
192
0
VERTEX
8
OBJECT__3
10
96.763000
20
10.750000
30
72.976997
70
192
0
VERTEX
8
OBJECT__3
10
96.445000
20
11.300000
30
72.976997
70
192
0
VERTEX
8
OBJECT__3
10
96.445000
20
10.181000
30
77.879997
70
192
0
VERTEX
8
OBJECT__3
10
96.763000
20
8.697000
30
66.658997
70
192
0
VERTEX
8
OBJECT__3
10
96.445000
20
10.181000
30
68.073997
70
192
0
VERTEX
8
OBJECT__3
10
96.445000
20
8.929000
30
66.504997
70
192
0
VERTEX
8
OBJECT__3
10
96.763000
20
3.322000
30
62.752998
70
192
0
VERTEX
8
OBJECT__3
10
96.445000
20
3.413000
30
62.393002
70
192
0
VERTEX
8
OBJECT__3
10
96.445000
20
7.045000
30
64.142998
70
192
0
VERTEX
8
OBJECT__3
10
96.763000
20
-3.322000
30
62.752998
70
192
0
VERTEX
8
OBJECT__3
10
96.445000
20
-2.514000
30
61.960999
70
192
0
VERTEX
8
OBJECT__3
10
96.445000
20
-3.413000
30
62.393002
70
192
0
VERTEX
8
OBJECT__3
10
96.445000
20
2.514000
30
61.960999
70
192
0
VERTEX
8
OBJECT__3
10
96.763000
20
-8.697000
30
66.658997
70
192
0
VERTEX
8
OBJECT__3
10
96.445000
20
-7.045000
30
64.142998
70
192
0
VERTEX
8
OBJECT__3
10
96.445000
20
-8.929000
30
66.504997
70
192
0
VERTEX
8
OBJECT__3
10
96.445000
20
-11.300000
30
72.976997
70
192
0
VERTEX
8
OBJECT__3
10
96.445000
20
-10.181000
30
68.073997
70
192
0
VERTEX
8
OBJECT__3
10
0
20
0
30
0
70
128
71
1
72
2
73
3
0
VERTEX
8
OBJECT__3
10
0
20
0
30
0
70
128
71
2
72
4
73
3
0
VERTEX
8
OBJECT__3
10
0
20
0
30
0
70
128
71
5
72
6
73
7
0
VERTEX
8
OBJECT__3
10
0
20
0
30
0
70
128
71
7
72
2
73
5
0
VERTEX
8
OBJECT__3
10
0
20
0
30
0
70
128
71
5
72
8
73
9
0
VERTEX
8
OBJECT__3
10
0
20
0
30
0
70
128
71
9
72
10
73
5
0
VERTEX
8
OBJECT__3
10
0
20
0
30
0
70
128
71
8
72
11
73
9
0
VERTEX
8
OBJECT__3
10
0
20
0
30
0
70
128
71
8
72
12
73
13
0
VERTEX
8
OBJECT__3
10
0
20
0
30
0
70
128
71
12
72
14
73
13
0
VERTEX
8
OBJECT__3
10
0
20
0
30
0
70
128
71
15
72
16
73
17
0
VERTEX
8
OBJECT__3
10
0
20
0
30
0
70
128
71
17
72
12
73
15
0
VERTEX
8
OBJECT__3
10
0
20
0
30
0
70
128
71
15
72
18
73
19
0
VERTEX
8
OBJECT__3
10
0
20
0
30
0
70
128
71
18
72
20
73
19
0
VERTEX
8
OBJECT__3
10
0
20
0
30
0
70
128
71
21
72
22
73
23
0
VERTEX
8
OBJECT__3
10
0
20
0
30
0
70
128
71
23
72
18
73
21
0
VERTEX
8
OBJECT__3
10
0
20
0
30
0
70
128
71
21
72
24
73
25
0
VERTEX
8
OBJECT__3
10
0
20
0
30
0
70
128
71
24
72
26
73
25
0
VERTEX
8
OBJECT__3
10
0
20
0
30
0
70
128
71
25
72
27
73
21
0
VERTEX
8
OBJECT__3
10
0
20
0
30
0
70
128
71
24
72
28
73
29
0
VERTEX
8
OBJECT__3
10
0
20
0
30
0
70
128
71
28
72
30
73
29
0
VERTEX
8
OBJECT__3
10
0
20
0
30
0
70
128
71
1
72
31
73
32
0
VERTEX
8
OBJECT__3
10
0
20
0
30
0
70
128
71
32
72
28
73
1
0
VERTEX
8
OBJECT__3
10
0
20
0
30
0
70
128
71
32
72
30
73
28
0
VERTEX
8
OBJECT__3
10
0
20
0
30
0
70
128
71
29
72
26
73
24
0
VERTEX
8
OBJECT__3
10
0
20
0
30
0
70
128
71
27
72
22
73
21
0
VERTEX
8
OBJECT__3
10
0
20
0
30
0
70
128
71
23
72
20
73
18
0
VERTEX
8
OBJECT__3
10
0
20
0
30
0
70
128
71
19
72
16
73
15
0
VERTEX
8
OBJECT__3
10
0
20
0
30
0
70
128
71
17
72
14
73
12
0
VERTEX
8
OBJECT__3
10
0
20
0
30
0
70
128
71
13
72
11
73
8
0
VERTEX
8
OBJECT__3
10
0
20
0
30
0
70
128
71
10
72
6
73
5
0
VERTEX
8
OBJECT__3
10
0
20
0
30
0
70
128
71
7
72
4
73
2
0
VERTEX
8
OBJECT__3
10
0
20
0
30
0
70
128
71
3
72
31
73
1
0
SEQEND
8
OBJECT__3
0
POLYLINE
8
OBJECT__4
66
1
70
64
71
10
72
8
62
253
0
VERTEX
8
OBJECT__4
10
96.763000
20
3.322000
30
62.752998
70
192
0
VERTEX
8
OBJECT__4
10
96.763000
20
10.750000
30
72.976997
70
192
0
VERTEX
8
OBJECT__4
10
96.763000
20
8.697000
30
79.295998
70
192
0
VERTEX
8
OBJECT__4
10
96.763000
20
-3.322000
30
83.200996
70
192
0
VERTEX
8
OBJECT__4
10
96.763000
20
-10.750000
30
72.976997
70
192
0
VERTEX
8
OBJECT__4
10
96.763000
20
-8.697000
30
66.658997
70
192
0
VERTEX
8
OBJECT__4
10
96.763000
20
8.697000
30
66.658997
70
192
0
VERTEX
8
OBJECT__4
10
96.763000
20
-8.697000
30
79.295998
70
192
0
VERTEX
8
OBJECT__4
10
96.763000
20
3.322000
30
83.200996
70
192
0
VERTEX
8
OBJECT__4
10
96.763000
20
-3.322000
30
62.752998
70
192
0
VERTEX
8
OBJECT__4
10
0
20
0
30
0
70
128
71
1
72
2
73
3
0
VERTEX
8
OBJECT__4
10
0
20
0
30
0
70
128
71
4
72
5
73
6
0
VERTEX
8
OBJECT__4
10
0
20
0
30
0
70
128
71
1
72
7
73
2
0
VERTEX
8
OBJECT__4
10
0
20
0
30
0
70
128
71
4
72
8
73
5
0
VERTEX
8
OBJECT__4
10
0
20
0
30
0
70
128
71
9
72
10
73
1
0
VERTEX
8
OBJECT__4
10
0
20
0
30
0
70
128
71
10
72
9
73
4
0
VERTEX
8
OBJECT__4
10
0
20
0
30
0
70
128
71
6
72
10
73
4
0
VERTEX
8
OBJECT__4
10
0
20
0
30
0
70
128
71
3
72
9
73
1
0
SEQEND
8
OBJECT__4
0
POLYLINE
8
OBJECT__5
66
1
70
64
71
8
72
6
62
253
0
VERTEX
8
OBJECT__5
10
8.138000
20
-21.504999
30
118.481003
70
192
0
VERTEX
8
OBJECT__5
10
22.313000
20
5.504000
30
118.481003
70
192
0
VERTEX
8
OBJECT__5
10
22.313000
20
-5.504000
30
118.481003
70
192
0
VERTEX
8
OBJECT__5
10
17.198000
20
15.252000
30
118.481003
70
192
0
VERTEX
8
OBJECT__5
10
8.138000
20
21.504999
30
118.481003
70
192
0
VERTEX
8
OBJECT__5
10
17.198000
20
-15.252000
30
118.481003
70
192
0
VERTEX
8
OBJECT__5
10
2.147000
20
-22.898001
30
118.481003
70
192
0
VERTEX
8
OBJECT__5
10
2.147000
20
22.898001
30
118.481003
70
192
0
VERTEX
8
OBJECT__5
10
0
20
0
30
0
70
128
71
1
72
2
73
3
0
VERTEX
8
OBJECT__5
10
0
20
0
30
0
70
128
71
1
72
4
73
2
0
VERTEX
8
OBJECT__5
10
0
20
0
30
0
70
128
71
1
72
5
73
4
0
VERTEX
8
OBJECT__5
10
0
20
0
30
0
70
128
71
3
72
6
73
1
0
VERTEX
8
OBJECT__5
10
0
20
0
30
0
70
128
71
7
72
8
73
5
0
VERTEX
8
OBJECT__5
10
0
20
0
30
0
70
128
71
1
72
7
73
5
0
SEQEND
8
OBJECT__5
0
POLYLINE
8
OBJECT__6
66
1
70
64
71
17
72
15
62
253
0
VERTEX
8
OBJECT__6
10
-20.337000
20
10.674000
30
132.529999
70
192
0
VERTEX
8
OBJECT__6
10
-20.261000
20
10.920000
30
132.481995
70
192
0
VERTEX
8
OBJECT__6
10
-14.587000
20
17.798000
30
128.936996
70
192
0
VERTEX
8
OBJECT__6
10
-12.945000
20
18.674999
30
127.911003
70
192
0
VERTEX
8
OBJECT__6
10
-22.677000
20
0.031000
30
133.992004
70
192
0
VERTEX
8
OBJECT__6
10
-22.892000
20
2.402000
30
134.126999
70
192
0
VERTEX
8
OBJECT__6
10
-19.997000
20
-10.487000
30
132.317001
70
192
0
VERTEX
8
OBJECT__6
10
-22.087000
20
-6.478000
30
133.623993
70
192
0
VERTEX
8
OBJECT__6
10
-6.724000
20
22.000999
30
124.023003
70
192
0
VERTEX
8
OBJECT__6
10
-2.746000
20
22.403000
30
121.538002
70
192
0
VERTEX
8
OBJECT__6
10
-12.872000
20
-18.674999
30
127.865997
70
192
0
VERTEX
8
OBJECT__6
10
-17.966000
20
-14.384000
30
131.048004
70
192
0
VERTEX
8
OBJECT__6
10
-2.783000
20
-22.808001
30
121.560997
70
192
0
VERTEX
8
OBJECT__6
10
-11.147000
20
-20.128000
30
126.787003
70
192
0
VERTEX
8
OBJECT__6
10
2.147000
20
-22.898001
30
118.481003
70
192
0
VERTEX
8
OBJECT__6
10
-2.656000
20
-22.848000
30
121.482002
70
192
0
VERTEX
8
OBJECT__6
10
2.147000
20
22.898001
30
118.481003
70
192
0
VERTEX
8
OBJECT__6
10
0
20
0
30
0
70
128
71
1
72
2
73
3
0
VERTEX
8
OBJECT__6
10
0
20
0
30
0
70
128
71
4
72
5
73
6
0
VERTEX
8
OBJECT__6
10
0
20
0
30
0
70
128
71
6
72
1
73
4
0
VERTEX
8
OBJECT__6
10
0
20
0
30
0
70
128
71
4
72
7
73
8
0
VERTEX
8
OBJECT__6
10
0
20
0
30
0
70
128
71
7
72
4
73
9
0
VERTEX
8
OBJECT__6
10
0
20
0
30
0
70
128
71
8
72
5
73
4
0
VERTEX
8
OBJECT__6
10
0
20
0
30
0
70
128
71
3
72
4
73
1
0
VERTEX
8
OBJECT__6
10
0
20
0
30
0
70
128
71
10
72
11
73
12
0
VERTEX
8
OBJECT__6
10
0
20
0
30
0
70
128
71
10
72
13
73
14
0
VERTEX
8
OBJECT__6
10
0
20
0
30
0
70
128
71
10
72
15
73
16
0
VERTEX
8
OBJECT__6
10
0
20
0
30
0
70
128
71
12
72
7
73
10
0
VERTEX
8
OBJECT__6
10
0
20
0
30
0
70
128
71
16
72
13
73
10
0
VERTEX
8
OBJECT__6
10
0
20
0
30
0
70
128
71
14
72
11
73
10
0
VERTEX
8
OBJECT__6
10
0
20
0
30
0
70
128
71
9
72
10
73
7
0
VERTEX
8
OBJECT__6
10
0
20
0
30
0
70
128
71
10
72
17
73
15
0
SEQEND
8
OBJECT__6
0
POLYLINE
8
OBJECT__8
66
1
70
64
71
40
72
40
62
253
0
VERTEX
8
OBJECT__8
10
17.198000
20
15.252000
30
149.181000
70
192
0
VERTEX
8
OBJECT__8
10
17.198000
20
15.252000
30
118.481003
70
192
0
VERTEX
8
OBJECT__8
10
8.138000
20
21.504999
30
118.481003
70
192
0
VERTEX
8
OBJECT__8
10
8.138000
20
-21.504999
30
149.181000
70
192
0
VERTEX
8
OBJECT__8
10
8.138000
20
-21.504999
30
118.481003
70
192
0
VERTEX
8
OBJECT__8
10
17.198000
20
-15.252000
30
118.481003
70
192
0
VERTEX
8
OBJECT__8
10
22.313000
20
5.504000
30
118.481003
70
192
0
VERTEX
8
OBJECT__8
10
19.500000
20
12.168000
30
138.681000
70
192
0
VERTEX
8
OBJECT__8
10
19.500000
20
12.168000
30
149.181000
70
192
0
VERTEX
8
OBJECT__8
10
22.313000
20
5.504000
30
138.681000
70
192
0
VERTEX
8
OBJECT__8
10
22.313000
20
-5.504000
30
138.681000
70
192
0
VERTEX
8
OBJECT__8
10
17.198000
20
-15.252000
30
149.181000
70
192
0
VERTEX
8
OBJECT__8
10
19.500000
20
-12.168000
30
138.681000
70
192
0
VERTEX
8
OBJECT__8
10
22.313000
20
-5.504000
30
118.481003
70
192
0
VERTEX
8
OBJECT__8
10
8.138000
20
21.504999
30
149.181000
70
192
0
VERTEX
8
OBJECT__8
10
2.147000
20
22.898001
30
118.481003
70
192
0
VERTEX
8
OBJECT__8
10
-2.746000
20
22.403000
30
121.538002
70
192
0
VERTEX
8
OBJECT__8
10
-2.791000
20
22.832001
30
149.181000
70
192
0
VERTEX
8
OBJECT__8
10
-6.724000
20
22.000999
30
124.023003
70
192
0
VERTEX
8
OBJECT__8
10
-12.945000
20
18.674999
30
127.911003
70
192
0
VERTEX
8
OBJECT__8
10
-20.384001
20
10.689000
30
149.181000
70
192
0
VERTEX
8
OBJECT__8
10
-13.084000
20
18.929001
30
149.181000
70
192
0
VERTEX
8
OBJECT__8
10
-20.261000
20
10.920000
30
132.481995
70
192
0
VERTEX
8
OBJECT__8
10
-14.587000
20
17.798000
30
128.936996
70
192
0
VERTEX
8
OBJECT__8
10
-20.337000
20
10.674000
30
132.529999
70
192
0
VERTEX
8
OBJECT__8
10
-22.892000
20
2.402000
30
134.126999
70
192
0
VERTEX
8
OBJECT__8
10
-23.018000
20
0.000000
30
149.181000
70
192
0
VERTEX
8
OBJECT__8
10
-22.677000
20
0.031000
30
133.992004
70
192
0
VERTEX
8
OBJECT__8
10
-22.087000
20
-6.478000
30
133.623993
70
192
0
VERTEX
8
OBJECT__8
10
-20.384001
20
-10.689000
30
149.181000
70
192
0
VERTEX
8
OBJECT__8
10
-13.084000
20
-18.929001
30
149.181000
70
192
0
VERTEX
8
OBJECT__8
10
-19.997000
20
-10.487000
30
132.317001
70
192
0
VERTEX
8
OBJECT__8
10
-17.966000
20
-14.384000
30
131.048004
70
192
0
VERTEX
8
OBJECT__8
10
-2.791000
20
-22.832001
30
149.181000
70
192
0
VERTEX
8
OBJECT__8
10
-12.872000
20
-18.674999
30
127.865997
70
192
0
VERTEX
8
OBJECT__8
10
-11.147000
20
-20.128000
30
126.787003
70
192
0
VERTEX
8
OBJECT__8
10
-2.656000
20
-22.848000
30
121.482002
70
192
0
VERTEX
8
OBJECT__8
10
2.147000
20
-22.898001
30
118.481003
70
192
0
VERTEX
8
OBJECT__8
10
-2.783000
20
-22.808001
30
121.560997
70
192
0
VERTEX
8
OBJECT__8
10
19.500000
20
-12.168000
30
149.181000
70
192
0
VERTEX
8
OBJECT__8
10
0
20
0
30
0
70
128
71
1
72
2
73
3
0
VERTEX
8
OBJECT__8
10
0
20
0
30
0
70
128
71
4
72
5
73
6
0
VERTEX
8
OBJECT__8
10
0
20
0
30
0
70
128
71
7
72
2
73
8
0
VERTEX
8
OBJECT__8
10
0
20
0
30
0
70
128
71
1
72
9
73
8
0
VERTEX
8
OBJECT__8
10
0
20
0
30
0
70
128
71
8
72
2
73
1
0
VERTEX
8
OBJECT__8
10
0
20
0
30
0
70
128
71
7
72
10
73
11
0
VERTEX
8
OBJECT__8
10
0
20
0
30
0
70
128
71
12
72
6
73
13
0
VERTEX
8
OBJECT__8
10
0
20
0
30
0
70
128
71
14
72
11
73
13
0
VERTEX
8
OBJECT__8
10
0
20
0
30
0
70
128
71
13
72
6
73
14
0
VERTEX
8
OBJECT__8
10
0
20
0
30
0
70
128
71
15
72
16
73
17
0
VERTEX
8
OBJECT__8
10
0
20
0
30
0
70
128
71
15
72
3
73
16
0
VERTEX
8
OBJECT__8
10
0
20
0
30
0
70
128
71
18
72
19
73
20
0
VERTEX
8
OBJECT__8
10
0
20
0
30
0
70
128
71
18
72
17
73
19
0
VERTEX
8
OBJECT__8
10
0
20
0
30
0
70
128
71
21
72
22
73
23
0
VERTEX
8
OBJECT__8
10
0
20
0
30
0
70
128
71
22
72
20
73
24
0
VERTEX
8
OBJECT__8
10
0
20
0
30
0
70
128
71
24
72
23
73
22
0
VERTEX
8
OBJECT__8
10
0
20
0
30
0
70
128
71
21
72
25
73
26
0
VERTEX
8
OBJECT__8
10
0
20
0
30
0
70
128
71
26
72
27
73
21
0
VERTEX
8
OBJECT__8
10
0
20
0
30
0
70
128
71
27
72
28
73
29
0
VERTEX
8
OBJECT__8
10
0
20
0
30
0
70
128
71
29
72
30
73
27
0
VERTEX
8
OBJECT__8
10
0
20
0
30
0
70
128
71
31
72
30
73
32
0
VERTEX
8
OBJECT__8
10
0
20
0
30
0
70
128
71
32
72
33
73
31
0
VERTEX
8
OBJECT__8
10
0
20
0
30
0
70
128
71
34
72
31
73
35
0
VERTEX
8
OBJECT__8
10
0
20
0
30
0
70
128
71
35
72
36
73
34
0
VERTEX
8
OBJECT__8
10
0
20
0
30
0
70
128
71
4
72
37
73
38
0
VERTEX
8
OBJECT__8
10
0
20
0
30
0
70
128
71
4
72
34
73
39
0
VERTEX
8
OBJECT__8
10
0
20
0
30
0
70
128
71
39
72
37
73
4
0
VERTEX
8
OBJECT__8
10
0
20
0
30
0
70
128
71
38
72
5
73
4
0
VERTEX
8
OBJECT__8
10
0
20
0
30
0
70
128
71
36
72
39
73
34
0
VERTEX
8
OBJECT__8
10
0
20
0
30
0
70
128
71
33
72
35
73
31
0
VERTEX
8
OBJECT__8
10
0
20
0
30
0
70
128
71
29
72
32
73
30
0
VERTEX
8
OBJECT__8
10
0
20
0
30
0
70
128
71
26
72
28
73
27
0
VERTEX
8
OBJECT__8
10
0
20
0
30
0
70
128
71
23
72
25
73
21
0
VERTEX
8
OBJECT__8
10
0
20
0
30
0
70
128
71
20
72
22
73
18
0
VERTEX
8
OBJECT__8
10
0
20
0
30
0
70
128
71
17
72
18
73
15
0
VERTEX
8
OBJECT__8
10
0
20
0
30
0
70
128
71
13
72
40
73
12
0
VERTEX
8
OBJECT__8
10
0
20
0
30
0
70
128
71
11
72
14
73
7
0
VERTEX
8
OBJECT__8
10
0
20
0
30
0
70
128
71
8
72
10
73
7
0
VERTEX
8
OBJECT__8
10
0
20
0
30
0
70
128
71
6
72
12
73
4
0
VERTEX
8
OBJECT__8
10
0
20
0
30
0
70
128
71
3
72
15
73
1
0
SEQEND
8
OBJECT__8
0
POLYLINE
8
OBJECT__9
66
1
70
64
71
6
72
4
62
253
0
VERTEX
8
OBJECT__9
10
22.406000
20
-9.405000
30
149.181000
70
192
0
VERTEX
8
OBJECT__9
10
22.406000
20
-9.405000
30
138.681000
70
192
0
VERTEX
8
OBJECT__9
10
26.288000
20
-8.400000
30
138.681000
70
192
0
VERTEX
8
OBJECT__9
10
19.500000
20
-12.168000
30
149.181000
70
192
0
VERTEX
8
OBJECT__9
10
19.500000
20
-12.168000
30
138.681000
70
192
0
VERTEX
8
OBJECT__9
10
26.288000
20
-8.400000
30
149.181000
70
192
0
VERTEX
8
OBJECT__9
10
0
20
0
30
0
70
128
71
1
72
2
73
3
0
VERTEX
8
OBJECT__9
10
0
20
0
30
0
70
128
71
4
72
5
73
2
0
VERTEX
8
OBJECT__9
10
0
20
0
30
0
70
128
71
2
72
1
73
4
0
VERTEX
8
OBJECT__9
10
0
20
0
30
0
70
128
71
3
72
6
73
1
0
SEQEND
8
OBJECT__9
0
POLYLINE
8
OBJECT__10
66
1
70
64
71
4
72
2
62
253
0
VERTEX
8
OBJECT__10
10
84.982002
20
-8.400000
30
149.181000
70
192
0
VERTEX
8
OBJECT__10
10
26.288000
20
-8.400000
30
149.181000
70
192
0
VERTEX
8
OBJECT__10
10
26.288000
20
-8.400000
30
138.681000
70
192
0
VERTEX
8
OBJECT__10
10
84.982002
20
-8.400000
30
138.681000
70
192
0
VERTEX
8
OBJECT__10
10
0
20
0
30
0
70
128
71
1
72
2
73
3
0
VERTEX
8
OBJECT__10
10
0
20
0
30
0
70
128
71
3
72
4
73
1
0
SEQEND
8
OBJECT__10
0
POLYLINE
8
OBJECT__11
66
1
70
64
71
6
72
4
62
253
0
VERTEX
8
OBJECT__11
10
87.102997
20
-7.521000
30
138.681000
70
192
0
VERTEX
8
OBJECT__11
10
87.102997
20
-7.521000
30
149.181000
70
192
0
VERTEX
8
OBJECT__11
10
84.982002
20
-8.400000
30
149.181000
70
192
0
VERTEX
8
OBJECT__11
10
87.982002
20
-5.400000
30
138.681000
70
192
0
VERTEX
8
OBJECT__11
10
87.982002
20
-5.400000
30
149.181000
70
192
0
VERTEX
8
OBJECT__11
10
84.982002
20
-8.400000
30
138.681000
70
192
0
VERTEX
8
OBJECT__11
10
0
20
0
30
0
70
128
71
1
72
2
73
3
0
VERTEX
8
OBJECT__11
10
0
20
0
30
0
70
128
71
4
72
5
73
2
0
VERTEX
8
OBJECT__11
10
0
20
0
30
0
70
128
71
2
72
1
73
4
0
VERTEX
8
OBJECT__11
10
0
20
0
30
0
70
128
71
3
72
6
73
1
0
SEQEND
8
OBJECT__11
0
POLYLINE
8
OBJECT__12
66
1
70
64
71
4
72
2
62
253
0
VERTEX
8
OBJECT__12
10
87.982002
20
5.400000
30
138.681000
70
192
0
VERTEX
8
OBJECT__12
10
87.982002
20
5.400000
30
149.181000
70
192
0
VERTEX
8
OBJECT__12
10
87.982002
20
-5.400000
30
149.181000
70
192
0
VERTEX
8
OBJECT__12
10
87.982002
20
-5.400000
30
138.681000
70
192
0
VERTEX
8
OBJECT__12
10
0
20
0
30
0
70
128
71
1
72
2
73
3
0
VERTEX
8
OBJECT__12
10
0
20
0
30
0
70
128
71
3
72
4
73
1
0
SEQEND
8
OBJECT__12
0
POLYLINE
8
OBJECT__13
66
1
70
64
71
23
72
21
62
253
0
VERTEX
8
OBJECT__13
10
26.288000
20
-8.400000
30
149.181000
70
192
0
VERTEX
8
OBJECT__13
10
87.982002
20
5.400000
30
149.181000
70
192
0
VERTEX
8
OBJECT__13
10
84.982002
20
8.400000
30
149.181000
70
192
0
VERTEX
8
OBJECT__13
10
84.982002
20
-8.400000
30
149.181000
70
192
0
VERTEX
8
OBJECT__13
10
87.102997
20
-7.521000
30
149.181000
70
192
0
VERTEX
8
OBJECT__13
10
87.982002
20
-5.400000
30
149.181000
70
192
0
VERTEX
8
OBJECT__13
10
17.198000
20
15.252000
30
149.181000
70
192
0
VERTEX
8
OBJECT__13
10
-20.384001
20
10.689000
30
149.181000
70
192
0
VERTEX
8
OBJECT__13
10
-23.018000
20
0.000000
30
149.181000
70
192
0
VERTEX
8
OBJECT__13
10
8.138000
20
21.504999
30
149.181000
70
192
0
VERTEX
8
OBJECT__13
10
-2.791000
20
22.832001
30
149.181000
70
192
0
VERTEX
8
OBJECT__13
10
87.102997
20
7.521000
30
149.181000
70
192
0
VERTEX
8
OBJECT__13
10
-20.384001
20
-10.689000
30
149.181000
70
192
0
VERTEX
8
OBJECT__13
10
-13.084000
20
18.929001
30
149.181000
70
192
0
VERTEX
8
OBJECT__13
10
19.500000
20
12.168000
30
149.181000
70
192
0
VERTEX
8
OBJECT__13
10
-2.791000
20
-22.832001
30
149.181000
70
192
0
VERTEX
8
OBJECT__13
10
8.138000
20
-21.504999
30
149.181000
70
192
0
VERTEX
8
OBJECT__13
10
26.288000
20
8.400000
30
149.181000
70
192
0
VERTEX
8
OBJECT__13
10
22.406000
20
9.405000
30
149.181000
70
192
0
VERTEX
8
OBJECT__13
10
17.198000
20
-15.252000
30
149.181000
70
192
0
VERTEX
8
OBJECT__13
10
-13.084000
20
-18.929001
30
149.181000
70
192
0
VERTEX
8
OBJECT__13
10
22.406000
20
-9.405000
30
149.181000
70
192
0
VERTEX
8
OBJECT__13
10
19.500000
20
-12.168000
30
149.181000
70
192
0
VERTEX
8
OBJECT__13
10
0
20
0
30
0
70
128
71
1
72
2
73
3
0
VERTEX
8
OBJECT__13
10
0
20
0
30
0
70
128
71
4
72
5
73
6
0
VERTEX
8
OBJECT__13
10
0
20
0
30
0
70
128
71
7
72
8
73
9
0
VERTEX
8
OBJECT__13
10
0
20
0
30
0
70
128
71
8
72
10
73
11
0
VERTEX
8
OBJECT__13
10
0
20
0
30
0
70
128
71
2
72
12
73
3
0
VERTEX
8
OBJECT__13
10
0
20
0
30
0
70
128
71
2
72
1
73
4
0
VERTEX
8
OBJECT__13
10
0
20
0
30
0
70
128
71
9
72
13
73
7
0
VERTEX
8
OBJECT__13
10
0
20
0
30
0
70
128
71
8
72
7
73
10
0
VERTEX
8
OBJECT__13
10
0
20
0
30
0
70
128
71
6
72
2
73
4
0
VERTEX
8
OBJECT__13
10
0
20
0
30
0
70
128
71
11
72
14
73
8
0
VERTEX
8
OBJECT__13
10
0
20
0
30
0
70
128
71
15
72
16
73
17
0
VERTEX
8
OBJECT__13
10
0
20
0
30
0
70
128
71
3
72
18
73
1
0
VERTEX
8
OBJECT__13
10
0
20
0
30
0
70
128
71
19
72
17
73
20
0
VERTEX
8
OBJECT__13
10
0
20
0
30
0
70
128
71
21
72
15
73
7
0
VERTEX
8
OBJECT__13
10
0
20
0
30
0
70
128
71
15
72
21
73
16
0
VERTEX
8
OBJECT__13
10
0
20
0
30
0
70
128
71
19
72
22
73
1
0
VERTEX
8
OBJECT__13
10
0
20
0
30
0
70
128
71
20
72
23
73
19
0
VERTEX
8
OBJECT__13
10
0
20
0
30
0
70
128
71
17
72
19
73
15
0
VERTEX
8
OBJECT__13
10
0
20
0
30
0
70
128
71
23
72
22
73
19
0
VERTEX
8
OBJECT__13
10
0
20
0
30
0
70
128
71
18
72
19
73
1
0
VERTEX
8
OBJECT__13
10
0
20
0
30
0
70
128
71
13
72
21
73
7
0
SEQEND
8
OBJECT__13
0
POLYLINE
8
OBJECT__14
66
1
70
64
71
14
72
12
62
253
0
VERTEX
8
OBJECT__14
10
84.982002
20
-8.400000
30
138.681000
70
192
0
VERTEX
8
OBJECT__14
10
87.982002
20
5.400000
30
138.681000
70
192
0
VERTEX
8
OBJECT__14
10
87.982002
20
-5.400000
30
138.681000
70
192
0
VERTEX
8
OBJECT__14
10
26.288000
20
-8.400000
30
138.681000
70
192
0
VERTEX
8
OBJECT__14
10
26.288000
20
8.400000
30
138.681000
70
192
0
VERTEX
8
OBJECT__14
10
84.982002
20
8.400000
30
138.681000
70
192
0
VERTEX
8
OBJECT__14
10
87.102997
20
-7.521000
30
138.681000
70
192
0
VERTEX
8
OBJECT__14
10
22.406000
20
9.405000
30
138.681000
70
192
0
VERTEX
8
OBJECT__14
10
22.406000
20
-9.405000
30
138.681000
70
192
0
VERTEX
8
OBJECT__14
10
22.313000
20
-5.504000
30
138.681000
70
192
0
VERTEX
8
OBJECT__14
10
87.102997
20
7.521000
30
138.681000
70
192
0
VERTEX
8
OBJECT__14
10
22.313000
20
5.504000
30
138.681000
70
192
0
VERTEX
8
OBJECT__14
10
19.500000
20
-12.168000
30
138.681000
70
192
0
VERTEX
8
OBJECT__14
10
19.500000
20
12.168000
30
138.681000
70
192
0
VERTEX
8
OBJECT__14
10
0
20
0
30
0
70
128
71
1
72
2
73
3
0
VERTEX
8
OBJECT__14
10
0
20
0
30
0
70
128
71
4
72
5
73
6
0
VERTEX
8
OBJECT__14
10
0
20
0
30
0
70
128
71
3
72
7
73
1
0
VERTEX
8
OBJECT__14
10
0
20
0
30
0
70
128
71
6
72
2
73
4
0
VERTEX
8
OBJECT__14
10
0
20
0
30
0
70
128
71
8
72
9
73
10
0
VERTEX
8
OBJECT__14
10
0
20
0
30
0
70
128
71
6
72
11
73
2
0
VERTEX
8
OBJECT__14
10
0
20
0
30
0
70
128
71
10
72
12
73
8
0
VERTEX
8
OBJECT__14
10
0
20
0
30
0
70
128
71
4
72
8
73
5
0
VERTEX
8
OBJECT__14
10
0
20
0
30
0
70
128
71
9
72
13
73
10
0
VERTEX
8
OBJECT__14
10
0
20
0
30
0
70
128
71
1
72
4
73
2
0
VERTEX
8
OBJECT__14
10
0
20
0
30
0
70
128
71
4
72
9
73
8
0
VERTEX
8
OBJECT__14
10
0
20
0
30
0
70
128
71
12
72
14
73
8
0
SEQEND
8
OBJECT__14
0
POLYLINE
8
OBJECT__15
66
1
70
64
71
4
72
2
62
253
0
VERTEX
8
OBJECT__15
10
26.288000
20
8.400000
30
149.181000
70
192
0
VERTEX
8
OBJECT__15
10
84.982002
20
8.400000
30
149.181000
70
192
0
VERTEX
8
OBJECT__15
10
84.982002
20
8.400000
30
138.681000
70
192
0
VERTEX
8
OBJECT__15
10
26.288000
20
8.400000
30
138.681000
70
192
0
VERTEX
8
OBJECT__15
10
0
20
0
30
0
70
128
71
1
72
2
73
3
0
VERTEX
8
OBJECT__15
10
0
20
0
30
0
70
128
71
3
72
4
73
1
0
SEQEND
8
OBJECT__15
0
POLYLINE
8
OBJECT__16
66
1
70
64
71
6
72
4
62
253
0
VERTEX
8
OBJECT__16
10
87.102997
20
7.521000
30
138.681000
70
192
0
VERTEX
8
OBJECT__16
10
87.102997
20
7.521000
30
149.181000
70
192
0
VERTEX
8
OBJECT__16
10
87.982002
20
5.400000
30
149.181000
70
192
0
VERTEX
8
OBJECT__16
10
84.982002
20
8.400000
30
138.681000
70
192
0
VERTEX
8
OBJECT__16
10
84.982002
20
8.400000
30
149.181000
70
192
0
VERTEX
8
OBJECT__16
10
87.982002
20
5.400000
30
138.681000
70
192
0
VERTEX
8
OBJECT__16
10
0
20
0
30
0
70
128
71
1
72
2
73
3
0
VERTEX
8
OBJECT__16
10
0
20
0
30
0
70
128
71
4
72
5
73
2
0
VERTEX
8
OBJECT__16
10
0
20
0
30
0
70
128
71
2
72
1
73
4
0
VERTEX
8
OBJECT__16
10
0
20
0
30
0
70
128
71
3
72
6
73
1
0
SEQEND
8
OBJECT__16
0
POLYLINE
8
OBJECT__17
66
1
70
64
71
6
72
4
62
253
0
VERTEX
8
OBJECT__17
10
22.406000
20
9.405000
30
149.181000
70
192
0
VERTEX
8
OBJECT__17
10
22.406000
20
9.405000
30
138.681000
70
192
0
VERTEX
8
OBJECT__17
10
19.500000
20
12.168000
30
138.681000
70
192
0
VERTEX
8
OBJECT__17
10
26.288000
20
8.400000
30
149.181000
70
192
0
VERTEX
8
OBJECT__17
10
26.288000
20
8.400000
30
138.681000
70
192
0
VERTEX
8
OBJECT__17
10
19.500000
20
12.168000
30
149.181000
70
192
0
VERTEX
8
OBJECT__17
10
0
20
0
30
0
70
128
71
1
72
2
73
3
0
VERTEX
8
OBJECT__17
10
0
20
0
30
0
70
128
71
4
72
5
73
2
0
VERTEX
8
OBJECT__17
10
0
20
0
30
0
70
128
71
2
72
1
73
4
0
VERTEX
8
OBJECT__17
10
0
20
0
30
0
70
128
71
3
72
6
73
1
0
SEQEND
8
OBJECT__17
0
POLYLINE
8
OBJECT__18
66
1
70
64
71
51
72
68
62
253
0
VERTEX
8
OBJECT__18
10
0.000000
20
-14.057000
30
127.449997
70
192
0
VERTEX
8
OBJECT__18
10
-5.078000
20
-13.108000
30
127.449997
70
192
0
VERTEX
8
OBJECT__18
10
-6.631000
20
-17.118000
30
122.432999
70
192
0
VERTEX
8
OBJECT__18
10
0.000000
20
-18.357000
30
122.432999
70
192
0
VERTEX
8
OBJECT__18
10
-9.470000
20
-10.388000
30
127.449997
70
192
0
VERTEX
8
OBJECT__18
10
-12.367000
20
-13.566000
30
122.432999
70
192
0
VERTEX
8
OBJECT__18
10
-12.583000
20
-6.266000
30
127.449997
70
192
0
VERTEX
8
OBJECT__18
10
-16.433001
20
-8.183000
30
122.432999
70
192
0
VERTEX
8
OBJECT__18
10
-13.997000
20
-1.297000
30
127.449997
70
192
0
VERTEX
8
OBJECT__18
10
-18.278999
20
-1.694000
30
122.432999
70
192
0
VERTEX
8
OBJECT__18
10
-13.520000
20
3.847000
30
127.449997
70
192
0
VERTEX
8
OBJECT__18
10
-17.657000
20
5.024000
30
122.432999
70
192
0
VERTEX
8
OBJECT__18
10
-11.218000
20
8.471000
30
127.449997
70
192
0
VERTEX
8
OBJECT__18
10
-14.650000
20
11.063000
30
122.432999
70
192
0
VERTEX
8
OBJECT__18
10
-7.400000
20
11.952000
30
127.449997
70
192
0
VERTEX
8
OBJECT__18
10
-9.664000
20
15.608000
30
122.432999
70
192
0
VERTEX
8
OBJECT__18
10
-2.583000
20
13.818000
30
127.449997
70
192
0
VERTEX
8
OBJECT__18
10
-3.373000
20
18.045000
30
122.432999
70
192
0
VERTEX
8
OBJECT__18
10
2.583000
20
13.818000
30
127.449997
70
192
0
VERTEX
8
OBJECT__18
10
3.373000
20
18.045000
30
122.432999
70
192
0
VERTEX
8
OBJECT__18
10
7.400000
20
11.952000
30
127.449997
70
192
0
VERTEX
8
OBJECT__18
10
9.664000
20
15.608000
30
122.432999
70
192
0
VERTEX
8
OBJECT__18
10
11.218000
20
8.471000
30
127.449997
70
192
0
VERTEX
8
OBJECT__18
10
14.650000
20
11.063000
30
122.432999
70
192
0
VERTEX
8
OBJECT__18
10
13.520000
20
3.847000
30
127.449997
70
192
0
VERTEX
8
OBJECT__18
10
17.657000
20
5.024000
30
122.432999
70
192
0
VERTEX
8
OBJECT__18
10
13.997000
20
-1.297000
30
127.449997
70
192
0
VERTEX
8
OBJECT__18
10
18.278999
20
-1.694000
30
122.432999
70
192
0
VERTEX
8
OBJECT__18
10
12.583000
20
-6.266000
30
127.449997
70
192
0
VERTEX
8
OBJECT__18
10
16.433001
20
-8.183000
30
122.432999
70
192
0
VERTEX
8
OBJECT__18
10
9.470000
20
-10.388000
30
127.449997
70
192
0
VERTEX
8
OBJECT__18
10
12.367000
20
-13.566000
30
122.432999
70
192
0
VERTEX
8
OBJECT__18
10
5.078000
20
-13.108000
30
127.449997
70
192
0
VERTEX
8
OBJECT__18
10
6.631000
20
-17.118000
30
122.432999
70
192
0
VERTEX
8
OBJECT__18
10
-7.564000
20
-19.525999
30
116.349998
70
192
0
VERTEX
8
OBJECT__18
10
0.000000
20
-20.940001
30
116.349998
70
192
0
VERTEX
8
OBJECT__18
10
-14.107000
20
-15.475000
30
116.349998
70
192
0
VERTEX
8
OBJECT__18
10
-18.743999
20
-9.334000
30
116.349998
70
192
0
VERTEX
8
OBJECT__18
10
-20.850000
20
-1.932000
30
116.349998
70
192
0
VERTEX
8
OBJECT__18
10
-20.139999
20
5.730000
30
116.349998
70
192
0
VERTEX
8
OBJECT__18
10
-16.709999
20
12.619000
30
116.349998
70
192
0
VERTEX
8
OBJECT__18
10
-11.023000
20
17.802999
30
116.349998
70
192
0
VERTEX
8
OBJECT__18
10
-3.848000
20
20.583000
30
116.349998
70
192
0
VERTEX
8
OBJECT__18
10
3.848000
20
20.583000
30
116.349998
70
192
0
VERTEX
8
OBJECT__18
10
11.023000
20
17.802999
30
116.349998
70
192
0
VERTEX
8
OBJECT__18
10
16.709999
20
12.619000
30
116.349998
70
192
0
VERTEX
8
OBJECT__18
10
20.139999
20
5.730000
30
116.349998
70
192
0
VERTEX
8
OBJECT__18
10
20.850000
20
-1.932000
30
116.349998
70
192
0
VERTEX
8
OBJECT__18
10
18.743999
20
-9.334000
30
116.349998
70
192
0
VERTEX
8
OBJECT__18
10
14.107000
20
-15.475000
30
116.349998
70
192
0
VERTEX
8
OBJECT__18
10
7.564000
20
-19.525999
30
116.349998
70
192
0
VERTEX
8
OBJECT__18
10
0
20
0
30
0
70
128
71
1
72
2
73
3
0
VERTEX
8
OBJECT__18
10
0
20
0
30
0
70
128
71
1
72
3
73
4
0
VERTEX
8
OBJECT__18
10
0
20
0
30
0
70
128
71
2
72
5
73
6
0
VERTEX
8
OBJECT__18
10
0
20
0
30
0
70
128
71
2
72
6
73
3
0
VERTEX
8
OBJECT__18
10
0
20
0
30
0
70
128
71
5
72
7
73
8
0
VERTEX
8
OBJECT__18
10
0
20
0
30
0
70
128
71
5
72
8
73
6
0
VERTEX
8
OBJECT__18
10
0
20
0
30
0
70
128
71
7
72
9
73
10
0
VERTEX
8
OBJECT__18
10
0
20
0
30
0
70
128
71
7
72
10
73
8
0
VERTEX
8
OBJECT__18
10
0
20
0
30
0
70
128
71
9
72
11
73
12
0
VERTEX
8
OBJECT__18
10
0
20
0
30
0
70
128
71
9
72
12
73
10
0
VERTEX
8
OBJECT__18
10
0
20
0
30
0
70
128
71
11
72
13
73
14
0
VERTEX
8
OBJECT__18
10
0
20
0
30
0
70
128
71
11
72
14
73
12
0
VERTEX
8
OBJECT__18
10
0
20
0
30
0
70
128
71
13
72
15
73
16
0
VERTEX
8
OBJECT__18
10
0
20
0
30
0
70
128
71
13
72
16
73
14
0
VERTEX
8
OBJECT__18
10
0
20
0
30
0
70
128
71
15
72
17
73
18
0
VERTEX
8
OBJECT__18
10
0
20
0
30
0
70
128
71
15
72
18
73
16
0
VERTEX
8
OBJECT__18
10
0
20
0
30
0
70
128
71
17
72
19
73
20
0
VERTEX
8
OBJECT__18
10
0
20
0
30
0
70
128
71
17
72
20
73
18
0
VERTEX
8
OBJECT__18
10
0
20
0
30
0
70
128
71
19
72
21
73
22
0
VERTEX
8
OBJECT__18
10
0
20
0
30
0
70
128
71
19
72
22
73
20
0
VERTEX
8
OBJECT__18
10
0
20
0
30
0
70
128
71
21
72
23
73
24
0
VERTEX
8
OBJECT__18
10
0
20
0
30
0
70
128
71
21
72
24
73
22
0
VERTEX
8
OBJECT__18
10
0
20
0
30
0
70
128
71
23
72
25
73
26
0
VERTEX
8
OBJECT__18
10
0
20
0
30
0
70
128
71
23
72
26
73
24
0
VERTEX
8
OBJECT__18
10
0
20
0
30
0
70
128
71
25
72
27
73
28
0
VERTEX
8
OBJECT__18
10
0
20
0
30
0
70
128
71
25
72
28
73
26
0
VERTEX
8
OBJECT__18
10
0
20
0
30
0
70
128
71
27
72
29
73
30
0
VERTEX
8
OBJECT__18
10
0
20
0
30
0
70
128
71
27
72
30
73
28
0
VERTEX
8
OBJECT__18
10
0
20
0
30
0
70
128
71
29
72
31
73
32
0
VERTEX
8
OBJECT__18
10
0
20
0
30
0
70
128
71
29
72
32
73
30
0
VERTEX
8
OBJECT__18
10
0
20
0
30
0
70
128
71
31
72
33
73
34
0
VERTEX
8
OBJECT__18
10
0
20
0
30
0
70
128
71
31
72
34
73
32
0
VERTEX
8
OBJECT__18
10
0
20
0
30
0
70
128
71
33
72
1
73
4
0
VERTEX
8
OBJECT__18
10
0
20
0
30
0
70
128
71
33
72
4
73
34
0
VERTEX
8
OBJECT__18
10
0
20
0
30
0
70
128
71
4
72
3
73
35
0
VERTEX
8
OBJECT__18
10
0
20
0
30
0
70
128
71
4
72
35
73
36
0
VERTEX
8
OBJECT__18
10
0
20
0
30
0
70
128
71
3
72
6
73
37
0
VERTEX
8
OBJECT__18
10
0
20
0
30
0
70
128
71
3
72
37
73
35
0
VERTEX
8
OBJECT__18
10
0
20
0
30
0
70
128
71
6
72
8
73
38
0
VERTEX
8
OBJECT__18
10
0
20
0
30
0
70
128
71
6
72
38
73
37
0
VERTEX
8
OBJECT__18
10
0
20
0
30
0
70
128
71
8
72
10
73
39
0
VERTEX
8
OBJECT__18
10
0
20
0
30
0
70
128
71
8
72
39
73
38
0
VERTEX
8
OBJECT__18
10
0
20
0
30
0
70
128
71
10
72
12
73
40
0
VERTEX
8
OBJECT__18
10
0
20
0
30
0
70
128
71
10
72
40
73
39
0
VERTEX
8
OBJECT__18
10
0
20
0
30
0
70
128
71
12
72
14
73
41
0
VERTEX
8
OBJECT__18
10
0
20
0
30
0
70
128
71
12
72
41
73
40
0
VERTEX
8
OBJECT__18
10
0
20
0
30
0
70
128
71
14
72
16
73
42
0
VERTEX
8
OBJECT__18
10
0
20
0
30
0
70
128
71
14
72
42
73
41
0
VERTEX
8
OBJECT__18
10
0
20
0
30
0
70
128
71
16
72
18
73
43
0
VERTEX
8
OBJECT__18
10
0
20
0
30
0
70
128
71
16
72
43
73
42
0
VERTEX
8
OBJECT__18
10
0
20
0
30
0
70
128
71
18
72
20
73
44
0
VERTEX
8
OBJECT__18
10
0
20
0
30
0
70
128
71
18
72
44
73
43
0
VERTEX
8
OBJECT__18
10
0
20
0
30
0
70
128
71
20
72
22
73
45
0
VERTEX
8
OBJECT__18
10
0
20
0
30
0
70
128
71
20
72
45
73
44
0
VERTEX
8
OBJECT__18
10
0
20
0
30
0
70
128
71
22
72
24
73
46
0
VERTEX
8
OBJECT__18
10
0
20
0
30
0
70
128
71
22
72
46
73
45
0
VERTEX
8
OBJECT__18
10
0
20
0
30
0
70
128
71
24
72
26
73
47
0
VERTEX
8
OBJECT__18
10
0
20
0
30
0
70
128
71
24
72
47
73
46
0
VERTEX
8
OBJECT__18
10
0
20
0
30
0
70
128
71
26
72
28
73
48
0
VERTEX
8
OBJECT__18
10
0
20
0
30
0
70
128
71
26
72
48
73
47
0
VERTEX
8
OBJECT__18
10
0
20
0
30
0
70
128
71
28
72
30
73
49
0
VERTEX
8
OBJECT__18
10
0
20
0
30
0
70
128
71
28
72
49
73
48
0
VERTEX
8
OBJECT__18
10
0
20
0
30
0
70
128
71
30
72
32
73
50
0
VERTEX
8
OBJECT__18
10
0
20
0
30
0
70
128
71
30
72
50
73
49
0
VERTEX
8
OBJECT__18
10
0
20
0
30
0
70
128
71
32
72
34
73
51
0
VERTEX
8
OBJECT__18
10
0
20
0
30
0
70
128
71
32
72
51
73
50
0
VERTEX
8
OBJECT__18
10
0
20
0
30
0
70
128
71
34
72
4
73
36
0
VERTEX
8
OBJECT__18
10
0
20
0
30
0
70
128
71
34
72
36
73
51
0
SEQEND
8
OBJECT__18
0
POLYLINE
8
OBJECT__20
66
1
70
64
71
18
72
18
62
253
0
VERTEX
8
OBJECT__20
10
78.987999
20
-8.637000
30
65.730003
70
192
0
VERTEX
8
OBJECT__20
10
78.987999
20
-11.275000
30
72.976997
70
192
0
VERTEX
8
OBJECT__20
10
70.962997
20
-11.275000
30
72.976997
70
192
0
VERTEX
8
OBJECT__20
10
78.987999
20
-1.958000
30
61.874001
70
192
0
VERTEX
8
OBJECT__20
10
70.962997
20
-8.637000
30
65.730003
70
192
0
VERTEX
8
OBJECT__20
10
78.987999
20
5.638000
30
63.213001
70
192
0
VERTEX
8
OBJECT__20
10
70.962997
20
-1.958000
30
61.874001
70
192
0
VERTEX
8
OBJECT__20
10
78.987999
20
10.595000
30
69.121002
70
192
0
VERTEX
8
OBJECT__20
10
70.962997
20
5.638000
30
63.213001
70
192
0
VERTEX
8
OBJECT__20
10
70.962997
20
10.595000
30
76.834000
70
192
0
VERTEX
8
OBJECT__20
10
78.987999
20
10.595000
30
76.834000
70
192
0
VERTEX
8
OBJECT__20
10
70.962997
20
5.638000
30
82.741997
70
192
0
VERTEX
8
OBJECT__20
10
78.987999
20
5.638000
30
82.741997
70
192
0
VERTEX
8
OBJECT__20
10
70.962997
20
-1.958000
30
84.081001
70
192
0
VERTEX
8
OBJECT__20
10
78.987999
20
-1.958000
30
84.081001
70
192
0
VERTEX
8
OBJECT__20
10
70.962997
20
-8.637000
30
80.224998
70
192
0
VERTEX
8
OBJECT__20
10
78.987999
20
-8.637000
30
80.224998
70
192
0
VERTEX
8
OBJECT__20
10
70.962997
20
10.595000
30
69.121002
70
192
0
VERTEX
8
OBJECT__20
10
0
20
0
30
0
70
128
71
1
72
2
73
3
0
VERTEX
8
OBJECT__20
10
0
20
0
30
0
70
128
71
4
72
1
73
5
0
VERTEX
8
OBJECT__20
10
0
20
0
30
0
70
128
71
6
72
4
73
7
0
VERTEX
8
OBJECT__20
10
0
20
0
30
0
70
128
71
8
72
6
73
9
0
VERTEX
8
OBJECT__20
10
0
20
0
30
0
70
128
71
10
72
11
73
8
0
VERTEX
8
OBJECT__20
10
0
20
0
30
0
70
128
71
12
72
13
73
11
0
VERTEX
8
OBJECT__20
10
0
20
0
30
0
70
128
71
14
72
15
73
13
0
VERTEX
8
OBJECT__20
10
0
20
0
30
0
70
128
71
16
72
17
73
15
0
VERTEX
8
OBJECT__20
10
0
20
0
30
0
70
128
71
3
72
2
73
17
0
VERTEX
8
OBJECT__20
10
0
20
0
30
0
70
128
71
17
72
16
73
3
0
VERTEX
8
OBJECT__20
10
0
20
0
30
0
70
128
71
15
72
14
73
16
0
VERTEX
8
OBJECT__20
10
0
20
0
30
0
70
128
71
13
72
12
73
14
0
VERTEX
8
OBJECT__20
10
0
20
0
30
0
70
128
71
11
72
10
73
12
0
VERTEX
8
OBJECT__20
10
0
20
0
30
0
70
128
71
8
72
18
73
10
0
VERTEX
8
OBJECT__20
10
0
20
0
30
0
70
128
71
9
72
18
73
8
0
VERTEX
8
OBJECT__20
10
0
20
0
30
0
70
128
71
7
72
9
73
6
0
VERTEX
8
OBJECT__20
10
0
20
0
30
0
70
128
71
5
72
7
73
4
0
VERTEX
8
OBJECT__20
10
0
20
0
30
0
70
128
71
3
72
5
73
1
0
SEQEND
8
OBJECT__20
0
POLYLINE
8
OBJECT__21
66
1
70
64
71
18
72
18
62
253
0
VERTEX
8
OBJECT__21
10
80.462997
20
-12.750000
30
72.976997
70
192
0
VERTEX
8
OBJECT__21
10
78.987999
20
-11.275000
30
72.976997
70
192
0
VERTEX
8
OBJECT__21
10
78.987999
20
-8.637000
30
65.730003
70
192
0
VERTEX
8
OBJECT__21
10
80.462997
20
-2.214000
30
60.421001
70
192
0
VERTEX
8
OBJECT__21
10
80.462997
20
-9.767000
30
64.781998
70
192
0
VERTEX
8
OBJECT__21
10
80.462997
20
6.375000
30
61.935001
70
192
0
VERTEX
8
OBJECT__21
10
78.987999
20
-1.958000
30
61.874001
70
192
0
VERTEX
8
OBJECT__21
10
80.462997
20
11.981000
30
68.616997
70
192
0
VERTEX
8
OBJECT__21
10
78.987999
20
5.638000
30
63.213001
70
192
0
VERTEX
8
OBJECT__21
10
80.462997
20
11.981000
30
77.337997
70
192
0
VERTEX
8
OBJECT__21
10
78.987999
20
10.595000
30
69.121002
70
192
0
VERTEX
8
OBJECT__21
10
80.462997
20
6.375000
30
84.018997
70
192
0
VERTEX
8
OBJECT__21
10
78.987999
20
10.595000
30
76.834000
70
192
0
VERTEX
8
OBJECT__21
10
78.987999
20
5.638000
30
82.741997
70
192
0
VERTEX
8
OBJECT__21
10
78.987999
20
-1.958000
30
84.081001
70
192
0
VERTEX
8
OBJECT__21
10
80.462997
20
-2.214000
30
85.533997
70
192
0
VERTEX
8
OBJECT__21
10
78.987999
20
-8.637000
30
80.224998
70
192
0
VERTEX
8
OBJECT__21
10
80.462997
20
-9.767000
30
81.172997
70
192
0
VERTEX
8
OBJECT__21
10
0
20
0
30
0
70
128
71
1
72
2
73
3
0
VERTEX
8
OBJECT__21
10
0
20
0
30
0
70
128
71
4
72
5
73
3
0
VERTEX
8
OBJECT__21
10
0
20
0
30
0
70
128
71
6
72
4
73
7
0
VERTEX
8
OBJECT__21
10
0
20
0
30
0
70
128
71
8
72
6
73
9
0
VERTEX
8
OBJECT__21
10
0
20
0
30
0
70
128
71
10
72
8
73
11
0
VERTEX
8
OBJECT__21
10
0
20
0
30
0
70
128
71
12
72
10
73
13
0
VERTEX
8
OBJECT__21
10
0
20
0
30
0
70
128
71
12
72
14
73
15
0
VERTEX
8
OBJECT__21
10
0
20
0
30
0
70
128
71
16
72
15
73
17
0
VERTEX
8
OBJECT__21
10
0
20
0
30
0
70
128
71
18
72
17
73
2
0
VERTEX
8
OBJECT__21
10
0
20
0
30
0
70
128
71
2
72
1
73
18
0
VERTEX
8
OBJECT__21
10
0
20
0
30
0
70
128
71
17
72
18
73
16
0
VERTEX
8
OBJECT__21
10
0
20
0
30
0
70
128
71
15
72
16
73
12
0
VERTEX
8
OBJECT__21
10
0
20
0
30
0
70
128
71
13
72
14
73
12
0
VERTEX
8
OBJECT__21
10
0
20
0
30
0
70
128
71
11
72
13
73
10
0
VERTEX
8
OBJECT__21
10
0
20
0
30
0
70
128
71
9
72
11
73
8
0
VERTEX
8
OBJECT__21
10
0
20
0
30
0
70
128
71
7
72
9
73
6
0
VERTEX
8
OBJECT__21
10
0
20
0
30
0
70
128
71
3
72
7
73
4
0
VERTEX
8
OBJECT__21
10
0
20
0
30
0
70
128
71
3
72
5
73
1
0
SEQEND
8
OBJECT__21
0
POLYLINE
8
OBJECT__23
66
1
70
64
71
18
72
18
62
253
0
VERTEX
8
OBJECT__23
10
88.462997
20
-9.767000
30
64.781998
70
192
0
VERTEX
8
OBJECT__23
10
88.462997
20
-12.750000
30
72.976997
70
192
0
VERTEX
8
OBJECT__23
10
80.462997
20
-12.750000
30
72.976997
70
192
0
VERTEX
8
OBJECT__23
10
88.462997
20
-2.214000
30
60.421001
70
192
0
VERTEX
8
OBJECT__23
10
80.462997
20
-9.767000
30
64.781998
70
192
0
VERTEX
8
OBJECT__23
10
88.462997
20
6.375000
30
61.935001
70
192
0
VERTEX
8
OBJECT__23
10
80.462997
20
-2.214000
30
60.421001
70
192
0
VERTEX
8
OBJECT__23
10
88.462997
20
11.981000
30
68.616997
70
192
0
VERTEX
8
OBJECT__23
10
80.462997
20
6.375000
30
61.935001
70
192
0
VERTEX
8
OBJECT__23
10
80.462997
20
11.981000
30
77.337997
70
192
0
VERTEX
8
OBJECT__23
10
88.462997
20
11.981000
30
77.337997
70
192
0
VERTEX
8
OBJECT__23
10
80.462997
20
6.375000
30
84.018997
70
192
0
VERTEX
8
OBJECT__23
10
88.462997
20
6.375000
30
84.018997
70
192
0
VERTEX
8
OBJECT__23
10
80.462997
20
-2.214000
30
85.533997
70
192
0
VERTEX
8
OBJECT__23
10
88.462997
20
-2.214000
30
85.533997
70
192
0
VERTEX
8
OBJECT__23
10
80.462997
20
-9.767000
30
81.172997
70
192
0
VERTEX
8
OBJECT__23
10
88.462997
20
-9.767000
30
81.172997
70
192
0
VERTEX
8
OBJECT__23
10
80.462997
20
11.981000
30
68.616997
70
192
0
VERTEX
8
OBJECT__23
10
0
20
0
30
0
70
128
71
1
72
2
73
3
0
VERTEX
8
OBJECT__23
10
0
20
0
30
0
70
128
71
4
72
1
73
5
0
VERTEX
8
OBJECT__23
10
0
20
0
30
0
70
128
71
6
72
4
73
7
0
VERTEX
8
OBJECT__23
10
0
20
0
30
0
70
128
71
8
72
6
73
9
0
VERTEX
8
OBJECT__23
10
0
20
0
30
0
70
128
71
10
72
11
73
8
0
VERTEX
8
OBJECT__23
10
0
20
0
30
0
70
128
71
12
72
13
73
11
0
VERTEX
8
OBJECT__23
10
0
20
0
30
0
70
128
71
14
72
15
73
13
0
VERTEX
8
OBJECT__23
10
0
20
0
30
0
70
128
71
16
72
17
73
15
0
VERTEX
8
OBJECT__23
10
0
20
0
30
0
70
128
71
3
72
2
73
17
0
VERTEX
8
OBJECT__23
10
0
20
0
30
0
70
128
71
17
72
16
73
3
0
VERTEX
8
OBJECT__23
10
0
20
0
30
0
70
128
71
15
72
14
73
16
0
VERTEX
8
OBJECT__23
10
0
20
0
30
0
70
128
71
13
72
12
73
14
0
VERTEX
8
OBJECT__23
10
0
20
0
30
0
70
128
71
11
72
10
73
12
0
VERTEX
8
OBJECT__23
10
0
20
0
30
0
70
128
71
8
72
18
73
10
0
VERTEX
8
OBJECT__23
10
0
20
0
30
0
70
128
71
9
72
18
73
8
0
VERTEX
8
OBJECT__23
10
0
20
0
30
0
70
128
71
7
72
9
73
6
0
VERTEX
8
OBJECT__23
10
0
20
0
30
0
70
128
71
5
72
7
73
4
0
VERTEX
8
OBJECT__23
10
0
20
0
30
0
70
128
71
3
72
5
73
1
0
SEQEND
8
OBJECT__23
0
POLYLINE
8
OBJECT__24
66
1
70
64
71
9
72
7
62
253
0
VERTEX
8
OBJECT__24
10
88.462997
20
-9.767000
30
81.172997
70
192
0
VERTEX
8
OBJECT__24
10
88.462997
20
-9.767000
30
64.781998
70
192
0
VERTEX
8
OBJECT__24
10
88.462997
20
-2.214000
30
60.421001
70
192
0
VERTEX
8
OBJECT__24
10
88.462997
20
-12.750000
30
72.976997
70
192
0
VERTEX
8
OBJECT__24
10
88.462997
20
11.981000
30
77.337997
70
192
0
VERTEX
8
OBJECT__24
10
88.462997
20
6.375000
30
84.018997
70
192
0
VERTEX
8
OBJECT__24
10
88.462997
20
6.375000
30
61.935001
70
192
0
VERTEX
8
OBJECT__24
10
88.462997
20
11.981000
30
68.616997
70
192
0
VERTEX
8
OBJECT__24
10
88.462997
20
-2.214000
30
85.533997
70
192
0
VERTEX
8
OBJECT__24
10
0
20
0
30
0
70
128
71
1
72
2
73
3
0
VERTEX
8
OBJECT__24
10
0
20
0
30
0
70
128
71
1
72
4
73
2
0
VERTEX
8
OBJECT__24
10
0
20
0
30
0
70
128
71
1
72
5
73
6
0
VERTEX
8
OBJECT__24
10
0
20
0
30
0
70
128
71
3
72
7
73
1
0
VERTEX
8
OBJECT__24
10
0
20
0
30
0
70
128
71
1
72
8
73
5
0
VERTEX
8
OBJECT__24
10
0
20
0
30
0
70
128
71
6
72
9
73
1
0
VERTEX
8
OBJECT__24
10
0
20
0
30
0
70
128
71
7
72
8
73
1
0
SEQEND
8
OBJECT__24
0
POLYLINE
8
OBJECT__25
66
1
70
64
71
18
72
16
62
253
0
VERTEX
8
OBJECT__25
10
-14.463000
20
17.236000
30
0.000000
70
192
0
VERTEX
8
OBJECT__25
10
-7.695000
20
21.143000
30
0.000000
70
192
0
VERTEX
8
OBJECT__25
10
0.000000
20
22.500000
30
0.000000
70
192
0
VERTEX
8
OBJECT__25
10
-14.463000
20
-17.236000
30
0.000000
70
192
0
VERTEX
8
OBJECT__25
10
22.158001
20
3.907000
30
0.000000
70
192
0
VERTEX
8
OBJECT__25
10
22.158001
20
-3.907000
30
0.000000
70
192
0
VERTEX
8
OBJECT__25
10
7.695000
20
21.143000
30
0.000000
70
192
0
VERTEX
8
OBJECT__25
10
7.695000
20
-21.143000
30
0.000000
70
192
0
VERTEX
8
OBJECT__25
10
0.000000
20
-22.500000
30
0.000000
70
192
0
VERTEX
8
OBJECT__25
10
19.486000
20
-11.250000
30
0.000000
70
192
0
VERTEX
8
OBJECT__25
10
14.463000
20
-17.236000
30
0.000000
70
192
0
VERTEX
8
OBJECT__25
10
19.486000
20
11.250000
30
0.000000
70
192
0
VERTEX
8
OBJECT__25
10
14.463000
20
17.236000
30
0.000000
70
192
0
VERTEX
8
OBJECT__25
10
-19.486000
20
11.250000
30
0.000000
70
192
0
VERTEX
8
OBJECT__25
10
-19.486000
20
-11.250000
30
0.000000
70
192
0
VERTEX
8
OBJECT__25
10
-22.158001
20
3.907000
30
0.000000
70
192
0
VERTEX
8
OBJECT__25
10
-22.158001
20
-3.907000
30
0.000000
70
192
0
VERTEX
8
OBJECT__25
10
-7.695000
20
-21.143000
30
0.000000
70
192
0
VERTEX
8
OBJECT__25
10
0
20
0
30
0
70
128
71
1
72
2
73
3
0
VERTEX
8
OBJECT__25
10
0
20
0
30
0
70
128
71
4
72
5
73
6
0
VERTEX
8
OBJECT__25
10
0
20
0
30
0
70
128
71
3
72
7
73
1
0
VERTEX
8
OBJECT__25
10
0
20
0
30
0
70
128
71
4
72
8
73
9
0
VERTEX
8
OBJECT__25
10
0
20
0
30
0
70
128
71
4
72
10
73
11
0
VERTEX
8
OBJECT__25
10
0
20
0
30
0
70
128
71
4
72
12
73
5
0
VERTEX
8
OBJECT__25
10
0
20
0
30
0
70
128
71
13
72
14
73
1
0
VERTEX
8
OBJECT__25
10
0
20
0
30
0
70
128
71
13
72
4
73
15
0
VERTEX
8
OBJECT__25
10
0
20
0
30
0
70
128
71
11
72
8
73
4
0
VERTEX
8
OBJECT__25
10
0
20
0
30
0
70
128
71
4
72
13
73
12
0
VERTEX
8
OBJECT__25
10
0
20
0
30
0
70
128
71
13
72
16
73
14
0
VERTEX
8
OBJECT__25
10
0
20
0
30
0
70
128
71
15
72
17
73
13
0
VERTEX
8
OBJECT__25
10
0
20
0
30
0
70
128
71
6
72
10
73
4
0
VERTEX
8
OBJECT__25
10
0
20
0
30
0
70
128
71
17
72
16
73
13
0
VERTEX
8
OBJECT__25
10
0
20
0
30
0
70
128
71
7
72
13
73
1
0
VERTEX
8
OBJECT__25
10
0
20
0
30
0
70
128
71
9
72
18
73
4
0
SEQEND
8
OBJECT__25
0
POLYLINE
8
OBJECT__26
66
1
70
64
71
48
72
48
62
253
0
VERTEX
8
OBJECT__26
10
0.000000
20
22.500000
30
0.000000
70
192
0
VERTEX
8
OBJECT__26
10
0.000000
20
23.000000
30
0.500000
70
192
0
VERTEX
8
OBJECT__26
10
5.453000
20
22.039000
30
0.500000
70
192
0
VERTEX
8
OBJECT__26
10
7.695000
20
21.143000
30
0.000000
70
192
0
VERTEX
8
OBJECT__26
10
14.784000
20
17.618999
30
0.500000
70
192
0
VERTEX
8
OBJECT__26
10
14.463000
20
17.236000
30
0.000000
70
192
0
VERTEX
8
OBJECT__26
10
19.486000
20
11.250000
30
0.000000
70
192
0
VERTEX
8
OBJECT__26
10
15.176000
20
17.152000
30
0.500000
70
192
0
VERTEX
8
OBJECT__26
10
22.158001
20
3.907000
30
0.000000
70
192
0
VERTEX
8
OBJECT__26
10
21.179001
20
8.037000
30
0.500000
70
192
0
VERTEX
8
OBJECT__26
10
19.919001
20
11.500000
30
0.500000
70
192
0
VERTEX
8
OBJECT__26
10
22.650999
20
3.994000
30
0.500000
70
192
0
VERTEX
8
OBJECT__26
10
22.650999
20
-2.772000
30
0.500000
70
192
0
VERTEX
8
OBJECT__26
10
22.158001
20
-3.907000
30
0.000000
70
192
0
VERTEX
8
OBJECT__26
10
22.650999
20
-3.994000
30
0.500000
70
192
0
VERTEX
8
OBJECT__26
10
19.919001
20
-11.500000
30
0.500000
70
192
0
VERTEX
8
OBJECT__26
10
19.486000
20
-11.250000
30
0.000000
70
192
0
VERTEX
8
OBJECT__26
10
14.463000
20
-17.236000
30
0.000000
70
192
0
VERTEX
8
OBJECT__26
10
18.739000
20
-12.906000
30
0.500000
70
192
0
VERTEX
8
OBJECT__26
10
14.784000
20
-17.618999
30
0.500000
70
192
0
VERTEX
8
OBJECT__26
10
10.523000
20
-20.079000
30
0.500000
70
192
0
VERTEX
8
OBJECT__26
10
7.695000
20
-21.143000
30
0.000000
70
192
0
VERTEX
8
OBJECT__26
10
0.000000
20
-23.000000
30
0.500000
70
192
0
VERTEX
8
OBJECT__26
10
0.000000
20
-22.500000
30
0.000000
70
192
0
VERTEX
8
OBJECT__26
10
-7.866000
20
-21.613001
30
0.500000
70
192
0
VERTEX
8
OBJECT__26
10
-7.695000
20
-21.143000
30
0.000000
70
192
0
VERTEX
8
OBJECT__26
10
-14.463000
20
-17.236000
30
0.000000
70
192
0
VERTEX
8
OBJECT__26
10
-10.523000
20
-20.079000
30
0.500000
70
192
0
VERTEX
8
OBJECT__26
10
-14.784000
20
-17.618999
30
0.500000
70
192
0
VERTEX
8
OBJECT__26
10
-18.739000
20
-12.906000
30
0.500000
70
192
0
VERTEX
8
OBJECT__26
10
-19.486000
20
-11.250000
30
0.000000
70
192
0
VERTEX
8
OBJECT__26
10
-19.919001
20
-11.500000
30
0.500000
70
192
0
VERTEX
8
OBJECT__26
10
-22.650999
20
-3.994000
30
0.500000
70
192
0
VERTEX
8
OBJECT__26
10
-22.158001
20
-3.907000
30
0.000000
70
192
0
VERTEX
8
OBJECT__26
10
-22.158001
20
3.907000
30
0.000000
70
192
0
VERTEX
8
OBJECT__26
10
-22.650999
20
-2.772000
30
0.500000
70
192
0
VERTEX
8
OBJECT__26
10
-22.650999
20
3.994000
30
0.500000
70
192
0
VERTEX
8
OBJECT__26
10
-21.179001
20
8.037000
30
0.500000
70
192
0
VERTEX
8
OBJECT__26
10
-19.486000
20
11.250000
30
0.000000
70
192
0
VERTEX
8
OBJECT__26
10
-19.919001
20
11.500000
30
0.500000
70
192
0
VERTEX
8
OBJECT__26
10
-15.176000
20
17.152000
30
0.500000
70
192
0
VERTEX
8
OBJECT__26
10
-14.463000
20
17.236000
30
0.000000
70
192
0
VERTEX
8
OBJECT__26
10
-7.866000
20
21.613001
30
0.500000
70
192
0
VERTEX
8
OBJECT__26
10
-7.695000
20
21.143000
30
0.000000
70
192
0
VERTEX
8
OBJECT__26
10
-5.453000
20
22.039000
30
0.500000
70
192
0
VERTEX
8
OBJECT__26
10
-14.784000
20
17.618999
30
0.500000
70
192
0
VERTEX
8
OBJECT__26
10
7.866000
20
-21.613001
30
0.500000
70
192
0
VERTEX
8
OBJECT__26
10
7.866000
20
21.613001
30
0.500000
70
192
0
VERTEX
8
OBJECT__26
10
0
20
0
30
0
70
128
71
1
72
2
73
3
0
VERTEX
8
OBJECT__26
10
0
20
0
30
0
70
128
71
3
72
4
73
1
0
VERTEX
8
OBJECT__26
10
0
20
0
30
0
70
128
71
5
72
6
73
4
0
VERTEX
8
OBJECT__26
10
0
20
0
30
0
70
128
71
7
72
6
73
8
0
VERTEX
8
OBJECT__26
10
0
20
0
30
0
70
128
71
6
72
5
73
8
0
VERTEX
8
OBJECT__26
10
0
20
0
30
0
70
128
71
9
72
7
73
10
0
VERTEX
8
OBJECT__26
10
0
20
0
30
0
70
128
71
7
72
11
73
10
0
VERTEX
8
OBJECT__26
10
0
20
0
30
0
70
128
71
9
72
12
73
13
0
VERTEX
8
OBJECT__26
10
0
20
0
30
0
70
128
71
13
72
14
73
9
0
VERTEX
8
OBJECT__26
10
0
20
0
30
0
70
128
71
15
72
16
73
17
0
VERTEX
8
OBJECT__26
10
0
20
0
30
0
70
128
71
18
72
17
73
19
0
VERTEX
8
OBJECT__26
10
0
20
0
30
0
70
128
71
17
72
16
73
19
0
VERTEX
8
OBJECT__26
10
0
20
0
30
0
70
128
71
18
72
20
73
21
0
VERTEX
8
OBJECT__26
10
0
20
0
30
0
70
128
71
21
72
22
73
18
0
VERTEX
8
OBJECT__26
10
0
20
0
30
0
70
128
71
23
72
24
73
22
0
VERTEX
8
OBJECT__26
10
0
20
0
30
0
70
128
71
23
72
25
73
26
0
VERTEX
8
OBJECT__26
10
0
20
0
30
0
70
128
71
27
72
26
73
28
0
VERTEX
8
OBJECT__26
10
0
20
0
30
0
70
128
71
26
72
25
73
28
0
VERTEX
8
OBJECT__26
10
0
20
0
30
0
70
128
71
27
72
29
73
30
0
VERTEX
8
OBJECT__26
10
0
20
0
30
0
70
128
71
30
72
31
73
27
0
VERTEX
8
OBJECT__26
10
0
20
0
30
0
70
128
71
32
72
33
73
34
0
VERTEX
8
OBJECT__26
10
0
20
0
30
0
70
128
71
35
72
34
73
36
0
VERTEX
8
OBJECT__26
10
0
20
0
30
0
70
128
71
34
72
33
73
36
0
VERTEX
8
OBJECT__26
10
0
20
0
30
0
70
128
71
35
72
37
73
38
0
VERTEX
8
OBJECT__26
10
0
20
0
30
0
70
128
71
38
72
39
73
35
0
VERTEX
8
OBJECT__26
10
0
20
0
30
0
70
128
71
39
72
40
73
41
0
VERTEX
8
OBJECT__26
10
0
20
0
30
0
70
128
71
41
72
42
73
39
0
VERTEX
8
OBJECT__26
10
0
20
0
30
0
70
128
71
43
72
44
73
42
0
VERTEX
8
OBJECT__26
10
0
20
0
30
0
70
128
71
1
72
44
73
45
0
VERTEX
8
OBJECT__26
10
0
20
0
30
0
70
128
71
44
72
43
73
45
0
VERTEX
8
OBJECT__26
10
0
20
0
30
0
70
128
71
45
72
2
73
1
0
VERTEX
8
OBJECT__26
10
0
20
0
30
0
70
128
71
42
72
46
73
43
0
VERTEX
8
OBJECT__26
10
0
20
0
30
0
70
128
71
41
72
46
73
42
0
VERTEX
8
OBJECT__26
10
0
20
0
30
0
70
128
71
38
72
40
73
39
0
VERTEX
8
OBJECT__26
10
0
20
0
30
0
70
128
71
36
72
37
73
35
0
VERTEX
8
OBJECT__26
10
0
20
0
30
0
70
128
71
34
72
31
73
32
0
VERTEX
8
OBJECT__26
10
0
20
0
30
0
70
128
71
30
72
32
73
31
0
VERTEX
8
OBJECT__26
10
0
20
0
30
0
70
128
71
28
72
29
73
27
0
VERTEX
8
OBJECT__26
10
0
20
0
30
0
70
128
71
26
72
24
73
23
0
VERTEX
8
OBJECT__26
10
0
20
0
30
0
70
128
71
22
72
47
73
23
0
VERTEX
8
OBJECT__26
10
0
20
0
30
0
70
128
71
21
72
47
73
22
0
VERTEX
8
OBJECT__26
10
0
20
0
30
0
70
128
71
19
72
20
73
18
0
VERTEX
8
OBJECT__26
10
0
20
0
30
0
70
128
71
17
72
14
73
15
0
VERTEX
8
OBJECT__26
10
0
20
0
30
0
70
128
71
13
72
15
73
14
0
VERTEX
8
OBJECT__26
10
0
20
0
30
0
70
128
71
10
72
12
73
9
0
VERTEX
8
OBJECT__26
10
0
20
0
30
0
70
128
71
8
72
11
73
7
0
VERTEX
8
OBJECT__26
10
0
20
0
30
0
70
128
71
4
72
48
73
5
0
VERTEX
8
OBJECT__26
10
0
20
0
30
0
70
128
71
3
72
48
73
4
0
SEQEND
8
OBJECT__26
0
POLYLINE
8
OBJECT__28
66
1
70
64
71
100
72
102
62
253
0
VERTEX
8
OBJECT__28
10
10.523000
20
-20.079000
30
116.500000
70
192
0
VERTEX
8
OBJECT__28
10
7.866000
20
-21.613001
30
116.500000
70
192
0
VERTEX
8
OBJECT__28
10
7.866000
20
-21.613001
30
0.500000
70
192
0
VERTEX
8
OBJECT__28
10
0.000000
20
-23.000000
30
0.500000
70
192
0
VERTEX
8
OBJECT__28
10
0.000000
20
-23.000000
30
116.500000
70
192
0
VERTEX
8
OBJECT__28
10
-5.453000
20
22.039000
30
116.500000
70
192
0
VERTEX
8
OBJECT__28
10
0.000000
20
23.000000
30
116.500000
70
192
0
VERTEX
8
OBJECT__28
10
0.000000
20
23.000000
30
0.500000
70
192
0
VERTEX
8
OBJECT__28
10
5.453000
20
22.039000
30
0.500000
70
192
0
VERTEX
8
OBJECT__28
10
5.453000
20
22.039000
30
116.500000
70
192
0
VERTEX
8
OBJECT__28
10
-15.176000
20
17.152000
30
116.500000
70
192
0
VERTEX
8
OBJECT__28
10
-14.784000
20
17.618999
30
116.500000
70
192
0
VERTEX
8
OBJECT__28
10
-14.784000
20
17.618999
30
0.500000
70
192
0
VERTEX
8
OBJECT__28
10
-7.866000
20
21.613001
30
0.500000
70
192
0
VERTEX
8
OBJECT__28
10
-7.866000
20
21.613001
30
116.500000
70
192
0
VERTEX
8
OBJECT__28
10
-5.453000
20
22.039000
30
0.500000
70
192
0
VERTEX
8
OBJECT__28
10
-21.179001
20
8.037000
30
116.500000
70
192
0
VERTEX
8
OBJECT__28
10
-19.919001
20
11.500000
30
116.500000
70
192
0
VERTEX
8
OBJECT__28
10
-19.919001
20
11.500000
30
0.500000
70
192
0
VERTEX
8
OBJECT__28
10
-15.176000
20
17.152000
30
0.500000
70
192
0
VERTEX
8
OBJECT__28
10
-22.650999
20
-2.772000
30
116.500000
70
192
0
VERTEX
8
OBJECT__28
10
-22.650999
20
3.994000
30
116.500000
70
192
0
VERTEX
8
OBJECT__28
10
-22.650999
20
3.994000
30
0.500000
70
192
0
VERTEX
8
OBJECT__28
10
-21.179001
20
8.037000
30
0.500000
70
192
0
VERTEX
8
OBJECT__28
10
-18.739000
20
-12.906000
30
116.500000
70
192
0
VERTEX
8
OBJECT__28
10
-19.919001
20
-11.500000
30
116.500000
70
192
0
VERTEX
8
OBJECT__28
10
-19.919001
20
-11.500000
30
0.500000
70
192
0
VERTEX
8
OBJECT__28
10
-22.650999
20
-3.994000
30
0.500000
70
192
0
VERTEX
8
OBJECT__28
10
-22.650999
20
-3.994000
30
116.500000
70
192
0
VERTEX
8
OBJECT__28
10
-22.650999
20
-2.772000
30
0.500000
70
192
0
VERTEX
8
OBJECT__28
10
-10.523000
20
-20.079000
30
116.500000
70
192
0
VERTEX
8
OBJECT__28
10
-14.784000
20
-17.618999
30
116.500000
70
192
0
VERTEX
8
OBJECT__28
10
-14.784000
20
-17.618999
30
0.500000
70
192
0
VERTEX
8
OBJECT__28
10
-18.739000
20
-12.906000
30
0.500000
70
192
0
VERTEX
8
OBJECT__28
10
-7.866000
20
-21.613001
30
116.500000
70
192
0
VERTEX
8
OBJECT__28
10
-7.866000
20
-21.613001
30
0.500000
70
192
0
VERTEX
8
OBJECT__28
10
-10.523000
20
-20.079000
30
0.500000
70
192
0
VERTEX
8
OBJECT__28
10
19.919001
20
11.500000
30
0.500000
70
192
0
VERTEX
8
OBJECT__28
10
20.325001
20
10.765000
30
51.784000
70
192
0
VERTEX
8
OBJECT__28
10
21.468000
20
8.140000
30
50.049999
70
192
0
VERTEX
8
OBJECT__28
10
21.179001
20
8.037000
30
0.500000
70
192
0
VERTEX
8
OBJECT__28
10
15.176000
20
17.152000
30
0.500000
70
192
0
VERTEX
8
OBJECT__28
10
18.351000
20
13.866000
30
54.776001
70
192
0
VERTEX
8
OBJECT__28
10
19.131001
20
12.640000
30
53.592999
70
192
0
VERTEX
8
OBJECT__28
10
15.224000
20
17.180000
30
58.521999
70
192
0
VERTEX
8
OBJECT__28
10
15.674000
20
16.833000
30
58.075001
70
192
0
VERTEX
8
OBJECT__28
10
15.825000
20
16.665001
30
57.889000
70
192
0
VERTEX
8
OBJECT__28
10
22.650999
20
-2.772000
30
0.500000
70
192
0
VERTEX
8
OBJECT__28
10
22.650999
20
3.994000
30
0.500000
70
192
0
VERTEX
8
OBJECT__28
10
22.992001
20
0.602000
30
47.737000
70
192
0
VERTEX
8
OBJECT__28
10
22.962999
20
0.006000
30
47.780998
70
192
0
VERTEX
8
OBJECT__28
10
22.674000
20
3.726000
30
48.221001
70
192
0
VERTEX
8
OBJECT__28
10
22.642000
20
4.045000
30
48.270000
70
192
0
VERTEX
8
OBJECT__28
10
21.726999
20
7.547000
30
49.658001
70
192
0
VERTEX
8
OBJECT__28
10
21.830999
20
7.148000
30
49.500000
70
192
0
VERTEX
8
OBJECT__28
10
18.739000
20
-12.906000
30
0.500000
70
192
0
VERTEX
8
OBJECT__28
10
19.440001
20
-12.291000
30
53.125000
70
192
0
VERTEX
8
OBJECT__28
10
19.136999
20
-12.686000
30
53.556999
70
192
0
VERTEX
8
OBJECT__28
10
21.094000
20
-9.168000
30
50.618999
70
192
0
VERTEX
8
OBJECT__28
10
22.132999
20
-6.255000
30
49.042000
70
192
0
VERTEX
8
OBJECT__28
10
21.823000
20
-7.123000
30
49.512001
70
192
0
VERTEX
8
OBJECT__28
10
22.653999
20
-3.675000
30
48.250999
70
192
0
VERTEX
8
OBJECT__28
10
19.919001
20
-11.500000
30
0.500000
70
192
0
VERTEX
8
OBJECT__28
10
22.826000
20
-2.824000
30
47.990002
70
192
0
VERTEX
8
OBJECT__28
10
22.650999
20
-3.994000
30
0.500000
70
192
0
VERTEX
8
OBJECT__28
10
22.827999
20
-2.772000
30
47.987000
70
192
0
VERTEX
8
OBJECT__28
10
17.920000
20
-14.418000
30
87.976997
70
192
0
VERTEX
8
OBJECT__28
10
18.739000
20
-12.906000
30
116.500000
70
192
0
VERTEX
8
OBJECT__28
10
14.784000
20
-17.618999
30
116.500000
70
192
0
VERTEX
8
OBJECT__28
10
12.345000
20
-19.406000
30
87.976997
70
192
0
VERTEX
8
OBJECT__28
10
10.523000
20
-20.079000
30
0.500000
70
192
0
VERTEX
8
OBJECT__28
10
12.349000
20
-19.403999
30
61.379002
70
192
0
VERTEX
8
OBJECT__28
10
12.345000
20
-19.406000
30
74.680000
70
192
0
VERTEX
8
OBJECT__28
10
14.784000
20
-17.618999
30
0.500000
70
192
0
VERTEX
8
OBJECT__28
10
18.875999
20
-13.026000
30
53.926998
70
192
0
VERTEX
8
OBJECT__28
10
16.891001
20
-15.610000
30
56.748001
70
192
0
VERTEX
8
OBJECT__28
10
15.788000
20
-16.601000
30
57.884998
70
192
0
VERTEX
8
OBJECT__28
10
13.710000
20
-18.466999
30
60.027000
70
192
0
VERTEX
8
OBJECT__28
10
19.919001
20
-11.500000
30
116.500000
70
192
0
VERTEX
8
OBJECT__28
10
18.733999
20
-12.957000
30
87.976997
70
192
0
VERTEX
8
OBJECT__28
10
21.693001
20
-7.643000
30
87.976997
70
192
0
VERTEX
8
OBJECT__28
10
22.650999
20
-3.994000
30
116.500000
70
192
0
VERTEX
8
OBJECT__28
10
22.535000
20
-2.721000
30
87.976997
70
192
0
VERTEX
8
OBJECT__28
10
22.650999
20
-2.772000
30
116.500000
70
192
0
VERTEX
8
OBJECT__28
10
23.000000
20
0.000000
30
87.976997
70
192
0
VERTEX
8
OBJECT__28
10
21.693001
20
7.643000
30
87.976997
70
192
0
VERTEX
8
OBJECT__28
10
22.650999
20
3.994000
30
116.500000
70
192
0
VERTEX
8
OBJECT__28
10
21.179001
20
8.037000
30
116.500000
70
192
0
VERTEX
8
OBJECT__28
10
21.431000
20
8.114000
30
87.976997
70
192
0
VERTEX
8
OBJECT__28
10
17.920000
20
14.418000
30
87.976997
70
192
0
VERTEX
8
OBJECT__28
10
19.919001
20
11.500000
30
116.500000
70
192
0
VERTEX
8
OBJECT__28
10
15.176000
20
17.152000
30
116.500000
70
192
0
VERTEX
8
OBJECT__28
10
15.048000
20
16.988001
30
87.976997
70
192
0
VERTEX
8
OBJECT__28
10
7.866000
20
21.613001
30
0.500000
70
192
0
VERTEX
8
OBJECT__28
10
12.348000
20
19.403999
30
61.382999
70
192
0
VERTEX
8
OBJECT__28
10
14.784000
20
17.618999
30
0.500000
70
192
0
VERTEX
8
OBJECT__28
10
12.345000
20
19.406000
30
74.675003
70
192
0
VERTEX
8
OBJECT__28
10
12.345000
20
19.406000
30
87.976997
70
192
0
VERTEX
8
OBJECT__28
10
14.784000
20
17.618999
30
116.500000
70
192
0
VERTEX
8
OBJECT__28
10
7.866000
20
21.613001
30
116.500000
70
192
0
VERTEX
8
OBJECT__28
10
0
20
0
30
0
70
128
71
1
72
2
73
3
0
VERTEX
8
OBJECT__28
10
0
20
0
30
0
70
128
71
4
72
3
73
2
0
VERTEX
8
OBJECT__28
10
0
20
0
30
0
70
128
71
2
72
5
73
4
0
VERTEX
8
OBJECT__28
10
0
20
0
30
0
70
128
71
6
72
7
73
8
0
VERTEX
8
OBJECT__28
10
0
20
0
30
0
70
128
71
9
72
8
73
7
0
VERTEX
8
OBJECT__28
10
0
20
0
30
0
70
128
71
7
72
10
73
9
0
VERTEX
8
OBJECT__28
10
0
20
0
30
0
70
128
71
11
72
12
73
13
0
VERTEX
8
OBJECT__28
10
0
20
0
30
0
70
128
71
14
72
13
73
12
0
VERTEX
8
OBJECT__28
10
0
20
0
30
0
70
128
71
12
72
15
73
14
0
VERTEX
8
OBJECT__28
10
0
20
0
30
0
70
128
71
16
72
14
73
15
0
VERTEX
8
OBJECT__28
10
0
20
0
30
0
70
128
71
15
72
6
73
16
0
VERTEX
8
OBJECT__28
10
0
20
0
30
0
70
128
71
17
72
18
73
19
0
VERTEX
8
OBJECT__28
10
0
20
0
30
0
70
128
71
20
72
19
73
18
0
VERTEX
8
OBJECT__28
10
0
20
0
30
0
70
128
71
18
72
11
73
20
0
VERTEX
8
OBJECT__28
10
0
20
0
30
0
70
128
71
21
72
22
73
23
0
VERTEX
8
OBJECT__28
10
0
20
0
30
0
70
128
71
24
72
23
73
22
0
VERTEX
8
OBJECT__28
10
0
20
0
30
0
70
128
71
22
72
17
73
24
0
VERTEX
8
OBJECT__28
10
0
20
0
30
0
70
128
71
25
72
26
73
27
0
VERTEX
8
OBJECT__28
10
0
20
0
30
0
70
128
71
28
72
27
73
26
0
VERTEX
8
OBJECT__28
10
0
20
0
30
0
70
128
71
26
72
29
73
28
0
VERTEX
8
OBJECT__28
10
0
20
0
30
0
70
128
71
30
72
28
73
29
0
VERTEX
8
OBJECT__28
10
0
20
0
30
0
70
128
71
29
72
21
73
30
0
VERTEX
8
OBJECT__28
10
0
20
0
30
0
70
128
71
31
72
32
73
33
0
VERTEX
8
OBJECT__28
10
0
20
0
30
0
70
128
71
34
72
33
73
32
0
VERTEX
8
OBJECT__28
10
0
20
0
30
0
70
128
71
32
72
25
73
34
0
VERTEX
8
OBJECT__28
10
0
20
0
30
0
70
128
71
5
72
35
73
36
0
VERTEX
8
OBJECT__28
10
0
20
0
30
0
70
128
71
37
72
36
73
35
0
VERTEX
8
OBJECT__28
10
0
20
0
30
0
70
128
71
35
72
31
73
37
0
VERTEX
8
OBJECT__28
10
0
20
0
30
0
70
128
71
38
72
39
73
40
0
VERTEX
8
OBJECT__28
10
0
20
0
30
0
70
128
71
40
72
41
73
38
0
VERTEX
8
OBJECT__28
10
0
20
0
30
0
70
128
71
42
72
43
73
44
0
VERTEX
8
OBJECT__28
10
0
20
0
30
0
70
128
71
42
72
45
73
46
0
VERTEX
8
OBJECT__28
10
0
20
0
30
0
70
128
71
46
72
47
73
42
0
VERTEX
8
OBJECT__28
10
0
20
0
30
0
70
128
71
47
72
43
73
42
0
VERTEX
8
OBJECT__28
10
0
20
0
30
0
70
128
71
44
72
39
73
42
0
VERTEX
8
OBJECT__28
10
0
20
0
30
0
70
128
71
48
72
49
73
50
0
VERTEX
8
OBJECT__28
10
0
20
0
30
0
70
128
71
50
72
51
73
48
0
VERTEX
8
OBJECT__28
10
0
20
0
30
0
70
128
71
41
72
52
73
50
0
VERTEX
8
OBJECT__28
10
0
20
0
30
0
70
128
71
41
72
53
73
52
0
VERTEX
8
OBJECT__28
10
0
20
0
30
0
70
128
71
41
72
54
73
55
0
VERTEX
8
OBJECT__28
10
0
20
0
30
0
70
128
71
41
72
40
73
54
0
VERTEX
8
OBJECT__28
10
0
20
0
30
0
70
128
71
55
72
53
73
41
0
VERTEX
8
OBJECT__28
10
0
20
0
30
0
70
128
71
50
72
49
73
41
0
VERTEX
8
OBJECT__28
10
0
20
0
30
0
70
128
71
56
72
57
73
58
0
VERTEX
8
OBJECT__28
10
0
20
0
30
0
70
128
71
56
72
59
73
57
0
VERTEX
8
OBJECT__28
10
0
20
0
30
0
70
128
71
56
72
60
73
61
0
VERTEX
8
OBJECT__28
10
0
20
0
30
0
70
128
71
61
72
59
73
56
0
VERTEX
8
OBJECT__28
10
0
20
0
30
0
70
128
71
62
72
56
73
63
0
VERTEX
8
OBJECT__28
10
0
20
0
30
0
70
128
71
63
72
64
73
62
0
VERTEX
8
OBJECT__28
10
0
20
0
30
0
70
128
71
62
72
60
73
56
0
VERTEX
8
OBJECT__28
10
0
20
0
30
0
70
128
71
65
72
48
73
66
0
VERTEX
8
OBJECT__28
10
0
20
0
30
0
70
128
71
64
72
63
73
65
0
VERTEX
8
OBJECT__28
10
0
20
0
30
0
70
128
71
66
72
64
73
65
0
VERTEX
8
OBJECT__28
10
0
20
0
30
0
70
128
71
67
72
68
73
69
0
VERTEX
8
OBJECT__28
10
0
20
0
30
0
70
128
71
69
72
70
73
67
0
VERTEX
8
OBJECT__28
10
0
20
0
30
0
70
128
71
69
72
1
73
70
0
VERTEX
8
OBJECT__28
10
0
20
0
30
0
70
128
71
1
72
71
73
72
0
VERTEX
8
OBJECT__28
10
0
20
0
30
0
70
128
71
72
72
73
73
1
0
VERTEX
8
OBJECT__28
10
0
20
0
30
0
70
128
71
74
72
56
73
75
0
VERTEX
8
OBJECT__28
10
0
20
0
30
0
70
128
71
75
72
76
73
74
0
VERTEX
8
OBJECT__28
10
0
20
0
30
0
70
128
71
76
72
77
73
74
0
VERTEX
8
OBJECT__28
10
0
20
0
30
0
70
128
71
78
72
71
73
74
0
VERTEX
8
OBJECT__28
10
0
20
0
30
0
70
128
71
77
72
78
73
74
0
VERTEX
8
OBJECT__28
10
0
20
0
30
0
70
128
71
78
72
72
73
71
0
VERTEX
8
OBJECT__28
10
0
20
0
30
0
70
128
71
73
72
70
73
1
0
VERTEX
8
OBJECT__28
10
0
20
0
30
0
70
128
71
79
72
80
73
81
0
VERTEX
8
OBJECT__28
10
0
20
0
30
0
70
128
71
81
72
82
73
79
0
VERTEX
8
OBJECT__28
10
0
20
0
30
0
70
128
71
81
72
83
73
82
0
VERTEX
8
OBJECT__28
10
0
20
0
30
0
70
128
71
83
72
84
73
82
0
VERTEX
8
OBJECT__28
10
0
20
0
30
0
70
128
71
85
72
86
73
87
0
VERTEX
8
OBJECT__28
10
0
20
0
30
0
70
128
71
84
72
83
73
85
0
VERTEX
8
OBJECT__28
10
0
20
0
30
0
70
128
71
88
72
87
73
86
0
VERTEX
8
OBJECT__28
10
0
20
0
30
0
70
128
71
86
72
89
73
88
0
VERTEX
8
OBJECT__28
10
0
20
0
30
0
70
128
71
89
72
90
73
91
0
VERTEX
8
OBJECT__28
10
0
20
0
30
0
70
128
71
92
72
91
73
90
0
VERTEX
8
OBJECT__28
10
0
20
0
30
0
70
128
71
90
72
93
73
92
0
VERTEX
8
OBJECT__28
10
0
20
0
30
0
70
128
71
94
72
95
73
45
0
VERTEX
8
OBJECT__28
10
0
20
0
30
0
70
128
71
45
72
96
73
94
0
VERTEX
8
OBJECT__28
10
0
20
0
30
0
70
128
71
45
72
42
73
96
0
VERTEX
8
OBJECT__28
10
0
20
0
30
0
70
128
71
10
72
97
73
95
0
VERTEX
8
OBJECT__28
10
0
20
0
30
0
70
128
71
10
72
98
73
97
0
VERTEX
8
OBJECT__28
10
0
20
0
30
0
70
128
71
95
72
9
73
10
0
VERTEX
8
OBJECT__28
10
0
20
0
30
0
70
128
71
99
72
93
73
98
0
VERTEX
8
OBJECT__28
10
0
20
0
30
0
70
128
71
98
72
100
73
99
0
VERTEX
8
OBJECT__28
10
0
20
0
30
0
70
128
71
98
72
10
73
100
0
VERTEX
8
OBJECT__28
10
0
20
0
30
0
70
128
71
99
72
92
73
93
0
VERTEX
8
OBJECT__28
10
0
20
0
30
0
70
128
71
94
72
9
73
95
0
VERTEX
8
OBJECT__28
10
0
20
0
30
0
70
128
71
91
72
88
73
89
0
VERTEX
8
OBJECT__28
10
0
20
0
30
0
70
128
71
87
72
84
73
85
0
VERTEX
8
OBJECT__28
10
0
20
0
30
0
70
128
71
79
72
68
73
80
0
VERTEX
8
OBJECT__28
10
0
20
0
30
0
70
128
71
67
72
80
73
68
0
VERTEX
8
OBJECT__28
10
0
20
0
30
0
70
128
71
58
72
75
73
56
0
VERTEX
8
OBJECT__28
10
0
20
0
30
0
70
128
71
51
72
66
73
48
0
VERTEX
8
OBJECT__28
10
0
20
0
30
0
70
128
71
38
72
42
73
39
0
VERTEX
8
OBJECT__28
10
0
20
0
30
0
70
128
71
36
72
4
73
5
0
VERTEX
8
OBJECT__28
10
0
20
0
30
0
70
128
71
33
72
37
73
31
0
VERTEX
8
OBJECT__28
10
0
20
0
30
0
70
128
71
27
72
34
73
25
0
VERTEX
8
OBJECT__28
10
0
20
0
30
0
70
128
71
23
72
30
73
21
0
VERTEX
8
OBJECT__28
10
0
20
0
30
0
70
128
71
19
72
24
73
17
0
VERTEX
8
OBJECT__28
10
0
20
0
30
0
70
128
71
13
72
20
73
11
0
VERTEX
8
OBJECT__28
10
0
20
0
30
0
70
128
71
8
72
16
73
6
0
VERTEX
8
OBJECT__28
10
0
20
0
30
0
70
128
71
3
72
71
73
1
0
SEQEND
8
OBJECT__28
0
POLYLINE
8
OBJECT__29
66
1
70
64
71
48
72
48
62
253
0
VERTEX
8
OBJECT__29
10
0.000000
20
22.500000
30
117.000000
70
192
0
VERTEX
8
OBJECT__29
10
7.695000
20
21.143000
30
117.000000
70
192
0
VERTEX
8
OBJECT__29
10
5.453000
20
22.039000
30
116.500000
70
192
0
VERTEX
8
OBJECT__29
10
7.866000
20
21.613001
30
116.500000
70
192
0
VERTEX
8
OBJECT__29
10
14.784000
20
17.618999
30
116.500000
70
192
0
VERTEX
8
OBJECT__29
10
19.486000
20
11.250000
30
117.000000
70
192
0
VERTEX
8
OBJECT__29
10
19.919001
20
11.500000
30
116.500000
70
192
0
VERTEX
8
OBJECT__29
10
15.176000
20
17.152000
30
116.500000
70
192
0
VERTEX
8
OBJECT__29
10
14.463000
20
17.236000
30
117.000000
70
192
0
VERTEX
8
OBJECT__29
10
22.158001
20
3.907000
30
117.000000
70
192
0
VERTEX
8
OBJECT__29
10
22.650999
20
3.994000
30
116.500000
70
192
0
VERTEX
8
OBJECT__29
10
21.179001
20
8.037000
30
116.500000
70
192
0
VERTEX
8
OBJECT__29
10
22.158001
20
-3.907000
30
117.000000
70
192
0
VERTEX
8
OBJECT__29
10
22.650999
20
-2.772000
30
116.500000
70
192
0
VERTEX
8
OBJECT__29
10
22.650999
20
-3.994000
30
116.500000
70
192
0
VERTEX
8
OBJECT__29
10
19.486000
20
-11.250000
30
117.000000
70
192
0
VERTEX
8
OBJECT__29
10
14.463000
20
-17.236000
30
117.000000
70
192
0
VERTEX
8
OBJECT__29
10
14.784000
20
-17.618999
30
116.500000
70
192
0
VERTEX
8
OBJECT__29
10
18.739000
20
-12.906000
30
116.500000
70
192
0
VERTEX
8
OBJECT__29
10
7.695000
20
-21.143000
30
117.000000
70
192
0
VERTEX
8
OBJECT__29
10
10.523000
20
-20.079000
30
116.500000
70
192
0
VERTEX
8
OBJECT__29
10
7.866000
20
-21.613001
30
116.500000
70
192
0
VERTEX
8
OBJECT__29
10
0.000000
20
-23.000000
30
116.500000
70
192
0
VERTEX
8
OBJECT__29
10
0.000000
20
-22.500000
30
117.000000
70
192
0
VERTEX
8
OBJECT__29
10
-7.695000
20
-21.143000
30
117.000000
70
192
0
VERTEX
8
OBJECT__29
10
-14.463000
20
-17.236000
30
117.000000
70
192
0
VERTEX
8
OBJECT__29
10
-14.784000
20
-17.618999
30
116.500000
70
192
0
VERTEX
8
OBJECT__29
10
-10.523000
20
-20.079000
30
116.500000
70
192
0
VERTEX
8
OBJECT__29
10
-19.486000
20
-11.250000
30
117.000000
70
192
0
VERTEX
8
OBJECT__29
10
-18.739000
20
-12.906000
30
116.500000
70
192
0
VERTEX
8
OBJECT__29
10
-19.919001
20
-11.500000
30
116.500000
70
192
0
VERTEX
8
OBJECT__29
10
-22.158001
20
-3.907000
30
117.000000
70
192
0
VERTEX
8
OBJECT__29
10
-22.158001
20
3.907000
30
117.000000
70
192
0
VERTEX
8
OBJECT__29
10
-22.650999
20
3.994000
30
116.500000
70
192
0
VERTEX
8
OBJECT__29
10
-22.650999
20
-2.772000
30
116.500000
70
192
0
VERTEX
8
OBJECT__29
10
-19.486000
20
11.250000
30
117.000000
70
192
0
VERTEX
8
OBJECT__29
10
-21.179001
20
8.037000
30
116.500000
70
192
0
VERTEX
8
OBJECT__29
10
-19.919001
20
11.500000
30
116.500000
70
192
0
VERTEX
8
OBJECT__29
10
-14.463000
20
17.236000
30
117.000000
70
192
0
VERTEX
8
OBJECT__29
10
-15.176000
20
17.152000
30
116.500000
70
192
0
VERTEX
8
OBJECT__29
10
-14.784000
20
17.618999
30
116.500000
70
192
0
VERTEX
8
OBJECT__29
10
-7.866000
20
21.613001
30
116.500000
70
192
0
VERTEX
8
OBJECT__29
10
0.000000
20
23.000000
30
116.500000
70
192
0
VERTEX
8
OBJECT__29
10
-5.453000
20
22.039000
30
116.500000
70
192
0
VERTEX
8
OBJECT__29
10
-7.695000
20
21.143000
30
117.000000
70
192
0
VERTEX
8
OBJECT__29
10
-22.650999
20
-3.994000
30
116.500000
70
192
0
VERTEX
8
OBJECT__29
10
-7.866000
20
-21.613001
30
116.500000
70
192
0
VERTEX
8
OBJECT__29
10
19.919001
20
-11.500000
30
116.500000
70
192
0
VERTEX
8
OBJECT__29
10
0
20
0
30
0
70
128
71
1
72
2
73
3
0
VERTEX
8
OBJECT__29
10
0
20
0
30
0
70
128
71
2
72
4
73
3
0
VERTEX
8
OBJECT__29
10
0
20
0
30
0
70
128
71
5
72
4
73
2
0
VERTEX
8
OBJECT__29
10
0
20
0
30
0
70
128
71
6
72
7
73
8
0
VERTEX
8
OBJECT__29
10
0
20
0
30
0
70
128
71
8
72
9
73
6
0
VERTEX
8
OBJECT__29
10
0
20
0
30
0
70
128
71
10
72
11
73
12
0
VERTEX
8
OBJECT__29
10
0
20
0
30
0
70
128
71
12
72
6
73
10
0
VERTEX
8
OBJECT__29
10
0
20
0
30
0
70
128
71
10
72
13
73
14
0
VERTEX
8
OBJECT__29
10
0
20
0
30
0
70
128
71
13
72
15
73
14
0
VERTEX
8
OBJECT__29
10
0
20
0
30
0
70
128
71
15
72
13
73
16
0
VERTEX
8
OBJECT__29
10
0
20
0
30
0
70
128
71
17
72
18
73
19
0
VERTEX
8
OBJECT__29
10
0
20
0
30
0
70
128
71
19
72
16
73
17
0
VERTEX
8
OBJECT__29
10
0
20
0
30
0
70
128
71
17
72
20
73
21
0
VERTEX
8
OBJECT__29
10
0
20
0
30
0
70
128
71
20
72
22
73
21
0
VERTEX
8
OBJECT__29
10
0
20
0
30
0
70
128
71
23
72
22
73
20
0
VERTEX
8
OBJECT__29
10
0
20
0
30
0
70
128
71
23
72
24
73
25
0
VERTEX
8
OBJECT__29
10
0
20
0
30
0
70
128
71
26
72
27
73
28
0
VERTEX
8
OBJECT__29
10
0
20
0
30
0
70
128
71
28
72
25
73
26
0
VERTEX
8
OBJECT__29
10
0
20
0
30
0
70
128
71
26
72
29
73
30
0
VERTEX
8
OBJECT__29
10
0
20
0
30
0
70
128
71
29
72
31
73
30
0
VERTEX
8
OBJECT__29
10
0
20
0
30
0
70
128
71
31
72
29
73
32
0
VERTEX
8
OBJECT__29
10
0
20
0
30
0
70
128
71
33
72
34
73
35
0
VERTEX
8
OBJECT__29
10
0
20
0
30
0
70
128
71
35
72
32
73
33
0
VERTEX
8
OBJECT__29
10
0
20
0
30
0
70
128
71
33
72
36
73
37
0
VERTEX
8
OBJECT__29
10
0
20
0
30
0
70
128
71
36
72
38
73
37
0
VERTEX
8
OBJECT__29
10
0
20
0
30
0
70
128
71
36
72
39
73
40
0
VERTEX
8
OBJECT__29
10
0
20
0
30
0
70
128
71
39
72
41
73
40
0
VERTEX
8
OBJECT__29
10
0
20
0
30
0
70
128
71
42
72
41
73
39
0
VERTEX
8
OBJECT__29
10
0
20
0
30
0
70
128
71
1
72
43
73
44
0
VERTEX
8
OBJECT__29
10
0
20
0
30
0
70
128
71
44
72
45
73
1
0
VERTEX
8
OBJECT__29
10
0
20
0
30
0
70
128
71
44
72
42
73
45
0
VERTEX
8
OBJECT__29
10
0
20
0
30
0
70
128
71
39
72
45
73
42
0
VERTEX
8
OBJECT__29
10
0
20
0
30
0
70
128
71
40
72
38
73
36
0
VERTEX
8
OBJECT__29
10
0
20
0
30
0
70
128
71
37
72
34
73
33
0
VERTEX
8
OBJECT__29
10
0
20
0
30
0
70
128
71
35
72
46
73
32
0
VERTEX
8
OBJECT__29
10
0
20
0
30
0
70
128
71
32
72
46
73
31
0
VERTEX
8
OBJECT__29
10
0
20
0
30
0
70
128
71
30
72
27
73
26
0
VERTEX
8
OBJECT__29
10
0
20
0
30
0
70
128
71
28
72
47
73
25
0
VERTEX
8
OBJECT__29
10
0
20
0
30
0
70
128
71
25
72
47
73
23
0
VERTEX
8
OBJECT__29
10
0
20
0
30
0
70
128
71
20
72
24
73
23
0
VERTEX
8
OBJECT__29
10
0
20
0
30
0
70
128
71
21
72
18
73
17
0
VERTEX
8
OBJECT__29
10
0
20
0
30
0
70
128
71
19
72
48
73
16
0
VERTEX
8
OBJECT__29
10
0
20
0
30
0
70
128
71
16
72
48
73
15
0
VERTEX
8
OBJECT__29
10
0
20
0
30
0
70
128
71
14
72
11
73
10
0
VERTEX
8
OBJECT__29
10
0
20
0
30
0
70
128
71
12
72
7
73
6
0
VERTEX
8
OBJECT__29
10
0
20
0
30
0
70
128
71
8
72
5
73
9
0
VERTEX
8
OBJECT__29
10
0
20
0
30
0
70
128
71
2
72
9
73
5
0
VERTEX
8
OBJECT__29
10
0
20
0
30
0
70
128
71
3
72
43
73
1
0
SEQEND
8
OBJECT__29
0
POLYLINE
8
OBJECT__30
66
1
70
64
71
18
72
16
62
253
0
VERTEX
8
OBJECT__30
10
19.486000
20
-11.250000
30
117.000000
70
192
0
VERTEX
8
OBJECT__30
10
0.000000
20
-22.500000
30
117.000000
70
192
0
VERTEX
8
OBJECT__30
10
7.695000
20
-21.143000
30
117.000000
70
192
0
VERTEX
8
OBJECT__30
10
-7.695000
20
-21.143000
30
117.000000
70
192
0
VERTEX
8
OBJECT__30
10
-14.463000
20
17.236000
30
117.000000
70
192
0
VERTEX
8
OBJECT__30
10
7.695000
20
21.143000
30
117.000000
70
192
0
VERTEX
8
OBJECT__30
10
0.000000
20
22.500000
30
117.000000
70
192
0
VERTEX
8
OBJECT__30
10
-14.463000
20
-17.236000
30
117.000000
70
192
0
VERTEX
8
OBJECT__30
10
22.158001
20
-3.907000
30
117.000000
70
192
0
VERTEX
8
OBJECT__30
10
-22.158001
20
-3.907000
30
117.000000
70
192
0
VERTEX
8
OBJECT__30
10
-19.486000
20
-11.250000
30
117.000000
70
192
0
VERTEX
8
OBJECT__30
10
14.463000
20
17.236000
30
117.000000
70
192
0
VERTEX
8
OBJECT__30
10
-19.486000
20
11.250000
30
117.000000
70
192
0
VERTEX
8
OBJECT__30
10
-22.158001
20
3.907000
30
117.000000
70
192
0
VERTEX
8
OBJECT__30
10
22.158001
20
3.907000
30
117.000000
70
192
0
VERTEX
8
OBJECT__30
10
19.486000
20
11.250000
30
117.000000
70
192
0
VERTEX
8
OBJECT__30
10
14.463000
20
-17.236000
30
117.000000
70
192
0
VERTEX
8
OBJECT__30
10
-7.695000
20
21.143000
30
117.000000
70
192
0
VERTEX
8
OBJECT__30
10
0
20
0
30
0
70
128
71
1
72
2
73
3
0
VERTEX
8
OBJECT__30
10
0
20
0
30
0
70
128
71
1
72
4
73
2
0
VERTEX
8
OBJECT__30
10
0
20
0
30
0
70
128
71
5
72
6
73
7
0
VERTEX
8
OBJECT__30
10
0
20
0
30
0
70
128
71
1
72
8
73
4
0
VERTEX
8
OBJECT__30
10
0
20
0
30
0
70
128
71
9
72
10
73
11
0
VERTEX
8
OBJECT__30
10
0
20
0
30
0
70
128
71
12
72
5
73
13
0
VERTEX
8
OBJECT__30
10
0
20
0
30
0
70
128
71
5
72
12
73
6
0
VERTEX
8
OBJECT__30
10
0
20
0
30
0
70
128
71
14
72
15
73
16
0
VERTEX
8
OBJECT__30
10
0
20
0
30
0
70
128
71
3
72
17
73
1
0
VERTEX
8
OBJECT__30
10
0
20
0
30
0
70
128
71
9
72
14
73
10
0
VERTEX
8
OBJECT__30
10
0
20
0
30
0
70
128
71
7
72
18
73
5
0
VERTEX
8
OBJECT__30
10
0
20
0
30
0
70
128
71
14
72
9
73
15
0
VERTEX
8
OBJECT__30
10
0
20
0
30
0
70
128
71
11
72
8
73
9
0
VERTEX
8
OBJECT__30
10
0
20
0
30
0
70
128
71
16
72
12
73
14
0
VERTEX
8
OBJECT__30
10
0
20
0
30
0
70
128
71
13
72
14
73
12
0
VERTEX
8
OBJECT__30
10
0
20
0
30
0
70
128
71
1
72
9
73
8
0
SEQEND
8
OBJECT__30
0
POLYLINE
8
OBJECT__31
66
1
70
64
71
29
72
32
62
253
0
VERTEX
8
OBJECT__31
10
18.261999
20
14.693000
30
86.917000
70
192
0
VERTEX
8
OBJECT__31
10
17.920000
20
14.418000
30
87.976997
70
192
0
VERTEX
8
OBJECT__31
10
21.431000
20
8.114000
30
87.976997
70
192
0
VERTEX
8
OBJECT__31
10
22.107000
20
7.789000
30
86.917000
70
192
0
VERTEX
8
OBJECT__31
10
23.438999
20
0.000000
30
86.917000
70
192
0
VERTEX
8
OBJECT__31
10
21.693001
20
7.643000
30
87.976997
70
192
0
VERTEX
8
OBJECT__31
10
22.107000
20
-7.789000
30
86.917000
70
192
0
VERTEX
8
OBJECT__31
10
22.535000
20
-2.721000
30
87.976997
70
192
0
VERTEX
8
OBJECT__31
10
23.000000
20
0.000000
30
87.976997
70
192
0
VERTEX
8
OBJECT__31
10
21.693001
20
-7.643000
30
87.976997
70
192
0
VERTEX
8
OBJECT__31
10
18.733999
20
-12.957000
30
87.976997
70
192
0
VERTEX
8
OBJECT__31
10
18.261999
20
-14.693000
30
86.917000
70
192
0
VERTEX
8
OBJECT__31
10
19.089001
20
15.358000
30
86.476997
70
192
0
VERTEX
8
OBJECT__31
10
23.108000
20
8.142000
30
86.476997
70
192
0
VERTEX
8
OBJECT__31
10
24.500000
20
0.000000
30
86.476997
70
192
0
VERTEX
8
OBJECT__31
10
23.108000
20
-8.142000
30
86.476997
70
192
0
VERTEX
8
OBJECT__31
10
17.920000
20
-14.418000
30
87.976997
70
192
0
VERTEX
8
OBJECT__31
10
12.362000
20
-19.395000
30
87.971001
70
192
0
VERTEX
8
OBJECT__31
10
15.799000
20
-17.320999
30
86.949997
70
192
0
VERTEX
8
OBJECT__31
10
12.345000
20
-19.406000
30
87.976997
70
192
0
VERTEX
8
OBJECT__31
10
16.268999
20
-17.037001
30
86.810997
70
192
0
VERTEX
8
OBJECT__31
10
18.801001
20
-15.709000
30
86.476997
70
192
0
VERTEX
8
OBJECT__31
10
18.801001
20
15.709000
30
86.476997
70
192
0
VERTEX
8
OBJECT__31
10
16.268999
20
17.037001
30
86.810997
70
192
0
VERTEX
8
OBJECT__31
10
15.799000
20
17.320999
30
86.949997
70
192
0
VERTEX
8
OBJECT__31
10
15.048000
20
16.988001
30
87.976997
70
192
0
VERTEX
8
OBJECT__31
10
12.362000
20
19.395000
30
87.971001
70
192
0
VERTEX
8
OBJECT__31
10
12.345000
20
19.406000
30
87.976997
70
192
0
VERTEX
8
OBJECT__31
10
19.089001
20
-15.358000
30
86.476997
70
192
0
VERTEX
8
OBJECT__31
10
0
20
0
30
0
70
128
71
1
72
2
73
3
0
VERTEX
8
OBJECT__31
10
0
20
0
30
0
70
128
71
3
72
4
73
1
0
VERTEX
8
OBJECT__31
10
0
20
0
30
0
70
128
71
5
72
4
73
6
0
VERTEX
8
OBJECT__31
10
0
20
0
30
0
70
128
71
7
72
5
73
8
0
VERTEX
8
OBJECT__31
10
0
20
0
30
0
70
128
71
5
72
9
73
8
0
VERTEX
8
OBJECT__31
10
0
20
0
30
0
70
128
71
7
72
10
73
11
0
VERTEX
8
OBJECT__31
10
0
20
0
30
0
70
128
71
11
72
12
73
7
0
VERTEX
8
OBJECT__31
10
0
20
0
30
0
70
128
71
13
72
1
73
4
0
VERTEX
8
OBJECT__31
10
0
20
0
30
0
70
128
71
14
72
4
73
5
0
VERTEX
8
OBJECT__31
10
0
20
0
30
0
70
128
71
15
72
5
73
7
0
VERTEX
8
OBJECT__31
10
0
20
0
30
0
70
128
71
16
72
7
73
12
0
VERTEX
8
OBJECT__31
10
0
20
0
30
0
70
128
71
17
72
18
73
19
0
VERTEX
8
OBJECT__31
10
0
20
0
30
0
70
128
71
17
72
20
73
18
0
VERTEX
8
OBJECT__31
10
0
20
0
30
0
70
128
71
12
72
21
73
22
0
VERTEX
8
OBJECT__31
10
0
20
0
30
0
70
128
71
12
72
19
73
21
0
VERTEX
8
OBJECT__31
10
0
20
0
30
0
70
128
71
1
72
13
73
23
0
VERTEX
8
OBJECT__31
10
0
20
0
30
0
70
128
71
23
72
24
73
1
0
VERTEX
8
OBJECT__31
10
0
20
0
30
0
70
128
71
2
72
1
73
25
0
VERTEX
8
OBJECT__31
10
0
20
0
30
0
70
128
71
26
72
25
73
27
0
VERTEX
8
OBJECT__31
10
0
20
0
30
0
70
128
71
27
72
28
73
26
0
VERTEX
8
OBJECT__31
10
0
20
0
30
0
70
128
71
25
72
26
73
2
0
VERTEX
8
OBJECT__31
10
0
20
0
30
0
70
128
71
24
72
25
73
1
0
VERTEX
8
OBJECT__31
10
0
20
0
30
0
70
128
71
22
72
29
73
12
0
VERTEX
8
OBJECT__31
10
0
20
0
30
0
70
128
71
19
72
12
73
17
0
VERTEX
8
OBJECT__31
10
0
20
0
30
0
70
128
71
12
72
29
73
16
0
VERTEX
8
OBJECT__31
10
0
20
0
30
0
70
128
71
7
72
16
73
15
0
VERTEX
8
OBJECT__31
10
0
20
0
30
0
70
128
71
5
72
15
73
14
0
VERTEX
8
OBJECT__31
10
0
20
0
30
0
70
128
71
4
72
14
73
13
0
VERTEX
8
OBJECT__31
10
0
20
0
30
0
70
128
71
11
72
17
73
12
0
VERTEX
8
OBJECT__31
10
0
20
0
30
0
70
128
71
8
72
10
73
7
0
VERTEX
8
OBJECT__31
10
0
20
0
30
0
70
128
71
6
72
9
73
5
0
VERTEX
8
OBJECT__31
10
0
20
0
30
0
70
128
71
3
72
6
73
4
0
SEQEND
8
OBJECT__31
0
POLYLINE
8
OBJECT__32
66
1
70
64
71
9
72
7
62
253
0
VERTEX
8
OBJECT__32
10
18.780001
20
-16.509001
30
85.767998
70
192
0
VERTEX
8
OBJECT__32
10
18.801001
20
-15.709000
30
86.476997
70
192
0
VERTEX
8
OBJECT__32
10
16.268999
20
-17.037001
30
86.810997
70
192
0
VERTEX
8
OBJECT__32
10
16.230000
20
-17.389000
30
86.226997
70
192
0
VERTEX
8
OBJECT__32
10
12.361000
20
-19.396000
30
87.969002
70
192
0
VERTEX
8
OBJECT__32
10
15.799000
20
-17.320999
30
86.949997
70
192
0
VERTEX
8
OBJECT__32
10
12.362000
20
-19.395000
30
87.971001
70
192
0
VERTEX
8
OBJECT__32
10
12.345000
20
-19.406000
30
87.976997
70
192
0
VERTEX
8
OBJECT__32
10
19.004000
20
-16.431000
30
85.726997
70
192
0
VERTEX
8
OBJECT__32
10
0
20
0
30
0
70
128
71
1
72
2
73
3
0
VERTEX
8
OBJECT__32
10
0
20
0
30
0
70
128
71
3
72
4
73
1
0
VERTEX
8
OBJECT__32
10
0
20
0
30
0
70
128
71
5
72
4
73
6
0
VERTEX
8
OBJECT__32
10
0
20
0
30
0
70
128
71
4
72
3
73
6
0
VERTEX
8
OBJECT__32
10
0
20
0
30
0
70
128
71
5
72
7
73
8
0
VERTEX
8
OBJECT__32
10
0
20
0
30
0
70
128
71
6
72
7
73
5
0
VERTEX
8
OBJECT__32
10
0
20
0
30
0
70
128
71
1
72
9
73
2
0
SEQEND
8
OBJECT__32
0
POLYLINE
8
OBJECT__33
66
1
70
64
71
6
72
4
62
253
0
VERTEX
8
OBJECT__33
10
25.763000
20
-14.750000
30
86.476997
70
192
0
VERTEX
8
OBJECT__33
10
22.249001
20
-14.991000
30
86.476997
70
192
0
VERTEX
8
OBJECT__33
10
22.351999
20
-15.734000
30
85.726997
70
192
0
VERTEX
8
OBJECT__33
10
18.801001
20
-15.709000
30
86.476997
70
192
0
VERTEX
8
OBJECT__33
10
19.004000
20
-16.431000
30
85.726997
70
192
0
VERTEX
8
OBJECT__33
10
25.763000
20
-15.500000
30
85.726997
70
192
0
VERTEX
8
OBJECT__33
10
0
20
0
30
0
70
128
71
1
72
2
73
3
0
VERTEX
8
OBJECT__33
10
0
20
0
30
0
70
128
71
4
72
5
73
3
0
VERTEX
8
OBJECT__33
10
0
20
0
30
0
70
128
71
3
72
2
73
4
0
VERTEX
8
OBJECT__33
10
0
20
0
30
0
70
128
71
3
72
6
73
1
0
SEQEND
8
OBJECT__33
0
POLYLINE
8
OBJECT__34
66
1
70
64
71
10
72
8
62
253
0
VERTEX
8
OBJECT__34
10
18.902000
20
16.070000
30
86.101997
70
192
0
VERTEX
8
OBJECT__34
10
19.004000
20
16.431000
30
85.726997
70
192
0
VERTEX
8
OBJECT__34
10
18.780001
20
16.509001
30
85.767998
70
192
0
VERTEX
8
OBJECT__34
10
16.230000
20
17.389000
30
86.226997
70
192
0
VERTEX
8
OBJECT__34
10
16.268999
20
17.037001
30
86.810997
70
192
0
VERTEX
8
OBJECT__34
10
18.801001
20
15.709000
30
86.476997
70
192
0
VERTEX
8
OBJECT__34
10
12.361000
20
19.396000
30
87.969002
70
192
0
VERTEX
8
OBJECT__34
10
12.362000
20
19.395000
30
87.971001
70
192
0
VERTEX
8
OBJECT__34
10
15.799000
20
17.320999
30
86.949997
70
192
0
VERTEX
8
OBJECT__34
10
12.345000
20
19.406000
30
87.976997
70
192
0
VERTEX
8
OBJECT__34
10
0
20
0
30
0
70
128
71
1
72
2
73
3
0
VERTEX
8
OBJECT__34
10
0
20
0
30
0
70
128
71
1
72
4
73
5
0
VERTEX
8
OBJECT__34
10
0
20
0
30
0
70
128
71
5
72
6
73
1
0
VERTEX
8
OBJECT__34
10
0
20
0
30
0
70
128
71
7
72
8
73
9
0
VERTEX
8
OBJECT__34
10
0
20
0
30
0
70
128
71
9
72
4
73
7
0
VERTEX
8
OBJECT__34
10
0
20
0
30
0
70
128
71
8
72
7
73
10
0
VERTEX
8
OBJECT__34
10
0
20
0
30
0
70
128
71
9
72
5
73
4
0
VERTEX
8
OBJECT__34
10
0
20
0
30
0
70
128
71
3
72
4
73
1
0
SEQEND
8
OBJECT__34
0
POLYLINE
8
OBJECT__35
66
1
70
64
71
8
72
6
62
253
0
VERTEX
8
OBJECT__35
10
18.902000
20
16.070000
30
86.101997
70
192
0
VERTEX
8
OBJECT__35
10
25.763000
20
15.280000
30
86.258003
70
192
0
VERTEX
8
OBJECT__35
10
22.351999
20
15.734000
30
85.726997
70
192
0
VERTEX
8
OBJECT__35
10
25.763000
20
15.500000
30
85.726997
70
192
0
VERTEX
8
OBJECT__35
10
18.801001
20
15.709000
30
86.476997
70
192
0
VERTEX
8
OBJECT__35
10
22.249001
20
14.991000
30
86.476997
70
192
0
VERTEX
8
OBJECT__35
10
25.763000
20
14.750000
30
86.476997
70
192
0
VERTEX
8
OBJECT__35
10
19.004000
20
16.431000
30
85.726997
70
192
0
VERTEX
8
OBJECT__35
10
0
20
0
30
0
70
128
71
1
72
2
73
3
0
VERTEX
8
OBJECT__35
10
0
20
0
30
0
70
128
71
2
72
4
73
3
0
VERTEX
8
OBJECT__35
10
0
20
0
30
0
70
128
71
1
72
5
73
6
0
VERTEX
8
OBJECT__35
10
0
20
0
30
0
70
128
71
6
72
2
73
1
0
VERTEX
8
OBJECT__35
10
0
20
0
30
0
70
128
71
6
72
7
73
2
0
VERTEX
8
OBJECT__35
10
0
20
0
30
0
70
128
71
3
72
8
73
1
0
SEQEND
8
OBJECT__35
0
POLYLINE
8
OBJECT__36
66
1
70
64
71
20
72
18
62
253
0
VERTEX
8
OBJECT__36
10
12.345000
20
19.406000
30
74.675003
70
192
0
VERTEX
8
OBJECT__36
10
12.382000
20
19.382999
30
61.402000
70
192
0
VERTEX
8
OBJECT__36
10
12.369000
20
19.391001
30
61.395000
70
192
0
VERTEX
8
OBJECT__36
10
12.422000
20
19.357000
30
61.425999
70
192
0
VERTEX
8
OBJECT__36
10
12.348000
20
19.403999
30
61.382999
70
192
0
VERTEX
8
OBJECT__36
10
12.554000
20
19.275000
30
61.501999
70
192
0
VERTEX
8
OBJECT__36
10
12.472000
20
19.326000
30
61.452999
70
192
0
VERTEX
8
OBJECT__36
10
14.271000
20
18.298000
30
62.514000
70
192
0
VERTEX
8
OBJECT__36
10
15.827000
20
17.559999
30
63.332001
70
192
0
VERTEX
8
OBJECT__36
10
18.780001
20
16.509001
30
85.767998
70
192
0
VERTEX
8
OBJECT__36
10
18.806999
20
16.593000
30
64.508003
70
192
0
VERTEX
8
OBJECT__36
10
16.230000
20
17.389000
30
86.226997
70
192
0
VERTEX
8
OBJECT__36
10
12.345000
20
19.406000
30
87.976997
70
192
0
VERTEX
8
OBJECT__36
10
12.361000
20
19.396000
30
87.969002
70
192
0
VERTEX
8
OBJECT__36
10
19.004000
20
16.431000
30
85.726997
70
192
0
VERTEX
8
OBJECT__36
10
21.306000
20
15.901000
30
65.374001
70
192
0
VERTEX
8
OBJECT__36
10
20.337999
20
16.096001
30
65.112999
70
192
0
VERTEX
8
OBJECT__36
10
22.351999
20
15.734000
30
85.726997
70
192
0
VERTEX
8
OBJECT__36
10
25.763000
20
15.500000
30
85.726997
70
192
0
VERTEX
8
OBJECT__36
10
25.763000
20
15.500000
30
66.023003
70
192
0
VERTEX
8
OBJECT__36
10
0
20
0
30
0
70
128
71
1
72
2
73
3
0
VERTEX
8
OBJECT__36
10
0
20
0
30
0
70
128
71
1
72
4
73
2
0
VERTEX
8
OBJECT__36
10
0
20
0
30
0
70
128
71
3
72
5
73
1
0
VERTEX
8
OBJECT__36
10
0
20
0
30
0
70
128
71
1
72
6
73
7
0
VERTEX
8
OBJECT__36
10
0
20
0
30
0
70
128
71
1
72
8
73
6
0
VERTEX
8
OBJECT__36
10
0
20
0
30
0
70
128
71
7
72
4
73
1
0
VERTEX
8
OBJECT__36
10
0
20
0
30
0
70
128
71
1
72
9
73
8
0
VERTEX
8
OBJECT__36
10
0
20
0
30
0
70
128
71
10
72
11
73
1
0
VERTEX
8
OBJECT__36
10
0
20
0
30
0
70
128
71
11
72
9
73
1
0
VERTEX
8
OBJECT__36
10
0
20
0
30
0
70
128
71
1
72
12
73
10
0
VERTEX
8
OBJECT__36
10
0
20
0
30
0
70
128
71
1
72
13
73
14
0
VERTEX
8
OBJECT__36
10
0
20
0
30
0
70
128
71
14
72
12
73
1
0
VERTEX
8
OBJECT__36
10
0
20
0
30
0
70
128
71
15
72
16
73
17
0
VERTEX
8
OBJECT__36
10
0
20
0
30
0
70
128
71
18
72
19
73
20
0
VERTEX
8
OBJECT__36
10
0
20
0
30
0
70
128
71
16
72
15
73
18
0
VERTEX
8
OBJECT__36
10
0
20
0
30
0
70
128
71
20
72
16
73
18
0
VERTEX
8
OBJECT__36
10
0
20
0
30
0
70
128
71
11
72
10
73
15
0
VERTEX
8
OBJECT__36
10
0
20
0
30
0
70
128
71
17
72
11
73
15
0
SEQEND
8
OBJECT__36
0
POLYLINE
8
OBJECT__37
66
1
70
64
71
5
72
3
62
253
0
VERTEX
8
OBJECT__37
10
70.827003
20
14.750000
30
86.476997
70
192
0
VERTEX
8
OBJECT__37
10
70.827003
20
15.500000
30
85.726997
70
192
0
VERTEX
8
OBJECT__37
10
25.763000
20
15.280000
30
86.258003
70
192
0
VERTEX
8
OBJECT__37
10
25.763000
20
15.500000
30
85.726997
70
192
0
VERTEX
8
OBJECT__37
10
25.763000
20
14.750000
30
86.476997
70
192
0
VERTEX
8
OBJECT__37
10
0
20
0
30
0
70
128
71
1
72
2
73
3
0
VERTEX
8
OBJECT__37
10
0
20
0
30
0
70
128
71
2
72
4
73
3
0
VERTEX
8
OBJECT__37
10
0
20
0
30
0
70
128
71
3
72
5
73
1
0
SEQEND
8
OBJECT__37
0
POLYLINE
8
OBJECT__38
66
1
70
64
71
26
72
24
62
253
0
VERTEX
8
OBJECT__38
10
25.763000
20
15.500000
30
66.023003
70
192
0
VERTEX
8
OBJECT__38
10
25.788000
20
15.260000
30
65.473999
70
192
0
VERTEX
8
OBJECT__38
10
22.282000
20
15.652000
30
65.065002
70
192
0
VERTEX
8
OBJECT__38
10
21.306000
20
15.901000
30
65.374001
70
192
0
VERTEX
8
OBJECT__38
10
22.011999
20
15.682000
30
65.032997
70
192
0
VERTEX
8
OBJECT__38
10
21.379000
20
15.753000
30
64.959000
70
192
0
VERTEX
8
OBJECT__38
10
20.416000
20
15.965000
30
64.734001
70
192
0
VERTEX
8
OBJECT__38
10
18.601999
20
16.580999
30
64.099998
70
192
0
VERTEX
8
OBJECT__38
10
18.806999
20
16.593000
30
64.508003
70
192
0
VERTEX
8
OBJECT__38
10
15.827000
20
17.559999
30
63.332001
70
192
0
VERTEX
8
OBJECT__38
10
15.889000
20
17.504000
30
63.152000
70
192
0
VERTEX
8
OBJECT__38
10
14.271000
20
18.298000
30
62.514000
70
192
0
VERTEX
8
OBJECT__38
10
15.218000
20
17.829000
30
62.837002
70
192
0
VERTEX
8
OBJECT__38
10
14.311000
20
18.268000
30
62.411999
70
192
0
VERTEX
8
OBJECT__38
10
12.558000
20
19.271999
30
61.491001
70
192
0
VERTEX
8
OBJECT__38
10
12.474000
20
19.323999
30
61.445999
70
192
0
VERTEX
8
OBJECT__38
10
12.472000
20
19.326000
30
61.452999
70
192
0
VERTEX
8
OBJECT__38
10
12.424000
20
19.356001
30
61.421001
70
192
0
VERTEX
8
OBJECT__38
10
12.422000
20
19.357000
30
61.425999
70
192
0
VERTEX
8
OBJECT__38
10
12.383000
20
19.382000
30
61.400002
70
192
0
VERTEX
8
OBJECT__38
10
12.369000
20
19.391001
30
61.393002
70
192
0
VERTEX
8
OBJECT__38
10
12.369000
20
19.391001
30
61.395000
70
192
0
VERTEX
8
OBJECT__38
10
12.382000
20
19.382999
30
61.402000
70
192
0
VERTEX
8
OBJECT__38
10
12.348000
20
19.403999
30
61.382999
70
192
0
VERTEX
8
OBJECT__38
10
12.554000
20
19.275000
30
61.501999
70
192
0
VERTEX
8
OBJECT__38
10
20.337999
20
16.096001
30
65.112999
70
192
0
VERTEX
8
OBJECT__38
10
0
20
0
30
0
70
128
71
1
72
2
73
3
0
VERTEX
8
OBJECT__38
10
0
20
0
30
0
70
128
71
3
72
4
73
1
0
VERTEX
8
OBJECT__38
10
0
20
0
30
0
70
128
71
3
72
5
73
4
0
VERTEX
8
OBJECT__38
10
0
20
0
30
0
70
128
71
4
72
6
73
7
0
VERTEX
8
OBJECT__38
10
0
20
0
30
0
70
128
71
7
72
8
73
9
0
VERTEX
8
OBJECT__38
10
0
20
0
30
0
70
128
71
10
72
9
73
8
0
VERTEX
8
OBJECT__38
10
0
20
0
30
0
70
128
71
8
72
11
73
10
0
VERTEX
8
OBJECT__38
10
0
20
0
30
0
70
128
71
12
72
10
73
13
0
VERTEX
8
OBJECT__38
10
0
20
0
30
0
70
128
71
10
72
11
73
13
0
VERTEX
8
OBJECT__38
10
0
20
0
30
0
70
128
71
12
72
14
73
15
0
VERTEX
8
OBJECT__38
10
0
20
0
30
0
70
128
71
15
72
16
73
17
0
VERTEX
8
OBJECT__38
10
0
20
0
30
0
70
128
71
16
72
18
73
19
0
VERTEX
8
OBJECT__38
10
0
20
0
30
0
70
128
71
20
72
21
73
22
0
VERTEX
8
OBJECT__38
10
0
20
0
30
0
70
128
71
18
72
20
73
23
0
VERTEX
8
OBJECT__38
10
0
20
0
30
0
70
128
71
23
72
19
73
18
0
VERTEX
8
OBJECT__38
10
0
20
0
30
0
70
128
71
22
72
23
73
20
0
VERTEX
8
OBJECT__38
10
0
20
0
30
0
70
128
71
22
72
21
73
24
0
VERTEX
8
OBJECT__38
10
0
20
0
30
0
70
128
71
19
72
17
73
16
0
VERTEX
8
OBJECT__38
10
0
20
0
30
0
70
128
71
17
72
25
73
15
0
VERTEX
8
OBJECT__38
10
0
20
0
30
0
70
128
71
15
72
25
73
12
0
VERTEX
8
OBJECT__38
10
0
20
0
30
0
70
128
71
13
72
14
73
12
0
VERTEX
8
OBJECT__38
10
0
20
0
30
0
70
128
71
9
72
26
73
7
0
VERTEX
8
OBJECT__38
10
0
20
0
30
0
70
128
71
7
72
26
73
4
0
VERTEX
8
OBJECT__38
10
0
20
0
30
0
70
128
71
5
72
6
73
4
0
SEQEND
8
OBJECT__38
0
POLYLINE
8
OBJECT__39
66
1
70
64
71
7
72
5
62
253
0
VERTEX
8
OBJECT__39
10
26.068001
20
15.500000
30
66.032997
70
192
0
VERTEX
8
OBJECT__39
10
26.080999
20
15.253000
30
65.476997
70
192
0
VERTEX
8
OBJECT__39
10
25.788000
20
15.260000
30
65.473999
70
192
0
VERTEX
8
OBJECT__39
10
26.374001
20
15.433000
30
65.726997
70
192
0
VERTEX
8
OBJECT__39
10
26.374001
20
15.500000
30
66.036003
70
192
0
VERTEX
8
OBJECT__39
10
26.374001
20
15.245000
30
65.473000
70
192
0
VERTEX
8
OBJECT__39
10
25.763000
20
15.500000
30
66.023003
70
192
0
VERTEX
8
OBJECT__39
10
0
20
0
30
0
70
128
71
1
72
2
73
3
0
VERTEX
8
OBJECT__39
10
0
20
0
30
0
70
128
71
2
72
1
73
4
0
VERTEX
8
OBJECT__39
10
0
20
0
30
0
70
128
71
1
72
5
73
4
0
VERTEX
8
OBJECT__39
10
0
20
0
30
0
70
128
71
4
72
6
73
2
0
VERTEX
8
OBJECT__39
10
0
20
0
30
0
70
128
71
3
72
7
73
1
0
SEQEND
8
OBJECT__39
0
POLYLINE
8
OBJECT__40
66
1
70
64
71
6
72
4
62
253
0
VERTEX
8
OBJECT__40
10
70.827003
20
15.500000
30
85.726997
70
192
0
VERTEX
8
OBJECT__40
10
70.827003
20
15.500000
30
66.036003
70
192
0
VERTEX
8
OBJECT__40
10
26.374001
20
15.500000
30
66.036003
70
192
0
VERTEX
8
OBJECT__40
10
25.763000
20
15.500000
30
85.726997
70
192
0
VERTEX
8
OBJECT__40
10
26.068001
20
15.500000
30
66.032997
70
192
0
VERTEX
8
OBJECT__40
10
25.763000
20
15.500000
30
66.023003
70
192
0
VERTEX
8
OBJECT__40
10
0
20
0
30
0
70
128
71
1
72
2
73
3
0
VERTEX
8
OBJECT__40
10
0
20
0
30
0
70
128
71
3
72
4
73
1
0
VERTEX
8
OBJECT__40
10
0
20
0
30
0
70
128
71
3
72
5
73
4
0
VERTEX
8
OBJECT__40
10
0
20
0
30
0
70
128
71
5
72
6
73
4
0
SEQEND
8
OBJECT__40
0
POLYLINE
8
OBJECT__41
66
1
70
64
71
6
72
4
62
253
0
VERTEX
8
OBJECT__41
10
72.947998
20
14.621000
30
85.726997
70
192
0
VERTEX
8
OBJECT__41
10
70.827003
20
15.500000
30
85.726997
70
192
0
VERTEX
8
OBJECT__41
10
70.827003
20
14.750000
30
86.476997
70
192
0
VERTEX
8
OBJECT__41
10
72.417999
20
14.091000
30
86.476997
70
192
0
VERTEX
8
OBJECT__41
10
73.077003
20
12.500000
30
86.476997
70
192
0
VERTEX
8
OBJECT__41
10
73.827003
20
12.500000
30
85.726997
70
192
0
VERTEX
8
OBJECT__41
10
0
20
0
30
0
70
128
71
1
72
2
73
3
0
VERTEX
8
OBJECT__41
10
0
20
0
30
0
70
128
71
1
72
4
73
5
0
VERTEX
8
OBJECT__41
10
0
20
0
30
0
70
128
71
5
72
6
73
1
0
VERTEX
8
OBJECT__41
10
0
20
0
30
0
70
128
71
3
72
4
73
1
0
SEQEND
8
OBJECT__41
0
POLYLINE
8
OBJECT__42
66
1
70
64
71
17
72
15
62
253
0
VERTEX
8
OBJECT__42
10
23.108000
20
-8.142000
30
86.476997
70
192
0
VERTEX
8
OBJECT__42
10
19.089001
20
-15.358000
30
86.476997
70
192
0
VERTEX
8
OBJECT__42
10
22.249001
20
-14.991000
30
86.476997
70
192
0
VERTEX
8
OBJECT__42
10
24.500000
20
0.000000
30
86.476997
70
192
0
VERTEX
8
OBJECT__42
10
70.827003
20
-14.750000
30
86.476997
70
192
0
VERTEX
8
OBJECT__42
10
25.763000
20
-14.750000
30
86.476997
70
192
0
VERTEX
8
OBJECT__42
10
73.077003
20
-12.500000
30
86.476997
70
192
0
VERTEX
8
OBJECT__42
10
72.417999
20
-14.091000
30
86.476997
70
192
0
VERTEX
8
OBJECT__42
10
73.077003
20
12.500000
30
86.476997
70
192
0
VERTEX
8
OBJECT__42
10
70.827003
20
14.750000
30
86.476997
70
192
0
VERTEX
8
OBJECT__42
10
23.108000
20
8.142000
30
86.476997
70
192
0
VERTEX
8
OBJECT__42
10
25.763000
20
14.750000
30
86.476997
70
192
0
VERTEX
8
OBJECT__42
10
22.249001
20
14.991000
30
86.476997
70
192
0
VERTEX
8
OBJECT__42
10
72.417999
20
14.091000
30
86.476997
70
192
0
VERTEX
8
OBJECT__42
10
18.801001
20
15.709000
30
86.476997
70
192
0
VERTEX
8
OBJECT__42
10
19.089001
20
15.358000
30
86.476997
70
192
0
VERTEX
8
OBJECT__42
10
18.801001
20
-15.709000
30
86.476997
70
192
0
VERTEX
8
OBJECT__42
10
0
20
0
30
0
70
128
71
1
72
2
73
3
0
VERTEX
8
OBJECT__42
10
0
20
0
30
0
70
128
71
4
72
1
73
5
0
VERTEX
8
OBJECT__42
10
0
20
0
30
0
70
128
71
3
72
6
73
1
0
VERTEX
8
OBJECT__42
10
0
20
0
30
0
70
128
71
5
72
7
73
4
0
VERTEX
8
OBJECT__42
10
0
20
0
30
0
70
128
71
6
72
5
73
1
0
VERTEX
8
OBJECT__42
10
0
20
0
30
0
70
128
71
5
72
8
73
7
0
VERTEX
8
OBJECT__42
10
0
20
0
30
0
70
128
71
4
72
9
73
10
0
VERTEX
8
OBJECT__42
10
0
20
0
30
0
70
128
71
11
72
12
73
13
0
VERTEX
8
OBJECT__42
10
0
20
0
30
0
70
128
71
7
72
9
73
4
0
VERTEX
8
OBJECT__42
10
0
20
0
30
0
70
128
71
9
72
14
73
10
0
VERTEX
8
OBJECT__42
10
0
20
0
30
0
70
128
71
11
72
10
73
12
0
VERTEX
8
OBJECT__42
10
0
20
0
30
0
70
128
71
10
72
11
73
4
0
VERTEX
8
OBJECT__42
10
0
20
0
30
0
70
128
71
13
72
15
73
16
0
VERTEX
8
OBJECT__42
10
0
20
0
30
0
70
128
71
13
72
16
73
11
0
VERTEX
8
OBJECT__42
10
0
20
0
30
0
70
128
71
2
72
17
73
3
0
SEQEND
8
OBJECT__42
0
POLYLINE
8
OBJECT__43
66
1
70
64
71
4
72
2
62
253
0
VERTEX
8
OBJECT__43
10
70.827003
20
-14.750000
30
86.476997
70
192
0
VERTEX
8
OBJECT__43
10
25.763000
20
-14.750000
30
86.476997
70
192
0
VERTEX
8
OBJECT__43
10
25.763000
20
-15.500000
30
85.726997
70
192
0
VERTEX
8
OBJECT__43
10
70.827003
20
-15.500000
30
85.726997
70
192
0
VERTEX
8
OBJECT__43
10
0
20
0
30
0
70
128
71
1
72
2
73
3
0
VERTEX
8
OBJECT__43
10
0
20
0
30
0
70
128
71
3
72
4
73
1
0
SEQEND
8
OBJECT__43
0
POLYLINE
8
OBJECT__44
66
1
70
64
71
22
72
21
62
253
0
VERTEX
8
OBJECT__44
10
22.351999
20
-15.734000
30
85.726997
70
192
0
VERTEX
8
OBJECT__44
10
21.302999
20
-15.901000
30
65.375000
70
192
0
VERTEX
8
OBJECT__44
10
25.763000
20
-15.500000
30
66.023003
70
192
0
VERTEX
8
OBJECT__44
10
25.763000
20
-15.500000
30
85.726997
70
192
0
VERTEX
8
OBJECT__44
10
19.004000
20
-16.431000
30
85.726997
70
192
0
VERTEX
8
OBJECT__44
10
18.806999
20
-16.593000
30
64.514000
70
192
0
VERTEX
8
OBJECT__44
10
20.337000
20
-16.096001
30
65.115997
70
192
0
VERTEX
8
OBJECT__44
10
12.345000
20
-19.406000
30
74.680000
70
192
0
VERTEX
8
OBJECT__44
10
16.230000
20
-17.389000
30
86.226997
70
192
0
VERTEX
8
OBJECT__44
10
12.361000
20
-19.396000
30
87.969002
70
192
0
VERTEX
8
OBJECT__44
10
18.780001
20
-16.509001
30
85.767998
70
192
0
VERTEX
8
OBJECT__44
10
12.439000
20
-19.347000
30
61.433998
70
192
0
VERTEX
8
OBJECT__44
10
12.555000
20
-19.274000
30
61.508999
70
192
0
VERTEX
8
OBJECT__44
10
12.401000
20
-19.370001
30
61.410999
70
192
0
VERTEX
8
OBJECT__44
10
12.364000
20
-19.393999
30
61.388000
70
192
0
VERTEX
8
OBJECT__44
10
12.376000
20
-19.386999
30
61.395000
70
192
0
VERTEX
8
OBJECT__44
10
12.398000
20
-19.372999
30
61.407001
70
192
0
VERTEX
8
OBJECT__44
10
12.349000
20
-19.403999
30
61.379002
70
192
0
VERTEX
8
OBJECT__44
10
12.358000
20
-19.398001
30
61.383999
70
192
0
VERTEX
8
OBJECT__44
10
14.265000
20
-18.301001
30
62.521000
70
192
0
VERTEX
8
OBJECT__44
10
15.829000
20
-17.559000
30
63.342999
70
192
0
VERTEX
8
OBJECT__44
10
12.345000
20
-19.406000
30
87.976997
70
192
0
VERTEX
8
OBJECT__44
10
0
20
0
30
0
70
128
71
1
72
2
73
3
0
VERTEX
8
OBJECT__44
10
0
20
0
30
0
70
128
71
3
72
4
73
1
0
VERTEX
8
OBJECT__44
10
0
20
0
30
0
70
128
71
5
72
6
73
7
0
VERTEX
8
OBJECT__44
10
0
20
0
30
0
70
128
71
7
72
2
73
5
0
VERTEX
8
OBJECT__44
10
0
20
0
30
0
70
128
71
1
72
5
73
2
0
VERTEX
8
OBJECT__44
10
0
20
0
30
0
70
128
71
8
72
9
73
10
0
VERTEX
8
OBJECT__44
10
0
20
0
30
0
70
128
71
11
72
9
73
8
0
VERTEX
8
OBJECT__44
10
0
20
0
30
0
70
128
71
8
72
6
73
11
0
VERTEX
8
OBJECT__44
10
0
20
0
30
0
70
128
71
8
72
12
73
13
0
VERTEX
8
OBJECT__44
10
0
20
0
30
0
70
128
71
14
72
15
73
16
0
VERTEX
8
OBJECT__44
10
0
20
0
30
0
70
128
71
17
72
12
73
14
0
VERTEX
8
OBJECT__44
10
0
20
0
30
0
70
128
71
8
72
18
73
19
0
VERTEX
8
OBJECT__44
10
0
20
0
30
0
70
128
71
19
72
14
73
8
0
VERTEX
8
OBJECT__44
10
0
20
0
30
0
70
128
71
14
72
12
73
8
0
VERTEX
8
OBJECT__44
10
0
20
0
30
0
70
128
71
19
72
15
73
14
0
VERTEX
8
OBJECT__44
10
0
20
0
30
0
70
128
71
16
72
17
73
14
0
VERTEX
8
OBJECT__44
10
0
20
0
30
0
70
128
71
13
72
20
73
8
0
VERTEX
8
OBJECT__44
10
0
20
0
30
0
70
128
71
20
72
21
73
8
0
VERTEX
8
OBJECT__44
10
0
20
0
30
0
70
128
71
8
72
21
73
6
0
VERTEX
8
OBJECT__44
10
0
20
0
30
0
70
128
71
10
72
22
73
8
0
VERTEX
8
OBJECT__44
10
0
20
0
30
0
70
128
71
5
72
11
73
6
0
SEQEND
8
OBJECT__44
0
POLYLINE
8
OBJECT__45
66
1
70
64
71
6
72
4
62
253
0
VERTEX
8
OBJECT__45
10
72.947998
20
-14.621000
30
85.726997
70
192
0
VERTEX
8
OBJECT__45
10
73.827003
20
-12.500000
30
85.726997
70
192
0
VERTEX
8
OBJECT__45
10
73.077003
20
-12.500000
30
86.476997
70
192
0
VERTEX
8
OBJECT__45
10
70.827003
20
-15.500000
30
85.726997
70
192
0
VERTEX
8
OBJECT__45
10
72.417999
20
-14.091000
30
86.476997
70
192
0
VERTEX
8
OBJECT__45
10
70.827003
20
-14.750000
30
86.476997
70
192
0
VERTEX
8
OBJECT__45
10
0
20
0
30
0
70
128
71
1
72
2
73
3
0
VERTEX
8
OBJECT__45
10
0
20
0
30
0
70
128
71
4
72
1
73
5
0
VERTEX
8
OBJECT__45
10
0
20
0
30
0
70
128
71
5
72
6
73
4
0
VERTEX
8
OBJECT__45
10
0
20
0
30
0
70
128
71
3
72
5
73
1
0
SEQEND
8
OBJECT__45
0
POLYLINE
8
OBJECT__46
66
1
70
64
71
4
72
2
62
253
0
VERTEX
8
OBJECT__46
10
73.827003
20
-12.500000
30
85.726997
70
192
0
VERTEX
8
OBJECT__46
10
73.827003
20
12.500000
30
85.726997
70
192
0
VERTEX
8
OBJECT__46
10
73.077003
20
12.500000
30
86.476997
70
192
0
VERTEX
8
OBJECT__46
10
73.077003
20
-12.500000
30
86.476997
70
192
0
VERTEX
8
OBJECT__46
10
0
20
0
30
0
70
128
71
1
72
2
73
3
0
VERTEX
8
OBJECT__46
10
0
20
0
30
0
70
128
71
3
72
4
73
1
0
SEQEND
8
OBJECT__46
0
POLYLINE
8
OBJECT__47
66
1
70
64
71
10
72
8
62
253
0
VERTEX
8
OBJECT__47
10
73.827003
20
12.500000
30
85.726997
70
192
0
VERTEX
8
OBJECT__47
10
73.567001
20
13.722000
30
64.952003
70
192
0
VERTEX
8
OBJECT__47
10
72.924004
20
14.603000
30
65.471001
70
192
0
VERTEX
8
OBJECT__47
10
73.827003
20
12.500000
30
64.299004
70
192
0
VERTEX
8
OBJECT__47
10
72.947998
20
14.621000
30
85.726997
70
192
0
VERTEX
8
OBJECT__47
10
71.291000
20
15.464000
30
66.013000
70
192
0
VERTEX
8
OBJECT__47
10
70.827003
20
15.500000
30
66.036003
70
192
0
VERTEX
8
OBJECT__47
10
72.061996
20
15.234000
30
65.862999
70
192
0
VERTEX
8
OBJECT__47
10
72.825996
20
14.737000
30
65.550003
70
192
0
VERTEX
8
OBJECT__47
10
70.827003
20
15.500000
30
85.726997
70
192
0
VERTEX
8
OBJECT__47
10
0
20
0
30
0
70
128
71
1
72
2
73
3
0
VERTEX
8
OBJECT__47
10
0
20
0
30
0
70
128
71
1
72
4
73
2
0
VERTEX
8
OBJECT__47
10
0
20
0
30
0
70
128
71
5
72
6
73
7
0
VERTEX
8
OBJECT__47
10
0
20
0
30
0
70
128
71
5
72
8
73
6
0
VERTEX
8
OBJECT__47
10
0
20
0
30
0
70
128
71
5
72
9
73
8
0
VERTEX
8
OBJECT__47
10
0
20
0
30
0
70
128
71
5
72
3
73
9
0
VERTEX
8
OBJECT__47
10
0
20
0
30
0
70
128
71
7
72
10
73
5
0
VERTEX
8
OBJECT__47
10
0
20
0
30
0
70
128
71
3
72
5
73
1
0
SEQEND
8
OBJECT__47
0
POLYLINE
8
OBJECT__48
66
1
70
64
71
7
72
5
62
253
0
VERTEX
8
OBJECT__48
10
70.827003
20
15.500000
30
66.036003
70
192
0
VERTEX
8
OBJECT__48
10
70.827003
20
15.433000
30
65.726997
70
192
0
VERTEX
8
OBJECT__48
10
26.374001
20
15.433000
30
65.726997
70
192
0
VERTEX
8
OBJECT__48
10
48.599998
20
15.245000
30
65.473000
70
192
0
VERTEX
8
OBJECT__48
10
70.827003
20
15.245000
30
65.473000
70
192
0
VERTEX
8
OBJECT__48
10
26.374001
20
15.245000
30
65.473000
70
192
0
VERTEX
8
OBJECT__48
10
26.374001
20
15.500000
30
66.036003
70
192
0
VERTEX
8
OBJECT__48
10
0
20
0
30
0
70
128
71
1
72
2
73
3
0
VERTEX
8
OBJECT__48
10
0
20
0
30
0
70
128
71
3
72
2
73
4
0
VERTEX
8
OBJECT__48
10
0
20
0
30
0
70
128
71
2
72
5
73
4
0
VERTEX
8
OBJECT__48
10
0
20
0
30
0
70
128
71
4
72
6
73
3
0
VERTEX
8
OBJECT__48
10
0
20
0
30
0
70
128
71
3
72
7
73
1
0
SEQEND
8
OBJECT__48
0
POLYLINE
8
OBJECT__49
66
1
70
64
71
104
72
127
62
253
0
VERTEX
8
OBJECT__49
10
23.614000
20
3.183000
30
52.486000
70
192
0
VERTEX
8
OBJECT__49
10
26.271000
20
2.970000
30
56.453999
70
192
0
VERTEX
8
OBJECT__49
10
26.514999
20
0.000000
30
56.210999
70
192
0
VERTEX
8
OBJECT__49
10
30.239000
20
3.186000
30
59.111000
70
192
0
VERTEX
8
OBJECT__49
10
34.465000
20
3.720000
30
60.075001
70
192
0
VERTEX
8
OBJECT__49
10
34.959000
20
1.112000
30
59.751999
70
192
0
VERTEX
8
OBJECT__49
10
30.583000
20
0.000000
30
58.882999
70
192
0
VERTEX
8
OBJECT__49
10
22.975000
20
11.148000
30
59.738998
70
192
0
VERTEX
8
OBJECT__49
10
20.601999
20
11.568000
30
56.720001
70
192
0
VERTEX
8
OBJECT__49
10
17.486000
20
15.672000
30
60.514000
70
192
0
VERTEX
8
OBJECT__49
10
22.992001
20
0.602000
30
47.737000
70
192
0
VERTEX
8
OBJECT__49
10
22.674000
20
3.726000
30
48.221001
70
192
0
VERTEX
8
OBJECT__49
10
23.843000
20
0.000000
30
52.141998
70
192
0
VERTEX
8
OBJECT__49
10
22.962999
20
0.006000
30
47.780998
70
192
0
VERTEX
8
OBJECT__49
10
25.556999
20
5.873000
30
57.166000
70
192
0
VERTEX
8
OBJECT__49
10
22.952999
20
6.230000
30
53.452999
70
192
0
VERTEX
8
OBJECT__49
10
20.325001
20
10.765000
30
51.784000
70
192
0
VERTEX
8
OBJECT__49
10
21.468000
20
8.140000
30
50.049999
70
192
0
VERTEX
8
OBJECT__49
10
21.830999
20
7.148000
30
49.500000
70
192
0
VERTEX
8
OBJECT__49
10
21.726999
20
7.547000
30
49.658001
70
192
0
VERTEX
8
OBJECT__49
10
22.642000
20
4.045000
30
48.270000
70
192
0
VERTEX
8
OBJECT__49
10
18.351000
20
13.866000
30
54.776001
70
192
0
VERTEX
8
OBJECT__49
10
19.131001
20
12.640000
30
53.592999
70
192
0
VERTEX
8
OBJECT__49
10
29.268000
20
6.236000
30
59.771000
70
192
0
VERTEX
8
OBJECT__49
10
32.132000
20
9.001000
30
61.606998
70
192
0
VERTEX
8
OBJECT__49
10
32.837002
20
7.969000
30
61.144001
70
192
0
VERTEX
8
OBJECT__49
10
25.990000
20
11.577000
30
62.115002
70
192
0
VERTEX
8
OBJECT__49
10
29.104000
20
12.641000
30
63.596001
70
192
0
VERTEX
8
OBJECT__49
10
30.843000
20
10.887000
30
62.452999
70
192
0
VERTEX
8
OBJECT__49
10
33.194000
20
7.140000
30
60.910000
70
192
0
VERTEX
8
OBJECT__49
10
34.310001
20
4.542000
30
60.175999
70
192
0
VERTEX
8
OBJECT__49
10
29.270000
20
-6.230000
30
59.769001
70
192
0
VERTEX
8
OBJECT__49
10
32.181000
20
-9.014000
30
61.575001
70
192
0
VERTEX
8
OBJECT__49
10
30.063000
20
-11.793000
30
62.964001
70
192
0
VERTEX
8
OBJECT__49
10
25.986000
20
-11.582000
30
62.118000
70
192
0
VERTEX
8
OBJECT__49
10
33.183998
20
-7.118000
30
60.916000
70
192
0
VERTEX
8
OBJECT__49
10
32.344002
20
-8.800000
30
61.467999
70
192
0
VERTEX
8
OBJECT__49
10
25.558001
20
-5.868000
30
57.164001
70
192
0
VERTEX
8
OBJECT__49
10
30.243999
20
-3.162000
30
59.106998
70
192
0
VERTEX
8
OBJECT__49
10
33.963001
20
-5.557000
30
60.403999
70
192
0
VERTEX
8
OBJECT__49
10
34.463001
20
-3.681000
30
60.077000
70
192
0
VERTEX
8
OBJECT__49
10
34.912998
20
0.002000
30
59.782001
70
192
0
VERTEX
8
OBJECT__49
10
34.814999
20
-2.357000
30
59.846001
70
192
0
VERTEX
8
OBJECT__49
10
26.275000
20
-2.948000
30
56.450001
70
192
0
VERTEX
8
OBJECT__49
10
22.972000
20
-11.153000
30
59.743000
70
192
0
VERTEX
8
OBJECT__49
10
20.599001
20
-11.573000
30
56.723999
70
192
0
VERTEX
8
OBJECT__49
10
19.666000
20
-15.313000
30
63.032001
70
192
0
VERTEX
8
OBJECT__49
10
17.493000
20
-15.664000
30
60.508999
70
192
0
VERTEX
8
OBJECT__49
10
22.954000
20
-6.225000
30
53.451000
70
192
0
VERTEX
8
OBJECT__49
10
23.618000
20
-3.159000
30
52.480000
70
192
0
VERTEX
8
OBJECT__49
10
19.440001
20
-12.291000
30
53.125000
70
192
0
VERTEX
8
OBJECT__49
10
21.094000
20
-9.168000
30
50.618999
70
192
0
VERTEX
8
OBJECT__49
10
19.136999
20
-12.686000
30
53.556999
70
192
0
VERTEX
8
OBJECT__49
10
16.891001
20
-15.610000
30
56.748001
70
192
0
VERTEX
8
OBJECT__49
10
18.875999
20
-13.026000
30
53.926998
70
192
0
VERTEX
8
OBJECT__49
10
15.788000
20
-16.601000
30
57.884998
70
192
0
VERTEX
8
OBJECT__49
10
22.132999
20
-6.255000
30
49.042000
70
192
0
VERTEX
8
OBJECT__49
10
21.823000
20
-7.123000
30
49.512001
70
192
0
VERTEX
8
OBJECT__49
10
22.827999
20
-2.772000
30
47.987000
70
192
0
VERTEX
8
OBJECT__49
10
22.653999
20
-3.675000
30
48.250999
70
192
0
VERTEX
8
OBJECT__49
10
22.826000
20
-2.824000
30
47.990002
70
192
0
VERTEX
8
OBJECT__49
10
15.889000
20
17.504000
30
63.152000
70
192
0
VERTEX
8
OBJECT__49
10
18.601999
20
16.580999
30
64.099998
70
192
0
VERTEX
8
OBJECT__49
10
15.218000
20
17.829000
30
62.837002
70
192
0
VERTEX
8
OBJECT__49
10
19.660000
20
15.321000
30
63.039001
70
192
0
VERTEX
8
OBJECT__49
10
20.416000
20
15.965000
30
64.734001
70
192
0
VERTEX
8
OBJECT__49
10
21.379000
20
15.753000
30
64.959000
70
192
0
VERTEX
8
OBJECT__49
10
22.011999
20
15.682000
30
65.032997
70
192
0
VERTEX
8
OBJECT__49
10
22.282000
20
15.652000
30
65.065002
70
192
0
VERTEX
8
OBJECT__49
10
26.080999
20
15.253000
30
65.476997
70
192
0
VERTEX
8
OBJECT__49
10
26.374001
20
15.245000
30
65.473000
70
192
0
VERTEX
8
OBJECT__49
10
25.788000
20
15.260000
30
65.473999
70
192
0
VERTEX
8
OBJECT__49
10
27.525999
20
14.232000
30
64.633003
70
192
0
VERTEX
8
OBJECT__49
10
26.371000
20
-15.245000
30
65.473000
70
192
0
VERTEX
8
OBJECT__49
10
26.079000
20
-15.253000
30
65.476997
70
192
0
VERTEX
8
OBJECT__49
10
25.788000
20
-15.260000
30
65.473999
70
192
0
VERTEX
8
OBJECT__49
10
29.128000
20
-12.668000
30
63.599998
70
192
0
VERTEX
8
OBJECT__49
10
26.372000
20
-15.245000
30
65.473000
70
192
0
VERTEX
8
OBJECT__49
10
22.278999
20
-15.652000
30
65.066002
70
192
0
VERTEX
8
OBJECT__49
10
22.033001
20
-15.680000
30
65.038002
70
192
0
VERTEX
8
OBJECT__49
10
21.375999
20
-15.753000
30
64.960999
70
192
0
VERTEX
8
OBJECT__49
10
20.415001
20
-15.965000
30
64.737999
70
192
0
VERTEX
8
OBJECT__49
10
18.594999
20
-16.584000
30
64.103996
70
192
0
VERTEX
8
OBJECT__49
10
15.891000
20
-17.503000
30
63.161999
70
192
0
VERTEX
8
OBJECT__49
10
13.710000
20
-18.466999
30
60.027000
70
192
0
VERTEX
8
OBJECT__49
10
12.377000
20
-19.386000
30
61.393002
70
192
0
VERTEX
8
OBJECT__49
10
12.365000
20
-19.393999
30
61.387001
70
192
0
VERTEX
8
OBJECT__49
10
12.358000
20
-19.398001
30
61.383999
70
192
0
VERTEX
8
OBJECT__49
10
12.399000
20
-19.372000
30
61.403999
70
192
0
VERTEX
8
OBJECT__49
10
12.560000
20
-19.271000
30
61.497002
70
192
0
VERTEX
8
OBJECT__49
10
12.441000
20
-19.344999
30
61.429001
70
192
0
VERTEX
8
OBJECT__49
10
14.304000
20
-18.271000
30
62.418999
70
192
0
VERTEX
8
OBJECT__49
10
15.215000
20
-17.830000
30
62.846001
70
192
0
VERTEX
8
OBJECT__49
10
15.674000
20
16.833000
30
58.075001
70
192
0
VERTEX
8
OBJECT__49
10
14.311000
20
18.268000
30
62.411999
70
192
0
VERTEX
8
OBJECT__49
10
15.224000
20
17.180000
30
58.521999
70
192
0
VERTEX
8
OBJECT__49
10
12.558000
20
19.271999
30
61.491001
70
192
0
VERTEX
8
OBJECT__49
10
12.474000
20
19.323999
30
61.445999
70
192
0
VERTEX
8
OBJECT__49
10
12.369000
20
19.391001
30
61.393002
70
192
0
VERTEX
8
OBJECT__49
10
12.383000
20
19.382000
30
61.400002
70
192
0
VERTEX
8
OBJECT__49
10
12.424000
20
19.356001
30
61.421001
70
192
0
VERTEX
8
OBJECT__49
10
12.348000
20
19.403999
30
61.382999
70
192
0
VERTEX
8
OBJECT__49
10
15.825000
20
16.665001
30
57.889000
70
192
0
VERTEX
8
OBJECT__49
10
12.349000
20
-19.403999
30
61.379002
70
192
0
VERTEX
8
OBJECT__49
10
0
20
0
30
0
70
128
71
1
72
2
73
3
0
VERTEX
8
OBJECT__49
10
0
20
0
30
0
70
128
71
4
72
5
73
6
0
VERTEX
8
OBJECT__49
10
0
20
0
30
0
70
128
71
6
72
7
73
4
0
VERTEX
8
OBJECT__49
10
0
20
0
30
0
70
128
71
8
72
9
73
10
0
VERTEX
8
OBJECT__49
10
0
20
0
30
0
70
128
71
11
72
12
73
1
0
VERTEX
8
OBJECT__49
10
0
20
0
30
0
70
128
71
13
72
14
73
11
0
VERTEX
8
OBJECT__49
10
0
20
0
30
0
70
128
71
15
72
16
73
9
0
VERTEX
8
OBJECT__49
10
0
20
0
30
0
70
128
71
2
72
1
73
16
0
VERTEX
8
OBJECT__49
10
0
20
0
30
0
70
128
71
9
72
16
73
17
0
VERTEX
8
OBJECT__49
10
0
20
0
30
0
70
128
71
16
72
18
73
17
0
VERTEX
8
OBJECT__49
10
0
20
0
30
0
70
128
71
16
72
19
73
20
0
VERTEX
8
OBJECT__49
10
0
20
0
30
0
70
128
71
20
72
18
73
16
0
VERTEX
8
OBJECT__49
10
0
20
0
30
0
70
128
71
1
72
21
73
19
0
VERTEX
8
OBJECT__49
10
0
20
0
30
0
70
128
71
1
72
12
73
21
0
VERTEX
8
OBJECT__49
10
0
20
0
30
0
70
128
71
10
72
9
73
22
0
VERTEX
8
OBJECT__49
10
0
20
0
30
0
70
128
71
9
72
23
73
22
0
VERTEX
8
OBJECT__49
10
0
20
0
30
0
70
128
71
4
72
7
73
3
0
VERTEX
8
OBJECT__49
10
0
20
0
30
0
70
128
71
24
72
25
73
26
0
VERTEX
8
OBJECT__49
10
0
20
0
30
0
70
128
71
27
72
28
73
29
0
VERTEX
8
OBJECT__49
10
0
20
0
30
0
70
128
71
29
72
24
73
27
0
VERTEX
8
OBJECT__49
10
0
20
0
30
0
70
128
71
29
72
25
73
24
0
VERTEX
8
OBJECT__49
10
0
20
0
30
0
70
128
71
4
72
24
73
30
0
VERTEX
8
OBJECT__49
10
0
20
0
30
0
70
128
71
30
72
31
73
4
0
VERTEX
8
OBJECT__49
10
0
20
0
30
0
70
128
71
15
72
8
73
27
0
VERTEX
8
OBJECT__49
10
0
20
0
30
0
70
128
71
2
72
15
73
24
0
VERTEX
8
OBJECT__49
10
0
20
0
30
0
70
128
71
32
72
33
73
34
0
VERTEX
8
OBJECT__49
10
0
20
0
30
0
70
128
71
34
72
35
73
32
0
VERTEX
8
OBJECT__49
10
0
20
0
30
0
70
128
71
32
72
36
73
37
0
VERTEX
8
OBJECT__49
10
0
20
0
30
0
70
128
71
37
72
33
73
32
0
VERTEX
8
OBJECT__49
10
0
20
0
30
0
70
128
71
38
72
32
73
35
0
VERTEX
8
OBJECT__49
10
0
20
0
30
0
70
128
71
32
72
39
73
40
0
VERTEX
8
OBJECT__49
10
0
20
0
30
0
70
128
71
39
72
41
73
40
0
VERTEX
8
OBJECT__49
10
0
20
0
30
0
70
128
71
7
72
42
73
43
0
VERTEX
8
OBJECT__49
10
0
20
0
30
0
70
128
71
43
72
39
73
7
0
VERTEX
8
OBJECT__49
10
0
20
0
30
0
70
128
71
44
72
39
73
32
0
VERTEX
8
OBJECT__49
10
0
20
0
30
0
70
128
71
39
72
44
73
3
0
VERTEX
8
OBJECT__49
10
0
20
0
30
0
70
128
71
38
72
45
73
46
0
VERTEX
8
OBJECT__49
10
0
20
0
30
0
70
128
71
45
72
47
73
48
0
VERTEX
8
OBJECT__49
10
0
20
0
30
0
70
128
71
44
72
38
73
49
0
VERTEX
8
OBJECT__49
10
0
20
0
30
0
70
128
71
50
72
13
73
3
0
VERTEX
8
OBJECT__49
10
0
20
0
30
0
70
128
71
49
72
46
73
51
0
VERTEX
8
OBJECT__49
10
0
20
0
30
0
70
128
71
51
72
52
73
49
0
VERTEX
8
OBJECT__49
10
0
20
0
30
0
70
128
71
46
72
53
73
51
0
VERTEX
8
OBJECT__49
10
0
20
0
30
0
70
128
71
46
72
48
73
54
0
VERTEX
8
OBJECT__49
10
0
20
0
30
0
70
128
71
54
72
55
73
46
0
VERTEX
8
OBJECT__49
10
0
20
0
30
0
70
128
71
48
72
56
73
54
0
VERTEX
8
OBJECT__49
10
0
20
0
30
0
70
128
71
50
72
49
73
57
0
VERTEX
8
OBJECT__49
10
0
20
0
30
0
70
128
71
49
72
58
73
57
0
VERTEX
8
OBJECT__49
10
0
20
0
30
0
70
128
71
13
72
50
73
59
0
VERTEX
8
OBJECT__49
10
0
20
0
30
0
70
128
71
50
72
60
73
61
0
VERTEX
8
OBJECT__49
10
0
20
0
30
0
70
128
71
61
72
59
73
50
0
VERTEX
8
OBJECT__49
10
0
20
0
30
0
70
128
71
10
72
62
73
63
0
VERTEX
8
OBJECT__49
10
0
20
0
30
0
70
128
71
10
72
64
73
62
0
VERTEX
8
OBJECT__49
10
0
20
0
30
0
70
128
71
65
72
66
73
67
0
VERTEX
8
OBJECT__49
10
0
20
0
30
0
70
128
71
65
72
63
73
66
0
VERTEX
8
OBJECT__49
10
0
20
0
30
0
70
128
71
8
72
68
73
69
0
VERTEX
8
OBJECT__49
10
0
20
0
30
0
70
128
71
8
72
65
73
68
0
VERTEX
8
OBJECT__49
10
0
20
0
30
0
70
128
71
27
72
70
73
71
0
VERTEX
8
OBJECT__49
10
0
20
0
30
0
70
128
71
27
72
72
73
70
0
VERTEX
8
OBJECT__49
10
0
20
0
30
0
70
128
71
71
72
73
73
27
0
VERTEX
8
OBJECT__49
10
0
20
0
30
0
70
128
71
27
72
69
73
72
0
VERTEX
8
OBJECT__49
10
0
20
0
30
0
70
128
71
35
72
74
73
75
0
VERTEX
8
OBJECT__49
10
0
20
0
30
0
70
128
71
75
72
76
73
35
0
VERTEX
8
OBJECT__49
10
0
20
0
30
0
70
128
71
35
72
77
73
78
0
VERTEX
8
OBJECT__49
10
0
20
0
30
0
70
128
71
78
72
74
73
35
0
VERTEX
8
OBJECT__49
10
0
20
0
30
0
70
128
71
45
72
35
73
79
0
VERTEX
8
OBJECT__49
10
0
20
0
30
0
70
128
71
79
72
80
73
45
0
VERTEX
8
OBJECT__49
10
0
20
0
30
0
70
128
71
47
72
80
73
81
0
VERTEX
8
OBJECT__49
10
0
20
0
30
0
70
128
71
81
72
82
73
47
0
VERTEX
8
OBJECT__49
10
0
20
0
30
0
70
128
71
48
72
47
73
83
0
VERTEX
8
OBJECT__49
10
0
20
0
30
0
70
128
71
83
72
84
73
48
0
VERTEX
8
OBJECT__49
10
0
20
0
30
0
70
128
71
85
72
86
73
87
0
VERTEX
8
OBJECT__49
10
0
20
0
30
0
70
128
71
87
72
88
73
85
0
VERTEX
8
OBJECT__49
10
0
20
0
30
0
70
128
71
85
72
89
73
86
0
VERTEX
8
OBJECT__49
10
0
20
0
30
0
70
128
71
85
72
90
73
91
0
VERTEX
8
OBJECT__49
10
0
20
0
30
0
70
128
71
92
72
90
73
85
0
VERTEX
8
OBJECT__49
10
0
20
0
30
0
70
128
71
56
72
48
73
93
0
VERTEX
8
OBJECT__49
10
0
20
0
30
0
70
128
71
93
72
92
73
56
0
VERTEX
8
OBJECT__49
10
0
20
0
30
0
70
128
71
85
72
56
73
92
0
VERTEX
8
OBJECT__49
10
0
20
0
30
0
70
128
71
91
72
89
73
85
0
VERTEX
8
OBJECT__49
10
0
20
0
30
0
70
128
71
94
72
95
73
64
0
VERTEX
8
OBJECT__49
10
0
20
0
30
0
70
128
71
95
72
94
73
96
0
VERTEX
8
OBJECT__49
10
0
20
0
30
0
70
128
71
96
72
97
73
95
0
VERTEX
8
OBJECT__49
10
0
20
0
30
0
70
128
71
96
72
98
73
97
0
VERTEX
8
OBJECT__49
10
0
20
0
30
0
70
128
71
96
72
99
73
100
0
VERTEX
8
OBJECT__49
10
0
20
0
30
0
70
128
71
100
72
98
73
96
0
VERTEX
8
OBJECT__49
10
0
20
0
30
0
70
128
71
100
72
101
73
98
0
VERTEX
8
OBJECT__49
10
0
20
0
30
0
70
128
71
96
72
102
73
99
0
VERTEX
8
OBJECT__49
10
0
20
0
30
0
70
128
71
10
72
103
73
94
0
VERTEX
8
OBJECT__49
10
0
20
0
30
0
70
128
71
64
72
10
73
94
0
VERTEX
8
OBJECT__49
10
0
20
0
30
0
70
128
71
88
72
104
73
85
0
VERTEX
8
OBJECT__49
10
0
20
0
30
0
70
128
71
84
72
93
73
48
0
VERTEX
8
OBJECT__49
10
0
20
0
30
0
70
128
71
82
72
83
73
47
0
VERTEX
8
OBJECT__49
10
0
20
0
30
0
70
128
71
80
72
47
73
45
0
VERTEX
8
OBJECT__49
10
0
20
0
30
0
70
128
71
76
72
79
73
35
0
VERTEX
8
OBJECT__49
10
0
20
0
30
0
70
128
71
73
72
28
73
27
0
VERTEX
8
OBJECT__49
10
0
20
0
30
0
70
128
71
69
72
27
73
8
0
VERTEX
8
OBJECT__49
10
0
20
0
30
0
70
128
71
67
72
68
73
65
0
VERTEX
8
OBJECT__49
10
0
20
0
30
0
70
128
71
63
72
65
73
10
0
VERTEX
8
OBJECT__49
10
0
20
0
30
0
70
128
71
59
72
14
73
13
0
VERTEX
8
OBJECT__49
10
0
20
0
30
0
70
128
71
57
72
60
73
50
0
VERTEX
8
OBJECT__49
10
0
20
0
30
0
70
128
71
55
72
53
73
46
0
VERTEX
8
OBJECT__49
10
0
20
0
30
0
70
128
71
52
72
58
73
49
0
VERTEX
8
OBJECT__49
10
0
20
0
30
0
70
128
71
3
72
44
73
50
0
VERTEX
8
OBJECT__49
10
0
20
0
30
0
70
128
71
49
72
50
73
44
0
VERTEX
8
OBJECT__49
10
0
20
0
30
0
70
128
71
48
72
46
73
45
0
VERTEX
8
OBJECT__49
10
0
20
0
30
0
70
128
71
46
72
49
73
38
0
VERTEX
8
OBJECT__49
10
0
20
0
30
0
70
128
71
3
72
7
73
39
0
VERTEX
8
OBJECT__49
10
0
20
0
30
0
70
128
71
32
72
38
73
44
0
VERTEX
8
OBJECT__49
10
0
20
0
30
0
70
128
71
43
72
41
73
39
0
VERTEX
8
OBJECT__49
10
0
20
0
30
0
70
128
71
40
72
36
73
32
0
VERTEX
8
OBJECT__49
10
0
20
0
30
0
70
128
71
35
72
45
73
38
0
VERTEX
8
OBJECT__49
10
0
20
0
30
0
70
128
71
34
72
77
73
35
0
VERTEX
8
OBJECT__49
10
0
20
0
30
0
70
128
71
24
72
4
73
2
0
VERTEX
8
OBJECT__49
10
0
20
0
30
0
70
128
71
27
72
24
73
15
0
VERTEX
8
OBJECT__49
10
0
20
0
30
0
70
128
71
31
72
5
73
4
0
VERTEX
8
OBJECT__49
10
0
20
0
30
0
70
128
71
26
72
30
73
24
0
VERTEX
8
OBJECT__49
10
0
20
0
30
0
70
128
71
3
72
2
73
4
0
VERTEX
8
OBJECT__49
10
0
20
0
30
0
70
128
71
22
72
103
73
10
0
VERTEX
8
OBJECT__49
10
0
20
0
30
0
70
128
71
19
72
16
73
1
0
VERTEX
8
OBJECT__49
10
0
20
0
30
0
70
128
71
17
72
23
73
9
0
VERTEX
8
OBJECT__49
10
0
20
0
30
0
70
128
71
16
72
15
73
2
0
VERTEX
8
OBJECT__49
10
0
20
0
30
0
70
128
71
9
72
8
73
15
0
VERTEX
8
OBJECT__49
10
0
20
0
30
0
70
128
71
1
72
13
73
11
0
VERTEX
8
OBJECT__49
10
0
20
0
30
0
70
128
71
10
72
65
73
8
0
VERTEX
8
OBJECT__49
10
0
20
0
30
0
70
128
71
6
72
42
73
7
0
VERTEX
8
OBJECT__49
10
0
20
0
30
0
70
128
71
3
72
13
73
1
0
SEQEND
8
OBJECT__49
0
POLYLINE
8
OBJECT__50
66
1
70
64
71
25
72
23
62
253
0
VERTEX
8
OBJECT__50
10
25.777000
20
-15.437000
30
65.723000
70
192
0
VERTEX
8
OBJECT__50
10
21.302999
20
-15.901000
30
65.375000
70
192
0
VERTEX
8
OBJECT__50
10
22.278999
20
-15.652000
30
65.066002
70
192
0
VERTEX
8
OBJECT__50
10
21.375999
20
-15.753000
30
64.960999
70
192
0
VERTEX
8
OBJECT__50
10
22.033001
20
-15.680000
30
65.038002
70
192
0
VERTEX
8
OBJECT__50
10
25.788000
20
-15.260000
30
65.473999
70
192
0
VERTEX
8
OBJECT__50
10
20.337000
20
-16.096001
30
65.115997
70
192
0
VERTEX
8
OBJECT__50
10
20.415001
20
-15.965000
30
64.737999
70
192
0
VERTEX
8
OBJECT__50
10
18.806999
20
-16.593000
30
64.514000
70
192
0
VERTEX
8
OBJECT__50
10
15.829000
20
-17.559000
30
63.342999
70
192
0
VERTEX
8
OBJECT__50
10
15.891000
20
-17.503000
30
63.161999
70
192
0
VERTEX
8
OBJECT__50
10
18.594999
20
-16.584000
30
64.103996
70
192
0
VERTEX
8
OBJECT__50
10
14.265000
20
-18.301001
30
62.521000
70
192
0
VERTEX
8
OBJECT__50
10
14.304000
20
-18.271000
30
62.418999
70
192
0
VERTEX
8
OBJECT__50
10
15.215000
20
-17.830000
30
62.846001
70
192
0
VERTEX
8
OBJECT__50
10
12.555000
20
-19.274000
30
61.508999
70
192
0
VERTEX
8
OBJECT__50
10
12.560000
20
-19.271000
30
61.497002
70
192
0
VERTEX
8
OBJECT__50
10
12.439000
20
-19.347000
30
61.433998
70
192
0
VERTEX
8
OBJECT__50
10
12.441000
20
-19.344999
30
61.429001
70
192
0
VERTEX
8
OBJECT__50
10
12.398000
20
-19.372999
30
61.407001
70
192
0
VERTEX
8
OBJECT__50
10
12.399000
20
-19.372000
30
61.403999
70
192
0
VERTEX
8
OBJECT__50
10
12.364000
20
-19.393999
30
61.388000
70
192
0
VERTEX
8
OBJECT__50
10
12.376000
20
-19.386999
30
61.395000
70
192
0
VERTEX
8
OBJECT__50
10
12.377000
20
-19.386000
30
61.393002
70
192
0
VERTEX
8
OBJECT__50
10
25.763000
20
-15.500000
30
66.023003
70
192
0
VERTEX
8
OBJECT__50
10
0
20
0
30
0
70
128
71
1
72
2
73
3
0
VERTEX
8
OBJECT__50
10
0
20
0
30
0
70
128
71
2
72
4
73
5
0
VERTEX
8
OBJECT__50
10
0
20
0
30
0
70
128
71
5
72
3
73
2
0
VERTEX
8
OBJECT__50
10
0
20
0
30
0
70
128
71
3
72
6
73
1
0
VERTEX
8
OBJECT__50
10
0
20
0
30
0
70
128
71
2
72
7
73
8
0
VERTEX
8
OBJECT__50
10
0
20
0
30
0
70
128
71
8
72
7
73
9
0
VERTEX
8
OBJECT__50
10
0
20
0
30
0
70
128
71
10
72
11
73
12
0
VERTEX
8
OBJECT__50
10
0
20
0
30
0
70
128
71
12
72
9
73
10
0
VERTEX
8
OBJECT__50
10
0
20
0
30
0
70
128
71
13
72
14
73
15
0
VERTEX
8
OBJECT__50
10
0
20
0
30
0
70
128
71
15
72
10
73
13
0
VERTEX
8
OBJECT__50
10
0
20
0
30
0
70
128
71
13
72
16
73
17
0
VERTEX
8
OBJECT__50
10
0
20
0
30
0
70
128
71
16
72
18
73
19
0
VERTEX
8
OBJECT__50
10
0
20
0
30
0
70
128
71
18
72
20
73
21
0
VERTEX
8
OBJECT__50
10
0
20
0
30
0
70
128
71
20
72
23
73
24
0
VERTEX
8
OBJECT__50
10
0
20
0
30
0
70
128
71
24
72
21
73
20
0
VERTEX
8
OBJECT__50
10
0
20
0
30
0
70
128
71
22
72
24
73
23
0
VERTEX
8
OBJECT__50
10
0
20
0
30
0
70
128
71
21
72
19
73
18
0
VERTEX
8
OBJECT__50
10
0
20
0
30
0
70
128
71
19
72
17
73
16
0
VERTEX
8
OBJECT__50
10
0
20
0
30
0
70
128
71
17
72
14
73
13
0
VERTEX
8
OBJECT__50
10
0
20
0
30
0
70
128
71
15
72
11
73
10
0
VERTEX
8
OBJECT__50
10
0
20
0
30
0
70
128
71
9
72
12
73
8
0
VERTEX
8
OBJECT__50
10
0
20
0
30
0
70
128
71
8
72
4
73
2
0
VERTEX
8
OBJECT__50
10
0
20
0
30
0
70
128
71
1
72
25
73
2
0
SEQEND
8
OBJECT__50
0
POLYLINE
8
OBJECT__51
66
1
70
64
71
6
72
4
62
253
0
VERTEX
8
OBJECT__51
10
70.827003
20
-15.500000
30
85.726997
70
192
0
VERTEX
8
OBJECT__51
10
25.763000
20
-15.500000
30
85.726997
70
192
0
VERTEX
8
OBJECT__51
10
26.371000
20
-15.500000
30
66.036003
70
192
0
VERTEX
8
OBJECT__51
10
26.066999
20
-15.500000
30
66.032997
70
192
0
VERTEX
8
OBJECT__51
10
25.763000
20
-15.500000
30
66.023003
70
192
0
VERTEX
8
OBJECT__51
10
70.827003
20
-15.500000
30
66.036003
70
192
0
VERTEX
8
OBJECT__51
10
0
20
0
30
0
70
128
71
1
72
2
73
3
0
VERTEX
8
OBJECT__51
10
0
20
0
30
0
70
128
71
2
72
4
73
3
0
VERTEX
8
OBJECT__51
10
0
20
0
30
0
70
128
71
2
72
5
73
4
0
VERTEX
8
OBJECT__51
10
0
20
0
30
0
70
128
71
3
72
6
73
1
0
SEQEND
8
OBJECT__51
0
POLYLINE
8
OBJECT__52
66
1
70
64
71
9
72
7
62
253
0
VERTEX
8
OBJECT__52
10
26.371000
20
-15.245000
30
65.473000
70
192
0
VERTEX
8
OBJECT__52
10
26.372000
20
-15.245000
30
65.473000
70
192
0
VERTEX
8
OBJECT__52
10
26.372000
20
-15.353000
30
65.589996
70
192
0
VERTEX
8
OBJECT__52
10
26.371000
20
-15.500000
30
66.036003
70
192
0
VERTEX
8
OBJECT__52
10
26.066999
20
-15.500000
30
66.032997
70
192
0
VERTEX
8
OBJECT__52
10
26.079000
20
-15.253000
30
65.476997
70
192
0
VERTEX
8
OBJECT__52
10
25.777000
20
-15.437000
30
65.723000
70
192
0
VERTEX
8
OBJECT__52
10
25.763000
20
-15.500000
30
66.023003
70
192
0
VERTEX
8
OBJECT__52
10
25.788000
20
-15.260000
30
65.473999
70
192
0
VERTEX
8
OBJECT__52
10
0
20
0
30
0
70
128
71
1
72
2
73
3
0
VERTEX
8
OBJECT__52
10
0
20
0
30
0
70
128
71
4
72
5
73
6
0
VERTEX
8
OBJECT__52
10
0
20
0
30
0
70
128
71
6
72
5
73
7
0
VERTEX
8
OBJECT__52
10
0
20
0
30
0
70
128
71
5
72
8
73
7
0
VERTEX
8
OBJECT__52
10
0
20
0
30
0
70
128
71
7
72
9
73
6
0
VERTEX
8
OBJECT__52
10
0
20
0
30
0
70
128
71
6
72
1
73
4
0
VERTEX
8
OBJECT__52
10
0
20
0
30
0
70
128
71
3
72
4
73
1
0
SEQEND
8
OBJECT__52
0
POLYLINE
8
OBJECT__53
66
1
70
64
71
15
72
13
62
253
0
VERTEX
8
OBJECT__53
10
72.882004
20
13.867000
30
64.352997
70
192
0
VERTEX
8
OBJECT__53
10
73.567001
20
13.722000
30
64.952003
70
192
0
VERTEX
8
OBJECT__53
10
73.452003
20
12.710000
30
63.988998
70
192
0
VERTEX
8
OBJECT__53
10
73.827003
20
12.500000
30
64.299004
70
192
0
VERTEX
8
OBJECT__53
10
72.325996
20
14.653000
30
64.970001
70
192
0
VERTEX
8
OBJECT__53
10
72.924004
20
14.603000
30
65.471001
70
192
0
VERTEX
8
OBJECT__53
10
72.825996
20
14.737000
30
65.550003
70
192
0
VERTEX
8
OBJECT__53
10
71.752998
20
15.039000
30
65.293999
70
192
0
VERTEX
8
OBJECT__53
10
72.061996
20
15.234000
30
65.862999
70
192
0
VERTEX
8
OBJECT__53
10
71.175003
20
15.217000
30
65.447998
70
192
0
VERTEX
8
OBJECT__53
10
70.827003
20
15.245000
30
65.473000
70
192
0
VERTEX
8
OBJECT__53
10
70.827003
20
15.433000
30
65.726997
70
192
0
VERTEX
8
OBJECT__53
10
71.291000
20
15.464000
30
66.013000
70
192
0
VERTEX
8
OBJECT__53
10
70.827003
20
15.500000
30
66.036003
70
192
0
VERTEX
8
OBJECT__53
10
73.077003
20
12.920000
30
63.678001
70
192
0
VERTEX
8
OBJECT__53
10
0
20
0
30
0
70
128
71
1
72
2
73
3
0
VERTEX
8
OBJECT__53
10
0
20
0
30
0
70
128
71
2
72
4
73
3
0
VERTEX
8
OBJECT__53
10
0
20
0
30
0
70
128
71
1
72
5
73
6
0
VERTEX
8
OBJECT__53
10
0
20
0
30
0
70
128
71
5
72
7
73
6
0
VERTEX
8
OBJECT__53
10
0
20
0
30
0
70
128
71
7
72
5
73
8
0
VERTEX
8
OBJECT__53
10
0
20
0
30
0
70
128
71
9
72
8
73
10
0
VERTEX
8
OBJECT__53
10
0
20
0
30
0
70
128
71
10
72
11
73
12
0
VERTEX
8
OBJECT__53
10
0
20
0
30
0
70
128
71
12
72
13
73
10
0
VERTEX
8
OBJECT__53
10
0
20
0
30
0
70
128
71
12
72
14
73
13
0
VERTEX
8
OBJECT__53
10
0
20
0
30
0
70
128
71
10
72
13
73
9
0
VERTEX
8
OBJECT__53
10
0
20
0
30
0
70
128
71
8
72
9
73
7
0
VERTEX
8
OBJECT__53
10
0
20
0
30
0
70
128
71
6
72
2
73
1
0
VERTEX
8
OBJECT__53
10
0
20
0
30
0
70
128
71
3
72
15
73
1
0
SEQEND
8
OBJECT__53
0
POLYLINE
8
OBJECT__54
66
1
70
64
71
41
72
41
62
253
0
VERTEX
8
OBJECT__54
10
73.077003
20
0.000000
30
59.724998
70
192
0
VERTEX
8
OBJECT__54
10
73.077003
20
-6.755000
30
60.735001
70
192
0
VERTEX
8
OBJECT__54
10
34.814999
20
-2.357000
30
59.846001
70
192
0
VERTEX
8
OBJECT__54
10
34.912998
20
0.002000
30
59.782001
70
192
0
VERTEX
8
OBJECT__54
10
73.077003
20
-8.922000
30
61.769001
70
192
0
VERTEX
8
OBJECT__54
10
33.963001
20
-5.557000
30
60.403999
70
192
0
VERTEX
8
OBJECT__54
10
34.463001
20
-3.681000
30
60.077000
70
192
0
VERTEX
8
OBJECT__54
10
32.344002
20
-8.800000
30
61.467999
70
192
0
VERTEX
8
OBJECT__54
10
33.183998
20
-7.118000
30
60.916000
70
192
0
VERTEX
8
OBJECT__54
10
32.181000
20
-9.014000
30
61.575001
70
192
0
VERTEX
8
OBJECT__54
10
73.077003
20
8.922000
30
61.769001
70
192
0
VERTEX
8
OBJECT__54
10
34.310001
20
4.542000
30
60.175999
70
192
0
VERTEX
8
OBJECT__54
10
33.194000
20
7.140000
30
60.910000
70
192
0
VERTEX
8
OBJECT__54
10
32.837002
20
7.969000
30
61.144001
70
192
0
VERTEX
8
OBJECT__54
10
34.465000
20
3.720000
30
60.075001
70
192
0
VERTEX
8
OBJECT__54
10
73.077003
20
6.755000
30
60.735001
70
192
0
VERTEX
8
OBJECT__54
10
34.959000
20
1.112000
30
59.751999
70
192
0
VERTEX
8
OBJECT__54
10
48.599998
20
15.245000
30
65.473000
70
192
0
VERTEX
8
OBJECT__54
10
30.843000
20
10.887000
30
62.452999
70
192
0
VERTEX
8
OBJECT__54
10
29.104000
20
12.641000
30
63.596001
70
192
0
VERTEX
8
OBJECT__54
10
27.525999
20
14.232000
30
64.633003
70
192
0
VERTEX
8
OBJECT__54
10
70.827003
20
15.245000
30
65.473000
70
192
0
VERTEX
8
OBJECT__54
10
71.952003
20
14.111000
30
64.538002
70
192
0
VERTEX
8
OBJECT__54
10
71.175003
20
15.217000
30
65.447998
70
192
0
VERTEX
8
OBJECT__54
10
71.752998
20
15.039000
30
65.293999
70
192
0
VERTEX
8
OBJECT__54
10
72.325996
20
14.653000
30
64.970001
70
192
0
VERTEX
8
OBJECT__54
10
72.882004
20
13.867000
30
64.352997
70
192
0
VERTEX
8
OBJECT__54
10
73.077003
20
12.920000
30
63.678001
70
192
0
VERTEX
8
OBJECT__54
10
32.132000
20
9.001000
30
61.606998
70
192
0
VERTEX
8
OBJECT__54
10
71.952003
20
-14.111000
30
64.538002
70
192
0
VERTEX
8
OBJECT__54
10
70.827003
20
-15.245000
30
65.473000
70
192
0
VERTEX
8
OBJECT__54
10
48.598999
20
-15.245000
30
65.473000
70
192
0
VERTEX
8
OBJECT__54
10
73.077003
20
-12.920000
30
63.678001
70
192
0
VERTEX
8
OBJECT__54
10
72.926003
20
-13.756000
30
64.269997
70
192
0
VERTEX
8
OBJECT__54
10
71.986000
20
-14.913000
30
65.185997
70
192
0
VERTEX
8
OBJECT__54
10
71.444000
20
-15.156000
30
65.394997
70
192
0
VERTEX
8
OBJECT__54
10
72.558998
20
-14.404000
30
64.767998
70
192
0
VERTEX
8
OBJECT__54
10
26.372000
20
-15.245000
30
65.473000
70
192
0
VERTEX
8
OBJECT__54
10
29.128000
20
-12.668000
30
63.599998
70
192
0
VERTEX
8
OBJECT__54
10
30.063000
20
-11.793000
30
62.964001
70
192
0
VERTEX
8
OBJECT__54
10
26.374001
20
15.245000
30
65.473000
70
192
0
VERTEX
8
OBJECT__54
10
0
20
0
30
0
70
128
71
1
72
2
73
3
0
VERTEX
8
OBJECT__54
10
0
20
0
30
0
70
128
71
3
72
4
73
1
0
VERTEX
8
OBJECT__54
10
0
20
0
30
0
70
128
71
5
72
6
73
7
0
VERTEX
8
OBJECT__54
10
0
20
0
30
0
70
128
71
5
72
8
73
9
0
VERTEX
8
OBJECT__54
10
0
20
0
30
0
70
128
71
5
72
10
73
8
0
VERTEX
8
OBJECT__54
10
0
20
0
30
0
70
128
71
9
72
6
73
5
0
VERTEX
8
OBJECT__54
10
0
20
0
30
0
70
128
71
7
72
3
73
5
0
VERTEX
8
OBJECT__54
10
0
20
0
30
0
70
128
71
11
72
12
73
13
0
VERTEX
8
OBJECT__54
10
0
20
0
30
0
70
128
71
13
72
14
73
11
0
VERTEX
8
OBJECT__54
10
0
20
0
30
0
70
128
71
15
72
11
73
16
0
VERTEX
8
OBJECT__54
10
0
20
0
30
0
70
128
71
16
72
17
73
15
0
VERTEX
8
OBJECT__54
10
0
20
0
30
0
70
128
71
15
72
12
73
11
0
VERTEX
8
OBJECT__54
10
0
20
0
30
0
70
128
71
1
72
4
73
17
0
VERTEX
8
OBJECT__54
10
0
20
0
30
0
70
128
71
17
72
16
73
1
0
VERTEX
8
OBJECT__54
10
0
20
0
30
0
70
128
71
18
72
19
73
20
0
VERTEX
8
OBJECT__54
10
0
20
0
30
0
70
128
71
20
72
21
73
18
0
VERTEX
8
OBJECT__54
10
0
20
0
30
0
70
128
71
11
72
22
73
23
0
VERTEX
8
OBJECT__54
10
0
20
0
30
0
70
128
71
23
72
24
73
25
0
VERTEX
8
OBJECT__54
10
0
20
0
30
0
70
128
71
23
72
22
73
24
0
VERTEX
8
OBJECT__54
10
0
20
0
30
0
70
128
71
23
72
26
73
27
0
VERTEX
8
OBJECT__54
10
0
20
0
30
0
70
128
71
27
72
28
73
23
0
VERTEX
8
OBJECT__54
10
0
20
0
30
0
70
128
71
25
72
26
73
23
0
VERTEX
8
OBJECT__54
10
0
20
0
30
0
70
128
71
29
72
19
73
18
0
VERTEX
8
OBJECT__54
10
0
20
0
30
0
70
128
71
18
72
11
73
29
0
VERTEX
8
OBJECT__54
10
0
20
0
30
0
70
128
71
18
72
22
73
11
0
VERTEX
8
OBJECT__54
10
0
20
0
30
0
70
128
71
23
72
28
73
11
0
VERTEX
8
OBJECT__54
10
0
20
0
30
0
70
128
71
30
72
31
73
32
0
VERTEX
8
OBJECT__54
10
0
20
0
30
0
70
128
71
32
72
10
73
30
0
VERTEX
8
OBJECT__54
10
0
20
0
30
0
70
128
71
10
72
33
73
30
0
VERTEX
8
OBJECT__54
10
0
20
0
30
0
70
128
71
30
72
33
73
34
0
VERTEX
8
OBJECT__54
10
0
20
0
30
0
70
128
71
30
72
35
73
36
0
VERTEX
8
OBJECT__54
10
0
20
0
30
0
70
128
71
30
72
37
73
35
0
VERTEX
8
OBJECT__54
10
0
20
0
30
0
70
128
71
36
72
31
73
30
0
VERTEX
8
OBJECT__54
10
0
20
0
30
0
70
128
71
34
72
37
73
30
0
VERTEX
8
OBJECT__54
10
0
20
0
30
0
70
128
71
10
72
5
73
33
0
VERTEX
8
OBJECT__54
10
0
20
0
30
0
70
128
71
32
72
38
73
39
0
VERTEX
8
OBJECT__54
10
0
20
0
30
0
70
128
71
39
72
40
73
32
0
VERTEX
8
OBJECT__54
10
0
20
0
30
0
70
128
71
32
72
40
73
10
0
VERTEX
8
OBJECT__54
10
0
20
0
30
0
70
128
71
21
72
41
73
18
0
VERTEX
8
OBJECT__54
10
0
20
0
30
0
70
128
71
14
72
29
73
11
0
VERTEX
8
OBJECT__54
10
0
20
0
30
0
70
128
71
2
72
5
73
3
0
SEQEND
8
OBJECT__54
0
POLYLINE
8
OBJECT__55
66
1
70
64
71
17
72
18
62
253
0
VERTEX
8
OBJECT__55
10
73.452003
20
-12.710000
30
63.988998
70
192
0
VERTEX
8
OBJECT__55
10
73.077003
20
-12.920000
30
63.678001
70
192
0
VERTEX
8
OBJECT__55
10
73.077003
20
-8.922000
30
61.769001
70
192
0
VERTEX
8
OBJECT__55
10
73.607002
20
-6.691000
30
60.945999
70
192
0
VERTEX
8
OBJECT__55
10
73.077003
20
0.000000
30
59.724998
70
192
0
VERTEX
8
OBJECT__55
10
73.607002
20
0.000000
30
59.945000
70
192
0
VERTEX
8
OBJECT__55
10
73.077003
20
-6.755000
30
60.735001
70
192
0
VERTEX
8
OBJECT__55
10
73.077003
20
6.755000
30
60.735001
70
192
0
VERTEX
8
OBJECT__55
10
73.607002
20
6.691000
30
60.945999
70
192
0
VERTEX
8
OBJECT__55
10
73.452003
20
12.710000
30
63.988998
70
192
0
VERTEX
8
OBJECT__55
10
73.077003
20
8.922000
30
61.769001
70
192
0
VERTEX
8
OBJECT__55
10
73.827003
20
-6.536000
30
61.452999
70
192
0
VERTEX
8
OBJECT__55
10
73.827003
20
0.000000
30
60.474998
70
192
0
VERTEX
8
OBJECT__55
10
73.827003
20
6.536000
30
61.452999
70
192
0
VERTEX
8
OBJECT__55
10
73.827003
20
12.500000
30
64.299004
70
192
0
VERTEX
8
OBJECT__55
10
73.827003
20
-12.500000
30
64.299004
70
192
0
VERTEX
8
OBJECT__55
10
73.077003
20
12.920000
30
63.678001
70
192
0
VERTEX
8
OBJECT__55
10
0
20
0
30
0
70
128
71
1
72
2
73
3
0
VERTEX
8
OBJECT__55
10
0
20
0
30
0
70
128
71
3
72
4
73
1
0
VERTEX
8
OBJECT__55
10
0
20
0
30
0
70
128
71
5
72
6
73
4
0
VERTEX
8
OBJECT__55
10
0
20
0
30
0
70
128
71
4
72
7
73
5
0
VERTEX
8
OBJECT__55
10
0
20
0
30
0
70
128
71
5
72
8
73
9
0
VERTEX
8
OBJECT__55
10
0
20
0
30
0
70
128
71
10
72
9
73
11
0
VERTEX
8
OBJECT__55
10
0
20
0
30
0
70
128
71
9
72
8
73
11
0
VERTEX
8
OBJECT__55
10
0
20
0
30
0
70
128
71
1
72
4
73
12
0
VERTEX
8
OBJECT__55
10
0
20
0
30
0
70
128
71
4
72
6
73
13
0
VERTEX
8
OBJECT__55
10
0
20
0
30
0
70
128
71
6
72
9
73
14
0
VERTEX
8
OBJECT__55
10
0
20
0
30
0
70
128
71
10
72
15
73
14
0
VERTEX
8
OBJECT__55
10
0
20
0
30
0
70
128
71
14
72
9
73
10
0
VERTEX
8
OBJECT__55
10
0
20
0
30
0
70
128
71
14
72
13
73
6
0
VERTEX
8
OBJECT__55
10
0
20
0
30
0
70
128
71
13
72
12
73
4
0
VERTEX
8
OBJECT__55
10
0
20
0
30
0
70
128
71
12
72
16
73
1
0
VERTEX
8
OBJECT__55
10
0
20
0
30
0
70
128
71
11
72
17
73
10
0
VERTEX
8
OBJECT__55
10
0
20
0
30
0
70
128
71
9
72
6
73
5
0
VERTEX
8
OBJECT__55
10
0
20
0
30
0
70
128
71
3
72
7
73
4
0
SEQEND
8
OBJECT__55
0
POLYLINE
8
OBJECT__56
66
1
70
64
71
15
72
13
62
253
0
VERTEX
8
OBJECT__56
10
71.444000
20
-15.156000
30
65.394997
70
192
0
VERTEX
8
OBJECT__56
10
71.649002
20
-15.385000
30
65.960999
70
192
0
VERTEX
8
OBJECT__56
10
70.827003
20
-15.433000
30
65.726997
70
192
0
VERTEX
8
OBJECT__56
10
70.827003
20
-15.500000
30
66.036003
70
192
0
VERTEX
8
OBJECT__56
10
72.373001
20
-15.071000
30
65.759003
70
192
0
VERTEX
8
OBJECT__56
10
72.926003
20
-14.596000
30
65.466003
70
192
0
VERTEX
8
OBJECT__56
10
71.986000
20
-14.913000
30
65.185997
70
192
0
VERTEX
8
OBJECT__56
10
72.558998
20
-14.404000
30
64.767998
70
192
0
VERTEX
8
OBJECT__56
10
73.136002
20
-14.415000
30
65.355003
70
192
0
VERTEX
8
OBJECT__56
10
73.625999
20
-13.579000
30
64.872002
70
192
0
VERTEX
8
OBJECT__56
10
72.926003
20
-13.756000
30
64.269997
70
192
0
VERTEX
8
OBJECT__56
10
73.077003
20
-12.920000
30
63.678001
70
192
0
VERTEX
8
OBJECT__56
10
73.452003
20
-12.710000
30
63.988998
70
192
0
VERTEX
8
OBJECT__56
10
73.827003
20
-12.500000
30
64.299004
70
192
0
VERTEX
8
OBJECT__56
10
70.827003
20
-15.245000
30
65.473000
70
192
0
VERTEX
8
OBJECT__56
10
0
20
0
30
0
70
128
71
1
72
2
73
3
0
VERTEX
8
OBJECT__56
10
0
20
0
30
0
70
128
71
2
72
4
73
3
0
VERTEX
8
OBJECT__56
10
0
20
0
30
0
70
128
71
5
72
2
73
1
0
VERTEX
8
OBJECT__56
10
0
20
0
30
0
70
128
71
6
72
5
73
7
0
VERTEX
8
OBJECT__56
10
0
20
0
30
0
70
128
71
8
72
9
73
6
0
VERTEX
8
OBJECT__56
10
0
20
0
30
0
70
128
71
10
72
9
73
8
0
VERTEX
8
OBJECT__56
10
0
20
0
30
0
70
128
71
11
72
12
73
13
0
VERTEX
8
OBJECT__56
10
0
20
0
30
0
70
128
71
13
72
10
73
11
0
VERTEX
8
OBJECT__56
10
0
20
0
30
0
70
128
71
13
72
14
73
10
0
VERTEX
8
OBJECT__56
10
0
20
0
30
0
70
128
71
8
72
11
73
10
0
VERTEX
8
OBJECT__56
10
0
20
0
30
0
70
128
71
7
72
8
73
6
0
VERTEX
8
OBJECT__56
10
0
20
0
30
0
70
128
71
1
72
7
73
5
0
VERTEX
8
OBJECT__56
10
0
20
0
30
0
70
128
71
3
72
15
73
1
0
SEQEND
8
OBJECT__56
0
POLYLINE
8
OBJECT__57
66
1
70
64
71
7
72
5
62
253
0
VERTEX
8
OBJECT__57
10
26.372000
20
-15.353000
30
65.589996
70
192
0
VERTEX
8
OBJECT__57
10
26.372000
20
-15.245000
30
65.473000
70
192
0
VERTEX
8
OBJECT__57
10
48.598999
20
-15.245000
30
65.473000
70
192
0
VERTEX
8
OBJECT__57
10
70.827003
20
-15.433000
30
65.726997
70
192
0
VERTEX
8
OBJECT__57
10
26.371000
20
-15.500000
30
66.036003
70
192
0
VERTEX
8
OBJECT__57
10
70.827003
20
-15.500000
30
66.036003
70
192
0
VERTEX
8
OBJECT__57
10
70.827003
20
-15.245000
30
65.473000
70
192
0
VERTEX
8
OBJECT__57
10
0
20
0
30
0
70
128
71
1
72
2
73
3
0
VERTEX
8
OBJECT__57
10
0
20
0
30
0
70
128
71
3
72
4
73
1
0
VERTEX
8
OBJECT__57
10
0
20
0
30
0
70
128
71
5
72
1
73
4
0
VERTEX
8
OBJECT__57
10
0
20
0
30
0
70
128
71
4
72
6
73
5
0
VERTEX
8
OBJECT__57
10
0
20
0
30
0
70
128
71
3
72
7
73
4
0
SEQEND
8
OBJECT__57
0
POLYLINE
8
OBJECT__58
66
1
70
64
71
10
72
8
62
253
0
VERTEX
8
OBJECT__58
10
72.947998
20
-14.621000
30
85.726997
70
192
0
VERTEX
8
OBJECT__58
10
71.649002
20
-15.385000
30
65.960999
70
192
0
VERTEX
8
OBJECT__58
10
72.373001
20
-15.071000
30
65.759003
70
192
0
VERTEX
8
OBJECT__58
10
70.827003
20
-15.500000
30
85.726997
70
192
0
VERTEX
8
OBJECT__58
10
70.827003
20
-15.500000
30
66.036003
70
192
0
VERTEX
8
OBJECT__58
10
73.827003
20
-12.500000
30
85.726997
70
192
0
VERTEX
8
OBJECT__58
10
73.136002
20
-14.415000
30
65.355003
70
192
0
VERTEX
8
OBJECT__58
10
73.625999
20
-13.579000
30
64.872002
70
192
0
VERTEX
8
OBJECT__58
10
72.926003
20
-14.596000
30
65.466003
70
192
0
VERTEX
8
OBJECT__58
10
73.827003
20
-12.500000
30
64.299004
70
192
0
VERTEX
8
OBJECT__58
10
0
20
0
30
0
70
128
71
1
72
2
73
3
0
VERTEX
8
OBJECT__58
10
0
20
0
30
0
70
128
71
1
72
4
73
5
0
VERTEX
8
OBJECT__58
10
0
20
0
30
0
70
128
71
5
72
2
73
1
0
VERTEX
8
OBJECT__58
10
0
20
0
30
0
70
128
71
6
72
7
73
8
0
VERTEX
8
OBJECT__58
10
0
20
0
30
0
70
128
71
6
72
1
73
9
0
VERTEX
8
OBJECT__58
10
0
20
0
30
0
70
128
71
9
72
7
73
6
0
VERTEX
8
OBJECT__58
10
0
20
0
30
0
70
128
71
8
72
10
73
6
0
VERTEX
8
OBJECT__58
10
0
20
0
30
0
70
128
71
3
72
9
73
1
0
SEQEND
8
OBJECT__58
0
POLYLINE
8
OBJECT__59
66
1
70
64
71
20
72
20
62
253
0
VERTEX
8
OBJECT__59
10
73.827003
20
9.629000
30
66.411003
70
192
0
VERTEX
8
OBJECT__59
10
73.827003
20
5.437000
30
62.698002
70
192
0
VERTEX
8
OBJECT__59
10
73.827003
20
6.536000
30
61.452999
70
192
0
VERTEX
8
OBJECT__59
10
73.827003
20
-12.500000
30
85.726997
70
192
0
VERTEX
8
OBJECT__59
10
73.827003
20
-12.500000
30
64.299004
70
192
0
VERTEX
8
OBJECT__59
10
73.827003
20
-11.615000
30
71.647003
70
192
0
VERTEX
8
OBJECT__59
10
73.827003
20
-9.629000
30
66.411003
70
192
0
VERTEX
8
OBJECT__59
10
73.827003
20
-6.536000
30
61.452999
70
192
0
VERTEX
8
OBJECT__59
10
73.827003
20
12.500000
30
64.299004
70
192
0
VERTEX
8
OBJECT__59
10
73.827003
20
11.615000
30
71.647003
70
192
0
VERTEX
8
OBJECT__59
10
73.827003
20
12.500000
30
85.726997
70
192
0
VERTEX
8
OBJECT__59
10
73.827003
20
10.940000
30
77.206001
70
192
0
VERTEX
8
OBJECT__59
10
73.827003
20
-2.800000
30
84.417000
70
192
0
VERTEX
8
OBJECT__59
10
73.827003
20
2.800000
30
84.417000
70
192
0
VERTEX
8
OBJECT__59
10
73.827003
20
-10.940000
30
77.206001
70
192
0
VERTEX
8
OBJECT__59
10
73.827003
20
-5.437000
30
62.698002
70
192
0
VERTEX
8
OBJECT__59
10
73.827003
20
7.759000
30
81.815002
70
192
0
VERTEX
8
OBJECT__59
10
73.827003
20
-7.759000
30
81.815002
70
192
0
VERTEX
8
OBJECT__59
10
73.827003
20
0.000000
30
60.474998
70
192
0
VERTEX
8
OBJECT__59
10
73.827003
20
0.000000
30
61.356998
70
192
0
VERTEX
8
OBJECT__59
10
0
20
0
30
0
70
128
71
1
72
2
73
3
0
VERTEX
8
OBJECT__59
10
0
20
0
30
0
70
128
71
4
72
5
73
6
0
VERTEX
8
OBJECT__59
10
0
20
0
30
0
70
128
71
7
72
5
73
8
0
VERTEX
8
OBJECT__59
10
0
20
0
30
0
70
128
71
9
72
10
73
1
0
VERTEX
8
OBJECT__59
10
0
20
0
30
0
70
128
71
11
72
12
73
10
0
VERTEX
8
OBJECT__59
10
0
20
0
30
0
70
128
71
4
72
13
73
14
0
VERTEX
8
OBJECT__59
10
0
20
0
30
0
70
128
71
6
72
15
73
4
0
VERTEX
8
OBJECT__59
10
0
20
0
30
0
70
128
71
8
72
16
73
7
0
VERTEX
8
OBJECT__59
10
0
20
0
30
0
70
128
71
10
72
9
73
11
0
VERTEX
8
OBJECT__59
10
0
20
0
30
0
70
128
71
11
72
14
73
17
0
VERTEX
8
OBJECT__59
10
0
20
0
30
0
70
128
71
4
72
18
73
13
0
VERTEX
8
OBJECT__59
10
0
20
0
30
0
70
128
71
7
72
6
73
5
0
VERTEX
8
OBJECT__59
10
0
20
0
30
0
70
128
71
17
72
12
73
11
0
VERTEX
8
OBJECT__59
10
0
20
0
30
0
70
128
71
15
72
18
73
4
0
VERTEX
8
OBJECT__59
10
0
20
0
30
0
70
128
71
14
72
11
73
4
0
VERTEX
8
OBJECT__59
10
0
20
0
30
0
70
128
71
19
72
20
73
16
0
VERTEX
8
OBJECT__59
10
0
20
0
30
0
70
128
71
19
72
3
73
2
0
VERTEX
8
OBJECT__59
10
0
20
0
30
0
70
128
71
16
72
8
73
19
0
VERTEX
8
OBJECT__59
10
0
20
0
30
0
70
128
71
3
72
9
73
1
0
VERTEX
8
OBJECT__59
10
0
20
0
30
0
70
128
71
2
72
20
73
19
0
SEQEND
8
OBJECT__59
0
POLYLINE
8
OBJECT__60
66
1
70
64
71
35
72
35
62
253
0
VERTEX
8
OBJECT__60
10
73.827003
20
5.437000
30
62.698002
70
192
0
VERTEX
8
OBJECT__60
10
73.626999
20
5.344000
30
62.875000
70
192
0
VERTEX
8
OBJECT__60
10
73.626999
20
0.000000
30
61.556999
70
192
0
VERTEX
8
OBJECT__60
10
73.827003
20
9.629000
30
66.411003
70
192
0
VERTEX
8
OBJECT__60
10
73.626999
20
9.464000
30
66.525002
70
192
0
VERTEX
8
OBJECT__60
10
73.626999
20
5.683000
30
63.174000
70
192
0
VERTEX
8
OBJECT__60
10
73.827003
20
11.615000
30
71.647003
70
192
0
VERTEX
8
OBJECT__60
10
73.626999
20
10.495000
30
69.241997
70
192
0
VERTEX
8
OBJECT__60
10
73.626999
20
11.416000
30
71.670998
70
192
0
VERTEX
8
OBJECT__60
10
73.827003
20
10.940000
30
77.206001
70
192
0
VERTEX
8
OBJECT__60
10
73.626999
20
10.771000
30
76.986000
70
192
0
VERTEX
8
OBJECT__60
10
73.626999
20
10.753000
30
77.135002
70
192
0
VERTEX
8
OBJECT__60
10
73.827003
20
7.759000
30
81.815002
70
192
0
VERTEX
8
OBJECT__60
10
73.626999
20
7.626000
30
81.665001
70
192
0
VERTEX
8
OBJECT__60
10
73.827003
20
2.800000
30
84.417000
70
192
0
VERTEX
8
OBJECT__60
10
73.626999
20
2.752000
30
84.223000
70
192
0
VERTEX
8
OBJECT__60
10
73.626999
20
5.599000
30
82.728996
70
192
0
VERTEX
8
OBJECT__60
10
73.827003
20
-2.800000
30
84.417000
70
192
0
VERTEX
8
OBJECT__60
10
73.626999
20
-1.997000
30
84.223000
70
192
0
VERTEX
8
OBJECT__60
10
73.626999
20
-2.752000
30
84.223000
70
192
0
VERTEX
8
OBJECT__60
10
73.827003
20
-7.759000
30
81.815002
70
192
0
VERTEX
8
OBJECT__60
10
73.626999
20
-7.626000
30
81.665001
70
192
0
VERTEX
8
OBJECT__60
10
73.827003
20
-10.940000
30
77.206001
70
192
0
VERTEX
8
OBJECT__60
10
73.626999
20
-10.753000
30
77.135002
70
192
0
VERTEX
8
OBJECT__60
10
73.626999
20
-8.576000
30
80.289001
70
192
0
VERTEX
8
OBJECT__60
10
73.827003
20
-11.615000
30
71.647003
70
192
0
VERTEX
8
OBJECT__60
10
73.626999
20
-11.252000
30
73.027000
70
192
0
VERTEX
8
OBJECT__60
10
73.626999
20
-11.416000
30
71.670998
70
192
0
VERTEX
8
OBJECT__60
10
73.827003
20
-9.629000
30
66.411003
70
192
0
VERTEX
8
OBJECT__60
10
73.626999
20
-9.464000
30
66.525002
70
192
0
VERTEX
8
OBJECT__60
10
73.827003
20
-5.437000
30
62.698002
70
192
0
VERTEX
8
OBJECT__60
10
73.626999
20
-5.344000
30
62.875000
70
192
0
VERTEX
8
OBJECT__60
10
73.626999
20
-8.671000
30
65.821999
70
192
0
VERTEX
8
OBJECT__60
10
73.827003
20
0.000000
30
61.356998
70
192
0
VERTEX
8
OBJECT__60
10
73.626999
20
-1.923000
30
62.030998
70
192
0
VERTEX
8
OBJECT__60
10
0
20
0
30
0
70
128
71
1
72
2
73
3
0
VERTEX
8
OBJECT__60
10
0
20
0
30
0
70
128
71
4
72
5
73
6
0
VERTEX
8
OBJECT__60
10
0
20
0
30
0
70
128
71
6
72
1
73
4
0
VERTEX
8
OBJECT__60
10
0
20
0
30
0
70
128
71
4
72
7
73
8
0
VERTEX
8
OBJECT__60
10
0
20
0
30
0
70
128
71
7
72
9
73
8
0
VERTEX
8
OBJECT__60
10
0
20
0
30
0
70
128
71
7
72
10
73
11
0
VERTEX
8
OBJECT__60
10
0
20
0
30
0
70
128
71
10
72
12
73
11
0
VERTEX
8
OBJECT__60
10
0
20
0
30
0
70
128
71
10
72
13
73
14
0
VERTEX
8
OBJECT__60
10
0
20
0
30
0
70
128
71
15
72
16
73
17
0
VERTEX
8
OBJECT__60
10
0
20
0
30
0
70
128
71
17
72
13
73
15
0
VERTEX
8
OBJECT__60
10
0
20
0
30
0
70
128
71
15
72
18
73
19
0
VERTEX
8
OBJECT__60
10
0
20
0
30
0
70
128
71
18
72
20
73
19
0
VERTEX
8
OBJECT__60
10
0
20
0
30
0
70
128
71
21
72
22
73
20
0
VERTEX
8
OBJECT__60
10
0
20
0
30
0
70
128
71
23
72
24
73
25
0
VERTEX
8
OBJECT__60
10
0
20
0
30
0
70
128
71
25
72
21
73
23
0
VERTEX
8
OBJECT__60
10
0
20
0
30
0
70
128
71
23
72
26
73
27
0
VERTEX
8
OBJECT__60
10
0
20
0
30
0
70
128
71
26
72
28
73
27
0
VERTEX
8
OBJECT__60
10
0
20
0
30
0
70
128
71
26
72
29
73
30
0
VERTEX
8
OBJECT__60
10
0
20
0
30
0
70
128
71
31
72
32
73
33
0
VERTEX
8
OBJECT__60
10
0
20
0
30
0
70
128
71
33
72
29
73
31
0
VERTEX
8
OBJECT__60
10
0
20
0
30
0
70
128
71
31
72
34
73
35
0
VERTEX
8
OBJECT__60
10
0
20
0
30
0
70
128
71
34
72
3
73
35
0
VERTEX
8
OBJECT__60
10
0
20
0
30
0
70
128
71
35
72
32
73
31
0
VERTEX
8
OBJECT__60
10
0
20
0
30
0
70
128
71
33
72
30
73
29
0
VERTEX
8
OBJECT__60
10
0
20
0
30
0
70
128
71
30
72
28
73
26
0
VERTEX
8
OBJECT__60
10
0
20
0
30
0
70
128
71
27
72
24
73
23
0
VERTEX
8
OBJECT__60
10
0
20
0
30
0
70
128
71
25
72
22
73
21
0
VERTEX
8
OBJECT__60
10
0
20
0
30
0
70
128
71
20
72
18
73
21
0
VERTEX
8
OBJECT__60
10
0
20
0
30
0
70
128
71
19
72
16
73
15
0
VERTEX
8
OBJECT__60
10
0
20
0
30
0
70
128
71
17
72
14
73
13
0
VERTEX
8
OBJECT__60
10
0
20
0
30
0
70
128
71
14
72
12
73
10
0
VERTEX
8
OBJECT__60
10
0
20
0
30
0
70
128
71
11
72
9
73
7
0
VERTEX
8
OBJECT__60
10
0
20
0
30
0
70
128
71
8
72
5
73
4
0
VERTEX
8
OBJECT__60
10
0
20
0
30
0
70
128
71
6
72
2
73
1
0
VERTEX
8
OBJECT__60
10
0
20
0
30
0
70
128
71
3
72
34
73
1
0
SEQEND
8
OBJECT__60
0
POLYLINE
8
OBJECT__61
66
1
70
64
71
31
72
31
62
253
0
VERTEX
8
OBJECT__61
10
68.669998
20
-11.500000
30
73.056999
70
192
0
VERTEX
8
OBJECT__61
10
68.669998
20
-8.810000
30
80.449997
70
192
0
VERTEX
8
OBJECT__61
10
73.626999
20
-10.753000
30
77.135002
70
192
0
VERTEX
8
OBJECT__61
10
73.626999
20
-8.576000
30
80.289001
70
192
0
VERTEX
8
OBJECT__61
10
68.669998
20
-1.997000
30
84.383003
70
192
0
VERTEX
8
OBJECT__61
10
73.626999
20
-2.752000
30
84.223000
70
192
0
VERTEX
8
OBJECT__61
10
73.626999
20
-7.626000
30
81.665001
70
192
0
VERTEX
8
OBJECT__61
10
73.626999
20
-1.997000
30
84.223000
70
192
0
VERTEX
8
OBJECT__61
10
68.669998
20
5.750000
30
83.016998
70
192
0
VERTEX
8
OBJECT__61
10
73.626999
20
2.752000
30
84.223000
70
192
0
VERTEX
8
OBJECT__61
10
73.626999
20
5.599000
30
82.728996
70
192
0
VERTEX
8
OBJECT__61
10
68.669998
20
10.806000
30
76.990997
70
192
0
VERTEX
8
OBJECT__61
10
73.626999
20
10.753000
30
77.135002
70
192
0
VERTEX
8
OBJECT__61
10
73.626999
20
7.626000
30
81.665001
70
192
0
VERTEX
8
OBJECT__61
10
73.626999
20
10.771000
30
76.986000
70
192
0
VERTEX
8
OBJECT__61
10
68.669998
20
10.806000
30
69.124001
70
192
0
VERTEX
8
OBJECT__61
10
73.626999
20
11.416000
30
71.670998
70
192
0
VERTEX
8
OBJECT__61
10
73.626999
20
10.495000
30
69.241997
70
192
0
VERTEX
8
OBJECT__61
10
68.669998
20
5.750000
30
63.098000
70
192
0
VERTEX
8
OBJECT__61
10
73.626999
20
5.683000
30
63.174000
70
192
0
VERTEX
8
OBJECT__61
10
73.626999
20
9.464000
30
66.525002
70
192
0
VERTEX
8
OBJECT__61
10
68.669998
20
-1.997000
30
61.731998
70
192
0
VERTEX
8
OBJECT__61
10
73.626999
20
0.000000
30
61.556999
70
192
0
VERTEX
8
OBJECT__61
10
73.626999
20
5.344000
30
62.875000
70
192
0
VERTEX
8
OBJECT__61
10
73.626999
20
-1.923000
30
62.030998
70
192
0
VERTEX
8
OBJECT__61
10
68.669998
20
-8.810000
30
65.665001
70
192
0
VERTEX
8
OBJECT__61
10
73.626999
20
-8.671000
30
65.821999
70
192
0
VERTEX
8
OBJECT__61
10
73.626999
20
-5.344000
30
62.875000
70
192
0
VERTEX
8
OBJECT__61
10
73.626999
20
-11.416000
30
71.670998
70
192
0
VERTEX
8
OBJECT__61
10
73.626999
20
-9.464000
30
66.525002
70
192
0
VERTEX
8
OBJECT__61
10
73.626999
20
-11.252000
30
73.027000
70
192
0
VERTEX
8
OBJECT__61
10
0
20
0
30
0
70
128
71
1
72
2
73
3
0
VERTEX
8
OBJECT__61
10
0
20
0
30
0
70
128
71
2
72
4
73
3
0
VERTEX
8
OBJECT__61
10
0
20
0
30
0
70
128
71
5
72
6
73
7
0
VERTEX
8
OBJECT__61
10
0
20
0
30
0
70
128
71
7
72
2
73
5
0
VERTEX
8
OBJECT__61
10
0
20
0
30
0
70
128
71
5
72
8
73
6
0
VERTEX
8
OBJECT__61
10
0
20
0
30
0
70
128
71
5
72
9
73
10
0
VERTEX
8
OBJECT__61
10
0
20
0
30
0
70
128
71
9
72
11
73
10
0
VERTEX
8
OBJECT__61
10
0
20
0
30
0
70
128
71
12
72
13
73
14
0
VERTEX
8
OBJECT__61
10
0
20
0
30
0
70
128
71
14
72
9
73
12
0
VERTEX
8
OBJECT__61
10
0
20
0
30
0
70
128
71
12
72
15
73
13
0
VERTEX
8
OBJECT__61
10
0
20
0
30
0
70
128
71
12
72
16
73
17
0
VERTEX
8
OBJECT__61
10
0
20
0
30
0
70
128
71
16
72
18
73
17
0
VERTEX
8
OBJECT__61
10
0
20
0
30
0
70
128
71
19
72
20
73
21
0
VERTEX
8
OBJECT__61
10
0
20
0
30
0
70
128
71
21
72
16
73
19
0
VERTEX
8
OBJECT__61
10
0
20
0
30
0
70
128
71
19
72
22
73
23
0
VERTEX
8
OBJECT__61
10
0
20
0
30
0
70
128
71
23
72
24
73
19
0
VERTEX
8
OBJECT__61
10
0
20
0
30
0
70
128
71
22
72
25
73
23
0
VERTEX
8
OBJECT__61
10
0
20
0
30
0
70
128
71
26
72
27
73
28
0
VERTEX
8
OBJECT__61
10
0
20
0
30
0
70
128
71
28
72
22
73
26
0
VERTEX
8
OBJECT__61
10
0
20
0
30
0
70
128
71
26
72
1
73
29
0
VERTEX
8
OBJECT__61
10
0
20
0
30
0
70
128
71
29
72
30
73
26
0
VERTEX
8
OBJECT__61
10
0
20
0
30
0
70
128
71
1
72
31
73
29
0
VERTEX
8
OBJECT__61
10
0
20
0
30
0
70
128
71
30
72
27
73
26
0
VERTEX
8
OBJECT__61
10
0
20
0
30
0
70
128
71
28
72
25
73
22
0
VERTEX
8
OBJECT__61
10
0
20
0
30
0
70
128
71
24
72
20
73
19
0
VERTEX
8
OBJECT__61
10
0
20
0
30
0
70
128
71
21
72
18
73
16
0
VERTEX
8
OBJECT__61
10
0
20
0
30
0
70
128
71
17
72
15
73
12
0
VERTEX
8
OBJECT__61
10
0
20
0
30
0
70
128
71
14
72
11
73
9
0
VERTEX
8
OBJECT__61
10
0
20
0
30
0
70
128
71
10
72
8
73
5
0
VERTEX
8
OBJECT__61
10
0
20
0
30
0
70
128
71
7
72
4
73
2
0
VERTEX
8
OBJECT__61
10
0
20
0
30
0
70
128
71
3
72
31
73
1
0
SEQEND
8
OBJECT__61
0
POLYLINE
8
OBJECT__62
66
1
70
64
71
4
72
2
62
253
0
VERTEX
8
OBJECT__62
10
-41.348000
20
2.000000
30
43.830002
70
192
0
VERTEX
8
OBJECT__62
10
-41.348000
20
0.000000
30
41.830002
70
192
0
VERTEX
8
OBJECT__62
10
-41.348000
20
-2.000000
30
43.830002
70
192
0
VERTEX
8
OBJECT__62
10
-41.348000
20
0.000000
30
45.830002
70
192
0
VERTEX
8
OBJECT__62
10
0
20
0
30
0
70
128
71
1
72
2
73
3
0
VERTEX
8
OBJECT__62
10
0
20
0
30
0
70
128
71
3
72
4
73
1
0
SEQEND
8
OBJECT__62
0
POLYLINE
8
OBJECT__63
66
1
70
64
71
12
72
12
62
253
0
VERTEX
8
OBJECT__63
10
-41.348000
20
0.000000
30
41.830002
70
192
0
VERTEX
8
OBJECT__63
10
-41.348000
20
2.000000
30
43.830002
70
192
0
VERTEX
8
OBJECT__63
10
-27.881001
20
1.902000
30
43.212002
70
192
0
VERTEX
8
OBJECT__63
10
-27.881001
20
1.730000
30
43.742001
70
192
0
VERTEX
8
OBJECT__63
10
-41.348000
20
0.000000
30
45.830002
70
192
0
VERTEX
8
OBJECT__63
10
-27.881001
20
1.176000
30
45.448002
70
192
0
VERTEX
8
OBJECT__63
10
-27.881001
20
0.000000
30
45.830002
70
192
0
VERTEX
8
OBJECT__63
10
-41.348000
20
-2.000000
30
43.830002
70
192
0
VERTEX
8
OBJECT__63
10
-27.881001
20
-1.730000
30
43.742001
70
192
0
VERTEX
8
OBJECT__63
10
-27.881001
20
-1.176000
30
45.448002
70
192
0
VERTEX
8
OBJECT__63
10
-27.881001
20
0.000000
30
41.830002
70
192
0
VERTEX
8
OBJECT__63
10
-27.881001
20
-1.902000
30
43.212002
70
192
0
VERTEX
8
OBJECT__63
10
0
20
0
30
0
70
128
71
1
72
2
73
3
0
VERTEX
8
OBJECT__63
10
0
20
0
30
0
70
128
71
2
72
4
73
3
0
VERTEX
8
OBJECT__63
10
0
20
0
30
0
70
128
71
2
72
5
73
6
0
VERTEX
8
OBJECT__63
10
0
20
0
30
0
70
128
71
5
72
7
73
6
0
VERTEX
8
OBJECT__63
10
0
20
0
30
0
70
128
71
8
72
9
73
10
0
VERTEX
8
OBJECT__63
10
0
20
0
30
0
70
128
71
10
72
5
73
8
0
VERTEX
8
OBJECT__63
10
0
20
0
30
0
70
128
71
1
72
11
73
12
0
VERTEX
8
OBJECT__63
10
0
20
0
30
0
70
128
71
12
72
8
73
1
0
VERTEX
8
OBJECT__63
10
0
20
0
30
0
70
128
71
12
72
9
73
8
0
VERTEX
8
OBJECT__63
10
0
20
0
30
0
70
128
71
10
72
7
73
5
0
VERTEX
8
OBJECT__63
10
0
20
0
30
0
70
128
71
6
72
4
73
2
0
VERTEX
8
OBJECT__63
10
0
20
0
30
0
70
128
71
3
72
11
73
1
0
SEQEND
8
OBJECT__63
0
POLYLINE
8
OBJECT__65
66
1
70
64
71
21
72
26
62
253
0
VERTEX
8
OBJECT__65
10
-27.881001
20
-1.902000
30
43.212002
70
192
0
VERTEX
8
OBJECT__65
10
-27.881001
20
0.000000
30
41.830002
70
192
0
VERTEX
8
OBJECT__65
10
-27.292999
20
0.000000
30
41.639000
70
192
0
VERTEX
8
OBJECT__65
10
-26.481001
20
-1.902000
30
42.757000
70
192
0
VERTEX
8
OBJECT__65
10
-26.930000
20
0.000000
30
41.139000
70
192
0
VERTEX
8
OBJECT__65
10
-25.166000
20
-1.176000
30
44.566002
70
192
0
VERTEX
8
OBJECT__65
10
-27.881001
20
-1.730000
30
43.742001
70
192
0
VERTEX
8
OBJECT__65
10
-27.881001
20
-1.176000
30
45.448002
70
192
0
VERTEX
8
OBJECT__65
10
-25.111000
20
-1.730000
30
41.729000
70
192
0
VERTEX
8
OBJECT__65
10
-25.615000
20
-1.902000
30
41.566002
70
192
0
VERTEX
8
OBJECT__65
10
-25.166000
20
1.176000
30
44.566002
70
192
0
VERTEX
8
OBJECT__65
10
-27.881001
20
1.176000
30
45.448002
70
192
0
VERTEX
8
OBJECT__65
10
-27.881001
20
0.000000
30
45.830002
70
192
0
VERTEX
8
OBJECT__65
10
-23.125000
20
0.000000
30
42.375000
70
192
0
VERTEX
8
OBJECT__65
10
-23.489000
20
-1.176000
30
42.257000
70
192
0
VERTEX
8
OBJECT__65
10
-27.881001
20
1.730000
30
43.742001
70
192
0
VERTEX
8
OBJECT__65
10
-26.481001
20
1.902000
30
42.757000
70
192
0
VERTEX
8
OBJECT__65
10
-27.881001
20
1.902000
30
43.212002
70
192
0
VERTEX
8
OBJECT__65
10
-25.111000
20
1.730000
30
41.729000
70
192
0
VERTEX
8
OBJECT__65
10
-23.489000
20
1.176000
30
42.257000
70
192
0
VERTEX
8
OBJECT__65
10
-25.615000
20
1.902000
30
41.566002
70
192
0
VERTEX
8
OBJECT__65
10
0
20
0
30
0
70
128
71
1
72
2
73
3
0
VERTEX
8
OBJECT__65
10
0
20
0
30
0
70
128
71
4
72
3
73
5
0
VERTEX
8
OBJECT__65
10
0
20
0
30
0
70
128
71
4
72
6
73
7
0
VERTEX
8
OBJECT__65
10
0
20
0
30
0
70
128
71
6
72
8
73
7
0
VERTEX
8
OBJECT__65
10
0
20
0
30
0
70
128
71
9
72
6
73
4
0
VERTEX
8
OBJECT__65
10
0
20
0
30
0
70
128
71
4
72
10
73
9
0
VERTEX
8
OBJECT__65
10
0
20
0
30
0
70
128
71
11
72
12
73
13
0
VERTEX
8
OBJECT__65
10
0
20
0
30
0
70
128
71
13
72
6
73
11
0
VERTEX
8
OBJECT__65
10
0
20
0
30
0
70
128
71
11
72
6
73
14
0
VERTEX
8
OBJECT__65
10
0
20
0
30
0
70
128
71
6
72
15
73
14
0
VERTEX
8
OBJECT__65
10
0
20
0
30
0
70
128
71
16
72
11
73
17
0
VERTEX
8
OBJECT__65
10
0
20
0
30
0
70
128
71
17
72
18
73
16
0
VERTEX
8
OBJECT__65
10
0
20
0
30
0
70
128
71
17
72
11
73
19
0
VERTEX
8
OBJECT__65
10
0
20
0
30
0
70
128
71
11
72
20
73
19
0
VERTEX
8
OBJECT__65
10
0
20
0
30
0
70
128
71
18
72
17
73
3
0
VERTEX
8
OBJECT__65
10
0
20
0
30
0
70
128
71
17
72
21
73
5
0
VERTEX
8
OBJECT__65
10
0
20
0
30
0
70
128
71
5
72
3
73
17
0
VERTEX
8
OBJECT__65
10
0
20
0
30
0
70
128
71
3
72
2
73
18
0
VERTEX
8
OBJECT__65
10
0
20
0
30
0
70
128
71
19
72
21
73
17
0
VERTEX
8
OBJECT__65
10
0
20
0
30
0
70
128
71
16
72
12
73
11
0
VERTEX
8
OBJECT__65
10
0
20
0
30
0
70
128
71
14
72
20
73
11
0
VERTEX
8
OBJECT__65
10
0
20
0
30
0
70
128
71
13
72
8
73
6
0
VERTEX
8
OBJECT__65
10
0
20
0
30
0
70
128
71
9
72
15
73
6
0
VERTEX
8
OBJECT__65
10
0
20
0
30
0
70
128
71
7
72
1
73
4
0
VERTEX
8
OBJECT__65
10
0
20
0
30
0
70
128
71
5
72
10
73
4
0
VERTEX
8
OBJECT__65
10
0
20
0
30
0
70
128
71
3
72
4
73
1
0
SEQEND
8
OBJECT__65
0
POLYLINE
8
OBJECT__66
66
1
70
64
71
16
72
16
62
253
0
VERTEX
8
OBJECT__66
10
-23.125000
20
0.000000
30
42.375000
70
192
0
VERTEX
8
OBJECT__66
10
-9.357000
20
0.000000
30
0.000000
70
192
0
VERTEX
8
OBJECT__66
10
-9.687000
20
1.075000
30
0.000000
70
192
0
VERTEX
8
OBJECT__66
10
-23.489000
20
1.176000
30
42.257000
70
192
0
VERTEX
8
OBJECT__66
10
-11.578000
20
1.610000
30
0.000000
70
192
0
VERTEX
8
OBJECT__66
10
-25.111000
20
1.730000
30
41.729000
70
192
0
VERTEX
8
OBJECT__66
10
-25.615000
20
1.902000
30
41.566002
70
192
0
VERTEX
8
OBJECT__66
10
-12.328000
20
1.822000
30
0.000000
70
192
0
VERTEX
8
OBJECT__66
10
-13.270000
20
-0.127000
30
0.000000
70
192
0
VERTEX
8
OBJECT__66
10
-26.930000
20
0.000000
30
41.139000
70
192
0
VERTEX
8
OBJECT__66
10
-25.615000
20
-1.902000
30
41.566002
70
192
0
VERTEX
8
OBJECT__66
10
-13.479000
20
-0.560000
30
0.000000
70
192
0
VERTEX
8
OBJECT__66
10
-25.111000
20
-1.730000
30
41.729000
70
192
0
VERTEX
8
OBJECT__66
10
-11.365000
20
-1.856000
30
0.000000
70
192
0
VERTEX
8
OBJECT__66
10
-23.489000
20
-1.176000
30
42.257000
70
192
0
VERTEX
8
OBJECT__66
10
-11.163000
20
-1.980000
30
0.000000
70
192
0
VERTEX
8
OBJECT__66
10
0
20
0
30
0
70
128
71
1
72
2
73
3
0
VERTEX
8
OBJECT__66
10
0
20
0
30
0
70
128
71
4
72
3
73
5
0
VERTEX
8
OBJECT__66
10
0
20
0
30
0
70
128
71
5
72
6
73
4
0
VERTEX
8
OBJECT__66
10
0
20
0
30
0
70
128
71
7
72
8
73
9
0
VERTEX
8
OBJECT__66
10
0
20
0
30
0
70
128
71
9
72
10
73
7
0
VERTEX
8
OBJECT__66
10
0
20
0
30
0
70
128
71
6
72
5
73
8
0
VERTEX
8
OBJECT__66
10
0
20
0
30
0
70
128
71
11
72
9
73
12
0
VERTEX
8
OBJECT__66
10
0
20
0
30
0
70
128
71
12
72
13
73
11
0
VERTEX
8
OBJECT__66
10
0
20
0
30
0
70
128
71
11
72
10
73
9
0
VERTEX
8
OBJECT__66
10
0
20
0
30
0
70
128
71
12
72
14
73
13
0
VERTEX
8
OBJECT__66
10
0
20
0
30
0
70
128
71
15
72
13
73
14
0
VERTEX
8
OBJECT__66
10
0
20
0
30
0
70
128
71
14
72
16
73
15
0
VERTEX
8
OBJECT__66
10
0
20
0
30
0
70
128
71
2
72
1
73
15
0
VERTEX
8
OBJECT__66
10
0
20
0
30
0
70
128
71
16
72
2
73
15
0
VERTEX
8
OBJECT__66
10
0
20
0
30
0
70
128
71
7
72
6
73
8
0
VERTEX
8
OBJECT__66
10
0
20
0
30
0
70
128
71
3
72
4
73
1
0
SEQEND
8
OBJECT__66
0
POLYLINE
8
OBJECT__67
66
1
70
64
71
8
72
6
62
253
0
VERTEX
8
OBJECT__67
10
-13.270000
20
-0.127000
30
0.000000
70
192
0
VERTEX
8
OBJECT__67
10
-12.328000
20
1.822000
30
0.000000
70
192
0
VERTEX
8
OBJECT__67
10
-11.578000
20
1.610000
30
0.000000
70
192
0
VERTEX
8
OBJECT__67
10
-11.365000
20
-1.856000
30
0.000000
70
192
0
VERTEX
8
OBJECT__67
10
-13.479000
20
-0.560000
30
0.000000
70
192
0
VERTEX
8
OBJECT__67
10
-9.687000
20
1.075000
30
0.000000
70
192
0
VERTEX
8
OBJECT__67
10
-9.357000
20
0.000000
30
0.000000
70
192
0
VERTEX
8
OBJECT__67
10
-11.163000
20
-1.980000
30
0.000000
70
192
0
VERTEX
8
OBJECT__67
10
0
20
0
30
0
70
128
71
1
72
2
73
3
0
VERTEX
8
OBJECT__67
10
0
20
0
30
0
70
128
71
4
72
5
73
1
0
VERTEX
8
OBJECT__67
10
0
20
0
30
0
70
128
71
3
72
4
73
1
0
VERTEX
8
OBJECT__67
10
0
20
0
30
0
70
128
71
4
72
6
73
7
0
VERTEX
8
OBJECT__67
10
0
20
0
30
0
70
128
71
7
72
8
73
4
0
VERTEX
8
OBJECT__67
10
0
20
0
30
0
70
128
71
3
72
6
73
4
0
SEQEND
8
OBJECT__67
0
ENDSEC
0
EOF
