999
Converted by 3D Exploration 
999
XDimension Software, LLC
999
http://www.xdsoft.com/explorer/
0
SECTION
2
HEADER
9
$ACADVER
1
AC1008
9
$UCSORG
10
0.0
20
0.0
30
0.0
9
$UCSXDIR
10
1.0
20
0.0
30
0.0
9
$TILEMODE
70
1
9
$UCSYDIR
10
0.0
20
1.0
30
0.0
9
$EXTMIN
10
1.293000
20
-40.842999
30
-40.842999
9
$EXTMAX
10
63.841999
20
61.457001
30
940.473022
0
ENDSEC
0
SECTION
2
TABLES
0
TABLE
2
LTYPE
70
1
0
LTYPE
2
CONTINUOUS
70
64
3
Solid line
72
65
73
0
40
0.0
0
ENDTAB
0
TABLE
2
LAYER
70
74
0
LAYER
2
OBJECT__0
70
0
62
253
6
CONTINUOUS
0
LAYER
2
OBJECT__1
70
0
62
253
6
CONTINUOUS
0
LAYER
2
OBJECT__3
70
0
62
253
6
CONTINUOUS
0
LAYER
2
OBJECT__4
70
0
62
253
6
CONTINUOUS
0
LAYER
2
OBJECT__6
70
0
62
253
6
CONTINUOUS
0
LAYER
2
OBJECT__7
70
0
62
253
6
CONTINUOUS
0
LAYER
2
OBJECT__8
70
0
62
253
6
CONTINUOUS
0
LAYER
2
OBJECT__9
70
0
62
253
6
CONTINUOUS
0
LAYER
2
OBJECT__11
70
0
62
253
6
CONTINUOUS
0
LAYER
2
OBJECT__12
70
0
62
253
6
CONTINUOUS
0
LAYER
2
OBJECT__13
70
0
62
253
6
CONTINUOUS
0
LAYER
2
OBJECT__15
70
0
62
253
6
CONTINUOUS
0
LAYER
2
OBJECT__16
70
0
62
253
6
CONTINUOUS
0
LAYER
2
OBJECT__17
70
0
62
253
6
CONTINUOUS
0
LAYER
2
OBJECT__18
70
0
62
253
6
CONTINUOUS
0
LAYER
2
OBJECT__19
70
0
62
253
6
CONTINUOUS
0
LAYER
2
OBJECT__20
70
0
62
253
6
CONTINUOUS
0
LAYER
2
OBJECT__21
70
0
62
253
6
CONTINUOUS
0
LAYER
2
OBJECT__23
70
0
62
253
6
CONTINUOUS
0
LAYER
2
OBJECT__24
70
0
62
253
6
CONTINUOUS
0
LAYER
2
OBJECT__25
70
0
62
253
6
CONTINUOUS
0
LAYER
2
OBJECT__27
70
0
62
253
6
CONTINUOUS
0
LAYER
2
OBJECT__28
70
0
62
253
6
CONTINUOUS
0
LAYER
2
OBJECT__29
70
0
62
253
6
CONTINUOUS
0
LAYER
2
OBJECT__30
70
0
62
253
6
CONTINUOUS
0
LAYER
2
OBJECT__31
70
0
62
253
6
CONTINUOUS
0
LAYER
2
OBJECT__32
70
0
62
253
6
CONTINUOUS
0
LAYER
2
OBJECT__33
70
0
62
253
6
CONTINUOUS
0
LAYER
2
OBJECT__35
70
0
62
253
6
CONTINUOUS
0
LAYER
2
OBJECT__36
70
0
62
253
6
CONTINUOUS
0
LAYER
2
OBJECT__37
70
0
62
253
6
CONTINUOUS
0
LAYER
2
OBJECT__38
70
0
62
253
6
CONTINUOUS
0
LAYER
2
OBJECT__40
70
0
62
253
6
CONTINUOUS
0
LAYER
2
OBJECT__41
70
0
62
253
6
CONTINUOUS
0
LAYER
2
OBJECT__42
70
0
62
253
6
CONTINUOUS
0
LAYER
2
OBJECT__43
70
0
62
253
6
CONTINUOUS
0
LAYER
2
OBJECT__44
70
0
62
253
6
CONTINUOUS
0
LAYER
2
OBJECT__45
70
0
62
253
6
CONTINUOUS
0
LAYER
2
OBJECT__46
70
0
62
253
6
CONTINUOUS
0
LAYER
2
OBJECT__47
70
0
62
253
6
CONTINUOUS
0
LAYER
2
OBJECT__48
70
0
62
253
6
CONTINUOUS
0
LAYER
2
OBJECT__49
70
0
62
253
6
CONTINUOUS
0
LAYER
2
OBJECT__50
70
0
62
253
6
CONTINUOUS
0
LAYER
2
OBJECT__51
70
0
62
253
6
CONTINUOUS
0
LAYER
2
OBJECT__52
70
0
62
253
6
CONTINUOUS
0
LAYER
2
OBJECT__53
70
0
62
253
6
CONTINUOUS
0
LAYER
2
OBJECT__54
70
0
62
253
6
CONTINUOUS
0
LAYER
2
OBJECT__55
70
0
62
253
6
CONTINUOUS
0
LAYER
2
OBJECT__57
70
0
62
253
6
CONTINUOUS
0
LAYER
2
OBJECT__58
70
0
62
253
6
CONTINUOUS
0
LAYER
2
OBJECT__59
70
0
62
253
6
CONTINUOUS
0
LAYER
2
OBJECT__60
70
0
62
253
6
CONTINUOUS
0
LAYER
2
OBJECT__61
70
0
62
253
6
CONTINUOUS
0
LAYER
2
OBJECT__63
70
0
62
253
6
CONTINUOUS
0
LAYER
2
OBJECT__64
70
0
62
253
6
CONTINUOUS
0
LAYER
2
OBJECT__65
70
0
62
253
6
CONTINUOUS
0
LAYER
2
OBJECT__66
70
0
62
253
6
CONTINUOUS
0
LAYER
2
OBJECT__67
70
0
62
253
6
CONTINUOUS
0
LAYER
2
OBJECT__69
70
0
62
253
6
CONTINUOUS
0
LAYER
2
OBJECT__70
70
0
62
253
6
CONTINUOUS
0
LAYER
2
OBJECT__71
70
0
62
253
6
CONTINUOUS
0
LAYER
2
OBJECT__72
70
0
62
253
6
CONTINUOUS
0
LAYER
2
OBJECT__73
70
0
62
253
6
CONTINUOUS
0
ENDTAB
0
TABLE
2
STYLE
70
1
0
STYLE
2
STANDARD
70
0
40
0.0
41
1.0
50
0.0
71
0
42
0.2
3
txt
4
1
0
ENDTAB
0
TABLE
2
UCS
70
0
0
ENDTAB
0
ENDSEC
0
SECTION
2
ENTITIES
0
POLYLINE
8
OBJECT__0
66
1
70
64
71
4
72
2
62
253
0
VERTEX
8
OBJECT__0
10
46.292999
20
-34.842999
30
527.000000
70
192
0
VERTEX
8
OBJECT__0
10
51.292999
20
-29.843000
30
527.000000
70
192
0
VERTEX
8
OBJECT__0
10
46.292999
20
-24.843000
30
527.000000
70
192
0
VERTEX
8
OBJECT__0
10
41.292999
20
-29.843000
30
527.000000
70
192
0
VERTEX
8
OBJECT__0
10
0
20
0
30
0
70
128
71
1
72
2
73
3
0
VERTEX
8
OBJECT__0
10
0
20
0
30
0
70
128
71
3
72
4
73
1
0
SEQEND
8
OBJECT__0
0
POLYLINE
8
OBJECT__1
66
1
70
64
71
8
72
8
62
253
0
VERTEX
8
OBJECT__1
10
46.292999
20
-34.842999
30
516.174988
70
192
0
VERTEX
8
OBJECT__1
10
46.292999
20
-34.842999
30
527.000000
70
192
0
VERTEX
8
OBJECT__1
10
41.292999
20
-29.843000
30
527.000000
70
192
0
VERTEX
8
OBJECT__1
10
51.292999
20
-29.843000
30
516.174988
70
192
0
VERTEX
8
OBJECT__1
10
51.292999
20
-29.843000
30
527.000000
70
192
0
VERTEX
8
OBJECT__1
10
46.292999
20
-24.843000
30
527.000000
70
192
0
VERTEX
8
OBJECT__1
10
41.292999
20
-29.843000
30
516.174988
70
192
0
VERTEX
8
OBJECT__1
10
46.292999
20
-24.843000
30
516.174988
70
192
0
VERTEX
8
OBJECT__1
10
0
20
0
30
0
70
128
71
1
72
2
73
3
0
VERTEX
8
OBJECT__1
10
0
20
0
30
0
70
128
71
1
72
4
73
5
0
VERTEX
8
OBJECT__1
10
0
20
0
30
0
70
128
71
6
72
5
73
4
0
VERTEX
8
OBJECT__1
10
0
20
0
30
0
70
128
71
7
72
3
73
6
0
VERTEX
8
OBJECT__1
10
0
20
0
30
0
70
128
71
6
72
8
73
7
0
VERTEX
8
OBJECT__1
10
0
20
0
30
0
70
128
71
4
72
8
73
6
0
VERTEX
8
OBJECT__1
10
0
20
0
30
0
70
128
71
5
72
2
73
1
0
VERTEX
8
OBJECT__1
10
0
20
0
30
0
70
128
71
3
72
7
73
1
0
SEQEND
8
OBJECT__1
0
POLYLINE
8
OBJECT__3
66
1
70
64
71
4
72
2
62
253
0
VERTEX
8
OBJECT__3
10
46.292999
20
-7.693000
30
-14.000000
70
192
0
VERTEX
8
OBJECT__3
10
40.292999
20
-1.693000
30
-14.000000
70
192
0
VERTEX
8
OBJECT__3
10
46.292999
20
4.307000
30
-14.000000
70
192
0
VERTEX
8
OBJECT__3
10
52.292999
20
-1.693000
30
-14.000000
70
192
0
VERTEX
8
OBJECT__3
10
0
20
0
30
0
70
128
71
1
72
2
73
3
0
VERTEX
8
OBJECT__3
10
0
20
0
30
0
70
128
71
3
72
4
73
1
0
SEQEND
8
OBJECT__3
0
POLYLINE
8
OBJECT__4
66
1
70
64
71
8
72
8
62
253
0
VERTEX
8
OBJECT__4
10
40.292999
20
-1.693000
30
-14.000000
70
192
0
VERTEX
8
OBJECT__4
10
46.292999
20
-7.693000
30
-14.000000
70
192
0
VERTEX
8
OBJECT__4
10
46.292999
20
-7.693000
30
14.500000
70
192
0
VERTEX
8
OBJECT__4
10
46.292999
20
4.307000
30
-14.000000
70
192
0
VERTEX
8
OBJECT__4
10
40.292999
20
-1.693000
30
14.500000
70
192
0
VERTEX
8
OBJECT__4
10
52.292999
20
-1.693000
30
14.500000
70
192
0
VERTEX
8
OBJECT__4
10
52.292999
20
-1.693000
30
-14.000000
70
192
0
VERTEX
8
OBJECT__4
10
46.292999
20
4.307000
30
14.500000
70
192
0
VERTEX
8
OBJECT__4
10
0
20
0
30
0
70
128
71
1
72
2
73
3
0
VERTEX
8
OBJECT__4
10
0
20
0
30
0
70
128
71
4
72
1
73
5
0
VERTEX
8
OBJECT__4
10
0
20
0
30
0
70
128
71
6
72
7
73
4
0
VERTEX
8
OBJECT__4
10
0
20
0
30
0
70
128
71
3
72
2
73
7
0
VERTEX
8
OBJECT__4
10
0
20
0
30
0
70
128
71
7
72
6
73
3
0
VERTEX
8
OBJECT__4
10
0
20
0
30
0
70
128
71
4
72
8
73
6
0
VERTEX
8
OBJECT__4
10
0
20
0
30
0
70
128
71
5
72
8
73
4
0
VERTEX
8
OBJECT__4
10
0
20
0
30
0
70
128
71
3
72
5
73
1
0
SEQEND
8
OBJECT__4
0
POLYLINE
8
OBJECT__6
66
1
70
64
71
9
72
9
62
253
0
VERTEX
8
OBJECT__6
10
40.120998
20
6.802000
30
14.500000
70
192
0
VERTEX
8
OBJECT__6
10
46.292999
20
4.307000
30
14.500000
70
192
0
VERTEX
8
OBJECT__6
10
40.292999
20
-1.693000
30
14.500000
70
192
0
VERTEX
8
OBJECT__6
10
52.465000
20
6.802000
30
14.500000
70
192
0
VERTEX
8
OBJECT__6
10
56.278999
20
-4.938000
30
14.500000
70
192
0
VERTEX
8
OBJECT__6
10
52.292999
20
-1.693000
30
14.500000
70
192
0
VERTEX
8
OBJECT__6
10
46.292999
20
-12.193000
30
14.500000
70
192
0
VERTEX
8
OBJECT__6
10
46.292999
20
-7.693000
30
14.500000
70
192
0
VERTEX
8
OBJECT__6
10
36.306999
20
-4.938000
30
14.500000
70
192
0
VERTEX
8
OBJECT__6
10
0
20
0
30
0
70
128
71
1
72
2
73
3
0
VERTEX
8
OBJECT__6
10
0
20
0
30
0
70
128
71
4
72
5
73
6
0
VERTEX
8
OBJECT__6
10
0
20
0
30
0
70
128
71
5
72
7
73
8
0
VERTEX
8
OBJECT__6
10
0
20
0
30
0
70
128
71
9
72
3
73
8
0
VERTEX
8
OBJECT__6
10
0
20
0
30
0
70
128
71
1
72
4
73
2
0
VERTEX
8
OBJECT__6
10
0
20
0
30
0
70
128
71
8
72
6
73
5
0
VERTEX
8
OBJECT__6
10
0
20
0
30
0
70
128
71
3
72
9
73
1
0
VERTEX
8
OBJECT__6
10
0
20
0
30
0
70
128
71
8
72
7
73
9
0
VERTEX
8
OBJECT__6
10
0
20
0
30
0
70
128
71
6
72
2
73
4
0
SEQEND
8
OBJECT__6
0
POLYLINE
8
OBJECT__7
66
1
70
64
71
10
72
10
62
253
0
VERTEX
8
OBJECT__7
10
36.306999
20
-4.938000
30
14.500000
70
192
0
VERTEX
8
OBJECT__7
10
46.292999
20
-12.193000
30
14.500000
70
192
0
VERTEX
8
OBJECT__7
10
46.292999
20
-12.193000
30
15.000000
70
192
0
VERTEX
8
OBJECT__7
10
40.120998
20
6.802000
30
14.500000
70
192
0
VERTEX
8
OBJECT__7
10
36.306999
20
-4.938000
30
15.000000
70
192
0
VERTEX
8
OBJECT__7
10
52.465000
20
6.802000
30
15.000000
70
192
0
VERTEX
8
OBJECT__7
10
52.465000
20
6.802000
30
14.500000
70
192
0
VERTEX
8
OBJECT__7
10
56.278999
20
-4.938000
30
15.000000
70
192
0
VERTEX
8
OBJECT__7
10
56.278999
20
-4.938000
30
14.500000
70
192
0
VERTEX
8
OBJECT__7
10
40.120998
20
6.802000
30
15.000000
70
192
0
VERTEX
8
OBJECT__7
10
0
20
0
30
0
70
128
71
1
72
2
73
3
0
VERTEX
8
OBJECT__7
10
0
20
0
30
0
70
128
71
4
72
1
73
5
0
VERTEX
8
OBJECT__7
10
0
20
0
30
0
70
128
71
6
72
7
73
4
0
VERTEX
8
OBJECT__7
10
0
20
0
30
0
70
128
71
8
72
9
73
7
0
VERTEX
8
OBJECT__7
10
0
20
0
30
0
70
128
71
3
72
2
73
9
0
VERTEX
8
OBJECT__7
10
0
20
0
30
0
70
128
71
9
72
8
73
3
0
VERTEX
8
OBJECT__7
10
0
20
0
30
0
70
128
71
7
72
6
73
8
0
VERTEX
8
OBJECT__7
10
0
20
0
30
0
70
128
71
4
72
10
73
6
0
VERTEX
8
OBJECT__7
10
0
20
0
30
0
70
128
71
5
72
10
73
4
0
VERTEX
8
OBJECT__7
10
0
20
0
30
0
70
128
71
3
72
5
73
1
0
SEQEND
8
OBJECT__7
0
POLYLINE
8
OBJECT__8
66
1
70
64
71
5
72
3
62
253
0
VERTEX
8
OBJECT__8
10
52.700001
20
-10.511000
30
15.000000
70
192
0
VERTEX
8
OBJECT__8
10
39.886002
20
-10.511000
30
15.000000
70
192
0
VERTEX
8
OBJECT__8
10
35.925999
20
1.675000
30
15.000000
70
192
0
VERTEX
8
OBJECT__8
10
46.292999
20
9.207000
30
15.000000
70
192
0
VERTEX
8
OBJECT__8
10
56.659000
20
1.675000
30
15.000000
70
192
0
VERTEX
8
OBJECT__8
10
0
20
0
30
0
70
128
71
1
72
2
73
3
0
VERTEX
8
OBJECT__8
10
0
20
0
30
0
70
128
71
3
72
4
73
1
0
VERTEX
8
OBJECT__8
10
0
20
0
30
0
70
128
71
4
72
5
73
1
0
SEQEND
8
OBJECT__8
0
POLYLINE
8
OBJECT__9
66
1
70
64
71
10
72
10
62
253
0
VERTEX
8
OBJECT__9
10
56.659000
20
1.675000
30
15.000000
70
192
0
VERTEX
8
OBJECT__9
10
46.292999
20
9.207000
30
15.000000
70
192
0
VERTEX
8
OBJECT__9
10
46.292999
20
9.207000
30
905.000000
70
192
0
VERTEX
8
OBJECT__9
10
52.700001
20
-10.511000
30
15.000000
70
192
0
VERTEX
8
OBJECT__9
10
56.659000
20
1.675000
30
905.000000
70
192
0
VERTEX
8
OBJECT__9
10
39.886002
20
-10.511000
30
15.000000
70
192
0
VERTEX
8
OBJECT__9
10
52.700001
20
-10.511000
30
905.000000
70
192
0
VERTEX
8
OBJECT__9
10
35.925999
20
1.675000
30
905.000000
70
192
0
VERTEX
8
OBJECT__9
10
35.925999
20
1.675000
30
15.000000
70
192
0
VERTEX
8
OBJECT__9
10
39.886002
20
-10.511000
30
905.000000
70
192
0
VERTEX
8
OBJECT__9
10
0
20
0
30
0
70
128
71
1
72
2
73
3
0
VERTEX
8
OBJECT__9
10
0
20
0
30
0
70
128
71
4
72
1
73
5
0
VERTEX
8
OBJECT__9
10
0
20
0
30
0
70
128
71
6
72
4
73
7
0
VERTEX
8
OBJECT__9
10
0
20
0
30
0
70
128
71
8
72
9
73
6
0
VERTEX
8
OBJECT__9
10
0
20
0
30
0
70
128
71
3
72
2
73
9
0
VERTEX
8
OBJECT__9
10
0
20
0
30
0
70
128
71
9
72
8
73
3
0
VERTEX
8
OBJECT__9
10
0
20
0
30
0
70
128
71
6
72
10
73
8
0
VERTEX
8
OBJECT__9
10
0
20
0
30
0
70
128
71
7
72
10
73
6
0
VERTEX
8
OBJECT__9
10
0
20
0
30
0
70
128
71
5
72
7
73
4
0
VERTEX
8
OBJECT__9
10
0
20
0
30
0
70
128
71
3
72
5
73
1
0
SEQEND
8
OBJECT__9
0
POLYLINE
8
OBJECT__11
66
1
70
64
71
5
72
3
62
253
0
VERTEX
8
OBJECT__11
10
39.886002
20
-10.511000
30
905.000000
70
192
0
VERTEX
8
OBJECT__11
10
52.700001
20
-10.511000
30
905.000000
70
192
0
VERTEX
8
OBJECT__11
10
56.659000
20
1.675000
30
905.000000
70
192
0
VERTEX
8
OBJECT__11
10
46.292999
20
9.207000
30
905.000000
70
192
0
VERTEX
8
OBJECT__11
10
35.925999
20
1.675000
30
905.000000
70
192
0
VERTEX
8
OBJECT__11
10
0
20
0
30
0
70
128
71
1
72
2
73
3
0
VERTEX
8
OBJECT__11
10
0
20
0
30
0
70
128
71
3
72
4
73
1
0
VERTEX
8
OBJECT__11
10
0
20
0
30
0
70
128
71
4
72
5
73
1
0
SEQEND
8
OBJECT__11
0
POLYLINE
8
OBJECT__12
66
1
70
64
71
14
72
14
62
253
0
VERTEX
8
OBJECT__12
10
28.743999
20
14.957000
30
495.994995
70
192
0
VERTEX
8
OBJECT__12
10
33.131001
20
14.957000
30
496.996002
70
192
0
VERTEX
8
OBJECT__12
10
35.737999
20
14.957000
30
508.416992
70
192
0
VERTEX
8
OBJECT__12
10
38.483002
20
14.957000
30
483.782990
70
192
0
VERTEX
8
OBJECT__12
10
40.435001
20
14.957000
30
487.837006
70
192
0
VERTEX
8
OBJECT__12
10
60.366001
20
14.957000
30
511.222992
70
192
0
VERTEX
8
OBJECT__12
10
46.292999
20
14.957000
30
518.000000
70
192
0
VERTEX
8
OBJECT__12
10
46.292999
20
14.957000
30
513.500000
70
192
0
VERTEX
8
OBJECT__12
10
32.220001
20
14.957000
30
511.222992
70
192
0
VERTEX
8
OBJECT__12
10
54.103001
20
14.957000
30
483.782990
70
192
0
VERTEX
8
OBJECT__12
10
52.150002
20
14.957000
30
487.837006
70
192
0
VERTEX
8
OBJECT__12
10
63.841999
20
14.957000
30
495.994995
70
192
0
VERTEX
8
OBJECT__12
10
59.453999
20
14.957000
30
496.996002
70
192
0
VERTEX
8
OBJECT__12
10
56.848000
20
14.957000
30
508.416992
70
192
0
VERTEX
8
OBJECT__12
10
0
20
0
30
0
70
128
71
1
72
2
73
3
0
VERTEX
8
OBJECT__12
10
0
20
0
30
0
70
128
71
4
72
5
73
2
0
VERTEX
8
OBJECT__12
10
0
20
0
30
0
70
128
71
6
72
7
73
8
0
VERTEX
8
OBJECT__12
10
0
20
0
30
0
70
128
71
9
72
3
73
8
0
VERTEX
8
OBJECT__12
10
0
20
0
30
0
70
128
71
2
72
1
73
4
0
VERTEX
8
OBJECT__12
10
0
20
0
30
0
70
128
71
4
72
10
73
11
0
VERTEX
8
OBJECT__12
10
0
20
0
30
0
70
128
71
10
72
12
73
13
0
VERTEX
8
OBJECT__12
10
0
20
0
30
0
70
128
71
12
72
6
73
14
0
VERTEX
8
OBJECT__12
10
0
20
0
30
0
70
128
71
8
72
7
73
9
0
VERTEX
8
OBJECT__12
10
0
20
0
30
0
70
128
71
11
72
5
73
4
0
VERTEX
8
OBJECT__12
10
0
20
0
30
0
70
128
71
14
72
13
73
12
0
VERTEX
8
OBJECT__12
10
0
20
0
30
0
70
128
71
3
72
9
73
1
0
VERTEX
8
OBJECT__12
10
0
20
0
30
0
70
128
71
8
72
14
73
6
0
VERTEX
8
OBJECT__12
10
0
20
0
30
0
70
128
71
13
72
11
73
10
0
SEQEND
8
OBJECT__12
0
POLYLINE
8
OBJECT__13
66
1
70
64
71
63
72
63
62
253
0
VERTEX
8
OBJECT__13
10
28.743999
20
61.457001
30
495.994995
70
192
0
VERTEX
8
OBJECT__13
10
28.743999
20
14.957000
30
495.994995
70
192
0
VERTEX
8
OBJECT__13
10
32.220001
20
14.957000
30
511.222992
70
192
0
VERTEX
8
OBJECT__13
10
60.366001
20
14.957000
30
511.222992
70
192
0
VERTEX
8
OBJECT__13
10
63.841999
20
14.957000
30
495.994995
70
192
0
VERTEX
8
OBJECT__13
10
63.841999
20
61.457001
30
495.994995
70
192
0
VERTEX
8
OBJECT__13
10
52.325001
20
35.537998
30
516.958984
70
192
0
VERTEX
8
OBJECT__13
10
49.075001
20
34.347000
30
517.783997
70
192
0
VERTEX
8
OBJECT__13
10
55.319000
20
37.708000
30
515.572998
70
192
0
VERTEX
8
OBJECT__13
10
52.615002
20
35.748001
30
516.825012
70
192
0
VERTEX
8
OBJECT__13
10
56.189999
20
38.636002
30
515.034973
70
192
0
VERTEX
8
OBJECT__13
10
58.459999
20
42.430000
30
513.265015
70
192
0
VERTEX
8
OBJECT__13
10
46.292999
20
14.957000
30
518.000000
70
192
0
VERTEX
8
OBJECT__13
10
59.317001
20
45.866001
30
512.424988
70
192
0
VERTEX
8
OBJECT__13
10
60.366001
20
61.457001
30
511.222992
70
192
0
VERTEX
8
OBJECT__13
10
59.307999
20
46.353001
30
512.434021
70
192
0
VERTEX
8
OBJECT__13
10
59.252998
20
49.528999
30
512.492004
70
192
0
VERTEX
8
OBJECT__13
10
54.792999
20
61.457001
30
515.867004
70
192
0
VERTEX
8
OBJECT__13
10
54.792999
20
57.688000
30
515.867004
70
192
0
VERTEX
8
OBJECT__13
10
56.021999
20
56.471001
30
515.143982
70
192
0
VERTEX
8
OBJECT__13
10
58.431999
20
52.555000
30
513.291016
70
192
0
VERTEX
8
OBJECT__13
10
32.220001
20
61.457001
30
511.222992
70
192
0
VERTEX
8
OBJECT__13
10
35.612000
20
55.263000
30
514.489014
70
192
0
VERTEX
8
OBJECT__13
10
37.792999
20
57.688000
30
515.867004
70
192
0
VERTEX
8
OBJECT__13
10
33.598999
20
50.845001
30
512.762024
70
192
0
VERTEX
8
OBJECT__13
10
33.550999
20
44.262001
30
512.713989
70
192
0
VERTEX
8
OBJECT__13
10
33.313000
20
46.365002
30
512.468018
70
192
0
VERTEX
8
OBJECT__13
10
33.176998
20
47.563000
30
512.328003
70
192
0
VERTEX
8
OBJECT__13
10
41.870998
20
34.825001
30
517.447998
70
192
0
VERTEX
8
OBJECT__13
10
40.063000
20
35.910000
30
516.736023
70
192
0
VERTEX
8
OBJECT__13
10
37.624001
20
37.375000
30
515.775024
70
192
0
VERTEX
8
OBJECT__13
10
35.063999
20
40.505001
30
514.067993
70
192
0
VERTEX
8
OBJECT__13
10
45.418999
20
34.074001
30
517.979004
70
192
0
VERTEX
8
OBJECT__13
10
46.289001
20
34.139000
30
517.932007
70
192
0
VERTEX
8
OBJECT__13
10
36.133999
20
41.671001
30
485.140991
70
192
0
VERTEX
8
OBJECT__13
10
38.487999
20
38.889000
30
483.791992
70
192
0
VERTEX
8
OBJECT__13
10
34.847000
20
44.838001
30
486.108002
70
192
0
VERTEX
8
OBJECT__13
10
34.674999
20
46.479000
30
486.252991
70
192
0
VERTEX
8
OBJECT__13
10
34.541000
20
47.752998
30
486.364990
70
192
0
VERTEX
8
OBJECT__13
10
37.792999
20
61.457001
30
484.132996
70
192
0
VERTEX
8
OBJECT__13
10
37.792999
20
55.407001
30
484.132996
70
192
0
VERTEX
8
OBJECT__13
10
36.549999
20
53.891998
30
484.864990
70
192
0
VERTEX
8
OBJECT__13
10
34.995998
20
50.636002
30
485.985992
70
192
0
VERTEX
8
OBJECT__13
10
54.103001
20
14.957000
30
483.782990
70
192
0
VERTEX
8
OBJECT__13
10
48.384998
20
36.116001
30
482.122009
70
192
0
VERTEX
8
OBJECT__13
10
51.766998
20
37.355999
30
482.906006
70
192
0
VERTEX
8
OBJECT__13
10
38.483002
20
14.957000
30
483.782990
70
192
0
VERTEX
8
OBJECT__13
10
44.673000
20
36.041000
30
482.072998
70
192
0
VERTEX
8
OBJECT__13
10
38.612999
20
38.742001
30
483.721008
70
192
0
VERTEX
8
OBJECT__13
10
40.835999
20
37.349998
30
482.894989
70
192
0
VERTEX
8
OBJECT__13
10
41.487999
20
36.942001
30
482.653015
70
192
0
VERTEX
8
OBJECT__13
10
52.278999
20
37.543999
30
483.024994
70
192
0
VERTEX
8
OBJECT__13
10
55.699001
20
54.356998
30
484.653015
70
192
0
VERTEX
8
OBJECT__13
10
54.792999
20
55.407001
30
484.132996
70
192
0
VERTEX
8
OBJECT__13
10
57.598000
20
50.608002
30
485.993011
70
192
0
VERTEX
8
OBJECT__13
10
57.709000
20
44.717999
30
486.084015
70
192
0
VERTEX
8
OBJECT__13
10
57.910000
20
46.480000
30
486.252014
70
192
0
VERTEX
8
OBJECT__13
10
54.070999
20
39.044998
30
483.851990
70
192
0
VERTEX
8
OBJECT__13
10
55.332001
20
40.101002
30
484.433990
70
192
0
VERTEX
8
OBJECT__13
10
56.348999
20
41.501999
30
485.071014
70
192
0
VERTEX
8
OBJECT__13
10
58.046001
20
47.679001
30
486.367004
70
192
0
VERTEX
8
OBJECT__13
10
54.792999
20
61.457001
30
484.132996
70
192
0
VERTEX
8
OBJECT__13
10
37.792999
20
61.457001
30
515.867004
70
192
0
VERTEX
8
OBJECT__13
10
0
20
0
30
0
70
128
71
1
72
2
73
3
0
VERTEX
8
OBJECT__13
10
0
20
0
30
0
70
128
71
4
72
5
73
6
0
VERTEX
8
OBJECT__13
10
0
20
0
30
0
70
128
71
4
72
7
73
8
0
VERTEX
8
OBJECT__13
10
0
20
0
30
0
70
128
71
4
72
9
73
10
0
VERTEX
8
OBJECT__13
10
0
20
0
30
0
70
128
71
4
72
11
73
9
0
VERTEX
8
OBJECT__13
10
0
20
0
30
0
70
128
71
4
72
12
73
11
0
VERTEX
8
OBJECT__13
10
0
20
0
30
0
70
128
71
10
72
7
73
4
0
VERTEX
8
OBJECT__13
10
0
20
0
30
0
70
128
71
8
72
13
73
4
0
VERTEX
8
OBJECT__13
10
0
20
0
30
0
70
128
71
4
72
14
73
12
0
VERTEX
8
OBJECT__13
10
0
20
0
30
0
70
128
71
15
72
16
73
14
0
VERTEX
8
OBJECT__13
10
0
20
0
30
0
70
128
71
15
72
17
73
16
0
VERTEX
8
OBJECT__13
10
0
20
0
30
0
70
128
71
15
72
18
73
19
0
VERTEX
8
OBJECT__13
10
0
20
0
30
0
70
128
71
19
72
20
73
15
0
VERTEX
8
OBJECT__13
10
0
20
0
30
0
70
128
71
20
72
21
73
15
0
VERTEX
8
OBJECT__13
10
0
20
0
30
0
70
128
71
21
72
17
73
15
0
VERTEX
8
OBJECT__13
10
0
20
0
30
0
70
128
71
14
72
4
73
15
0
VERTEX
8
OBJECT__13
10
0
20
0
30
0
70
128
71
22
72
23
73
24
0
VERTEX
8
OBJECT__13
10
0
20
0
30
0
70
128
71
22
72
25
73
23
0
VERTEX
8
OBJECT__13
10
0
20
0
30
0
70
128
71
3
72
26
73
27
0
VERTEX
8
OBJECT__13
10
0
20
0
30
0
70
128
71
27
72
28
73
3
0
VERTEX
8
OBJECT__13
10
0
20
0
30
0
70
128
71
28
72
22
73
3
0
VERTEX
8
OBJECT__13
10
0
20
0
30
0
70
128
71
3
72
29
73
30
0
VERTEX
8
OBJECT__13
10
0
20
0
30
0
70
128
71
30
72
31
73
3
0
VERTEX
8
OBJECT__13
10
0
20
0
30
0
70
128
71
31
72
32
73
3
0
VERTEX
8
OBJECT__13
10
0
20
0
30
0
70
128
71
13
72
33
73
29
0
VERTEX
8
OBJECT__13
10
0
20
0
30
0
70
128
71
13
72
34
73
33
0
VERTEX
8
OBJECT__13
10
0
20
0
30
0
70
128
71
29
72
3
73
13
0
VERTEX
8
OBJECT__13
10
0
20
0
30
0
70
128
71
32
72
26
73
3
0
VERTEX
8
OBJECT__13
10
0
20
0
30
0
70
128
71
28
72
25
73
22
0
VERTEX
8
OBJECT__13
10
0
20
0
30
0
70
128
71
2
72
35
73
36
0
VERTEX
8
OBJECT__13
10
0
20
0
30
0
70
128
71
2
72
37
73
35
0
VERTEX
8
OBJECT__13
10
0
20
0
30
0
70
128
71
1
72
38
73
37
0
VERTEX
8
OBJECT__13
10
0
20
0
30
0
70
128
71
1
72
39
73
38
0
VERTEX
8
OBJECT__13
10
0
20
0
30
0
70
128
71
37
72
2
73
1
0
VERTEX
8
OBJECT__13
10
0
20
0
30
0
70
128
71
1
72
40
73
41
0
VERTEX
8
OBJECT__13
10
0
20
0
30
0
70
128
71
41
72
42
73
1
0
VERTEX
8
OBJECT__13
10
0
20
0
30
0
70
128
71
42
72
43
73
1
0
VERTEX
8
OBJECT__13
10
0
20
0
30
0
70
128
71
43
72
39
73
1
0
VERTEX
8
OBJECT__13
10
0
20
0
30
0
70
128
71
44
72
45
73
46
0
VERTEX
8
OBJECT__13
10
0
20
0
30
0
70
128
71
44
72
47
73
48
0
VERTEX
8
OBJECT__13
10
0
20
0
30
0
70
128
71
47
72
49
73
50
0
VERTEX
8
OBJECT__13
10
0
20
0
30
0
70
128
71
50
72
51
73
47
0
VERTEX
8
OBJECT__13
10
0
20
0
30
0
70
128
71
47
72
36
73
49
0
VERTEX
8
OBJECT__13
10
0
20
0
30
0
70
128
71
51
72
48
73
47
0
VERTEX
8
OBJECT__13
10
0
20
0
30
0
70
128
71
48
72
45
73
44
0
VERTEX
8
OBJECT__13
10
0
20
0
30
0
70
128
71
46
72
52
73
44
0
VERTEX
8
OBJECT__13
10
0
20
0
30
0
70
128
71
6
72
53
73
54
0
VERTEX
8
OBJECT__13
10
0
20
0
30
0
70
128
71
6
72
55
73
53
0
VERTEX
8
OBJECT__13
10
0
20
0
30
0
70
128
71
5
72
56
73
57
0
VERTEX
8
OBJECT__13
10
0
20
0
30
0
70
128
71
57
72
6
73
5
0
VERTEX
8
OBJECT__13
10
0
20
0
30
0
70
128
71
5
72
44
73
58
0
VERTEX
8
OBJECT__13
10
0
20
0
30
0
70
128
71
58
72
59
73
5
0
VERTEX
8
OBJECT__13
10
0
20
0
30
0
70
128
71
59
72
60
73
5
0
VERTEX
8
OBJECT__13
10
0
20
0
30
0
70
128
71
60
72
56
73
5
0
VERTEX
8
OBJECT__13
10
0
20
0
30
0
70
128
71
57
72
61
73
6
0
VERTEX
8
OBJECT__13
10
0
20
0
30
0
70
128
71
61
72
55
73
6
0
VERTEX
8
OBJECT__13
10
0
20
0
30
0
70
128
71
54
72
62
73
6
0
VERTEX
8
OBJECT__13
10
0
20
0
30
0
70
128
71
52
72
58
73
44
0
VERTEX
8
OBJECT__13
10
0
20
0
30
0
70
128
71
36
72
47
73
2
0
VERTEX
8
OBJECT__13
10
0
20
0
30
0
70
128
71
24
72
63
73
22
0
VERTEX
8
OBJECT__13
10
0
20
0
30
0
70
128
71
8
72
34
73
13
0
VERTEX
8
OBJECT__13
10
0
20
0
30
0
70
128
71
6
72
15
73
4
0
VERTEX
8
OBJECT__13
10
0
20
0
30
0
70
128
71
3
72
22
73
1
0
SEQEND
8
OBJECT__13
0
POLYLINE
8
OBJECT__15
66
1
70
64
71
6
72
4
62
253
0
VERTEX
8
OBJECT__15
10
54.792999
20
61.457001
30
484.132996
70
192
0
VERTEX
8
OBJECT__15
10
54.792999
20
55.598999
30
486.654999
70
192
0
VERTEX
8
OBJECT__15
10
54.792999
20
57.213001
30
508.967010
70
192
0
VERTEX
8
OBJECT__15
10
54.792999
20
61.457001
30
515.867004
70
192
0
VERTEX
8
OBJECT__15
10
54.792999
20
55.407001
30
484.132996
70
192
0
VERTEX
8
OBJECT__15
10
54.792999
20
57.688000
30
515.867004
70
192
0
VERTEX
8
OBJECT__15
10
0
20
0
30
0
70
128
71
1
72
2
73
3
0
VERTEX
8
OBJECT__15
10
0
20
0
30
0
70
128
71
3
72
4
73
1
0
VERTEX
8
OBJECT__15
10
0
20
0
30
0
70
128
71
1
72
5
73
2
0
VERTEX
8
OBJECT__15
10
0
20
0
30
0
70
128
71
3
72
6
73
4
0
SEQEND
8
OBJECT__15
0
POLYLINE
8
OBJECT__16
66
1
70
64
71
6
72
4
62
253
0
VERTEX
8
OBJECT__16
10
37.792999
20
61.457001
30
484.132996
70
192
0
VERTEX
8
OBJECT__16
10
37.792999
20
61.457001
30
515.867004
70
192
0
VERTEX
8
OBJECT__16
10
37.792999
20
57.213001
30
508.967010
70
192
0
VERTEX
8
OBJECT__16
10
37.792999
20
57.688000
30
515.867004
70
192
0
VERTEX
8
OBJECT__16
10
37.792999
20
55.598999
30
486.654999
70
192
0
VERTEX
8
OBJECT__16
10
37.792999
20
55.407001
30
484.132996
70
192
0
VERTEX
8
OBJECT__16
10
0
20
0
30
0
70
128
71
1
72
2
73
3
0
VERTEX
8
OBJECT__16
10
0
20
0
30
0
70
128
71
2
72
4
73
3
0
VERTEX
8
OBJECT__16
10
0
20
0
30
0
70
128
71
3
72
5
73
1
0
VERTEX
8
OBJECT__16
10
0
20
0
30
0
70
128
71
5
72
6
73
1
0
SEQEND
8
OBJECT__16
0
POLYLINE
8
OBJECT__17
66
1
70
64
71
52
72
50
62
253
0
VERTEX
8
OBJECT__17
10
34.674999
20
46.479000
30
486.252991
70
192
0
VERTEX
8
OBJECT__17
10
34.541000
20
47.752998
30
486.364990
70
192
0
VERTEX
8
OBJECT__17
10
33.176998
20
47.563000
30
512.328003
70
192
0
VERTEX
8
OBJECT__17
10
36.549999
20
53.891998
30
484.864990
70
192
0
VERTEX
8
OBJECT__17
10
37.792999
20
55.407001
30
484.132996
70
192
0
VERTEX
8
OBJECT__17
10
37.792999
20
55.598999
30
486.654999
70
192
0
VERTEX
8
OBJECT__17
10
33.598999
20
50.845001
30
512.762024
70
192
0
VERTEX
8
OBJECT__17
10
34.995998
20
50.636002
30
485.985992
70
192
0
VERTEX
8
OBJECT__17
10
37.792999
20
57.213001
30
508.967010
70
192
0
VERTEX
8
OBJECT__17
10
37.792999
20
57.688000
30
515.867004
70
192
0
VERTEX
8
OBJECT__17
10
35.612000
20
55.263000
30
514.489014
70
192
0
VERTEX
8
OBJECT__17
10
34.847000
20
44.838001
30
486.108002
70
192
0
VERTEX
8
OBJECT__17
10
33.313000
20
46.365002
30
512.468018
70
192
0
VERTEX
8
OBJECT__17
10
33.550999
20
44.262001
30
512.713989
70
192
0
VERTEX
8
OBJECT__17
10
36.133999
20
41.671001
30
485.140991
70
192
0
VERTEX
8
OBJECT__17
10
35.063999
20
40.505001
30
514.067993
70
192
0
VERTEX
8
OBJECT__17
10
37.624001
20
37.375000
30
515.775024
70
192
0
VERTEX
8
OBJECT__17
10
40.063000
20
35.910000
30
516.736023
70
192
0
VERTEX
8
OBJECT__17
10
40.835999
20
37.349998
30
482.894989
70
192
0
VERTEX
8
OBJECT__17
10
38.612999
20
38.742001
30
483.721008
70
192
0
VERTEX
8
OBJECT__17
10
38.487999
20
38.889000
30
483.791992
70
192
0
VERTEX
8
OBJECT__17
10
48.384998
20
36.116001
30
482.122009
70
192
0
VERTEX
8
OBJECT__17
10
52.325001
20
35.537998
30
516.958984
70
192
0
VERTEX
8
OBJECT__17
10
52.615002
20
35.748001
30
516.825012
70
192
0
VERTEX
8
OBJECT__17
10
46.289001
20
34.139000
30
517.932007
70
192
0
VERTEX
8
OBJECT__17
10
49.075001
20
34.347000
30
517.783997
70
192
0
VERTEX
8
OBJECT__17
10
51.766998
20
37.355999
30
482.906006
70
192
0
VERTEX
8
OBJECT__17
10
41.487999
20
36.942001
30
482.653015
70
192
0
VERTEX
8
OBJECT__17
10
41.870998
20
34.825001
30
517.447998
70
192
0
VERTEX
8
OBJECT__17
10
45.418999
20
34.074001
30
517.979004
70
192
0
VERTEX
8
OBJECT__17
10
44.673000
20
36.041000
30
482.072998
70
192
0
VERTEX
8
OBJECT__17
10
59.317001
20
45.866001
30
512.424988
70
192
0
VERTEX
8
OBJECT__17
10
59.307999
20
46.353001
30
512.434021
70
192
0
VERTEX
8
OBJECT__17
10
57.910000
20
46.480000
30
486.252014
70
192
0
VERTEX
8
OBJECT__17
10
57.709000
20
44.717999
30
486.084015
70
192
0
VERTEX
8
OBJECT__17
10
58.459999
20
42.430000
30
513.265015
70
192
0
VERTEX
8
OBJECT__17
10
54.070999
20
39.044998
30
483.851990
70
192
0
VERTEX
8
OBJECT__17
10
52.278999
20
37.543999
30
483.024994
70
192
0
VERTEX
8
OBJECT__17
10
55.332001
20
40.101002
30
484.433990
70
192
0
VERTEX
8
OBJECT__17
10
56.348999
20
41.501999
30
485.071014
70
192
0
VERTEX
8
OBJECT__17
10
55.319000
20
37.708000
30
515.572998
70
192
0
VERTEX
8
OBJECT__17
10
56.189999
20
38.636002
30
515.034973
70
192
0
VERTEX
8
OBJECT__17
10
58.431999
20
52.555000
30
513.291016
70
192
0
VERTEX
8
OBJECT__17
10
56.021999
20
56.471001
30
515.143982
70
192
0
VERTEX
8
OBJECT__17
10
54.792999
20
57.213001
30
508.967010
70
192
0
VERTEX
8
OBJECT__17
10
54.792999
20
55.598999
30
486.654999
70
192
0
VERTEX
8
OBJECT__17
10
59.252998
20
49.528999
30
512.492004
70
192
0
VERTEX
8
OBJECT__17
10
55.699001
20
54.356998
30
484.653015
70
192
0
VERTEX
8
OBJECT__17
10
54.792999
20
55.407001
30
484.132996
70
192
0
VERTEX
8
OBJECT__17
10
57.598000
20
50.608002
30
485.993011
70
192
0
VERTEX
8
OBJECT__17
10
58.046001
20
47.679001
30
486.367004
70
192
0
VERTEX
8
OBJECT__17
10
54.792999
20
57.688000
30
515.867004
70
192
0
VERTEX
8
OBJECT__17
10
0
20
0
30
0
70
128
71
1
72
2
73
3
0
VERTEX
8
OBJECT__17
10
0
20
0
30
0
70
128
71
4
72
5
73
6
0
VERTEX
8
OBJECT__17
10
0
20
0
30
0
70
128
71
7
72
8
73
4
0
VERTEX
8
OBJECT__17
10
0
20
0
30
0
70
128
71
7
72
3
73
2
0
VERTEX
8
OBJECT__17
10
0
20
0
30
0
70
128
71
2
72
8
73
7
0
VERTEX
8
OBJECT__17
10
0
20
0
30
0
70
128
71
7
72
6
73
9
0
VERTEX
8
OBJECT__17
10
0
20
0
30
0
70
128
71
9
72
10
73
11
0
VERTEX
8
OBJECT__17
10
0
20
0
30
0
70
128
71
9
72
11
73
7
0
VERTEX
8
OBJECT__17
10
0
20
0
30
0
70
128
71
6
72
7
73
4
0
VERTEX
8
OBJECT__17
10
0
20
0
30
0
70
128
71
12
72
1
73
13
0
VERTEX
8
OBJECT__17
10
0
20
0
30
0
70
128
71
13
72
14
73
12
0
VERTEX
8
OBJECT__17
10
0
20
0
30
0
70
128
71
15
72
12
73
16
0
VERTEX
8
OBJECT__17
10
0
20
0
30
0
70
128
71
16
72
17
73
15
0
VERTEX
8
OBJECT__17
10
0
20
0
30
0
70
128
71
18
72
19
73
20
0
VERTEX
8
OBJECT__17
10
0
20
0
30
0
70
128
71
20
72
21
73
18
0
VERTEX
8
OBJECT__17
10
0
20
0
30
0
70
128
71
21
72
15
73
18
0
VERTEX
8
OBJECT__17
10
0
20
0
30
0
70
128
71
17
72
18
73
15
0
VERTEX
8
OBJECT__17
10
0
20
0
30
0
70
128
71
22
72
23
73
24
0
VERTEX
8
OBJECT__17
10
0
20
0
30
0
70
128
71
22
72
25
73
26
0
VERTEX
8
OBJECT__17
10
0
20
0
30
0
70
128
71
26
72
23
73
22
0
VERTEX
8
OBJECT__17
10
0
20
0
30
0
70
128
71
24
72
27
73
22
0
VERTEX
8
OBJECT__17
10
0
20
0
30
0
70
128
71
28
72
29
73
30
0
VERTEX
8
OBJECT__17
10
0
20
0
30
0
70
128
71
28
72
19
73
18
0
VERTEX
8
OBJECT__17
10
0
20
0
30
0
70
128
71
18
72
29
73
28
0
VERTEX
8
OBJECT__17
10
0
20
0
30
0
70
128
71
25
72
31
73
28
0
VERTEX
8
OBJECT__17
10
0
20
0
30
0
70
128
71
30
72
25
73
28
0
VERTEX
8
OBJECT__17
10
0
20
0
30
0
70
128
71
32
72
33
73
34
0
VERTEX
8
OBJECT__17
10
0
20
0
30
0
70
128
71
34
72
35
73
32
0
VERTEX
8
OBJECT__17
10
0
20
0
30
0
70
128
71
36
72
37
73
38
0
VERTEX
8
OBJECT__17
10
0
20
0
30
0
70
128
71
36
72
39
73
37
0
VERTEX
8
OBJECT__17
10
0
20
0
30
0
70
128
71
36
72
32
73
40
0
VERTEX
8
OBJECT__17
10
0
20
0
30
0
70
128
71
40
72
39
73
36
0
VERTEX
8
OBJECT__17
10
0
20
0
30
0
70
128
71
27
72
24
73
41
0
VERTEX
8
OBJECT__17
10
0
20
0
30
0
70
128
71
41
72
42
73
27
0
VERTEX
8
OBJECT__17
10
0
20
0
30
0
70
128
71
42
72
36
73
27
0
VERTEX
8
OBJECT__17
10
0
20
0
30
0
70
128
71
38
72
27
73
36
0
VERTEX
8
OBJECT__17
10
0
20
0
30
0
70
128
71
43
72
44
73
45
0
VERTEX
8
OBJECT__17
10
0
20
0
30
0
70
128
71
45
72
46
73
43
0
VERTEX
8
OBJECT__17
10
0
20
0
30
0
70
128
71
47
72
43
73
46
0
VERTEX
8
OBJECT__17
10
0
20
0
30
0
70
128
71
46
72
48
73
47
0
VERTEX
8
OBJECT__17
10
0
20
0
30
0
70
128
71
46
72
49
73
48
0
VERTEX
8
OBJECT__17
10
0
20
0
30
0
70
128
71
47
72
50
73
51
0
VERTEX
8
OBJECT__17
10
0
20
0
30
0
70
128
71
47
72
48
73
50
0
VERTEX
8
OBJECT__17
10
0
20
0
30
0
70
128
71
51
72
33
73
47
0
VERTEX
8
OBJECT__17
10
0
20
0
30
0
70
128
71
44
72
52
73
45
0
VERTEX
8
OBJECT__17
10
0
20
0
30
0
70
128
71
51
72
34
73
33
0
VERTEX
8
OBJECT__17
10
0
20
0
30
0
70
128
71
35
72
40
73
32
0
VERTEX
8
OBJECT__17
10
0
20
0
30
0
70
128
71
22
72
31
73
25
0
VERTEX
8
OBJECT__17
10
0
20
0
30
0
70
128
71
14
72
16
73
12
0
VERTEX
8
OBJECT__17
10
0
20
0
30
0
70
128
71
3
72
13
73
1
0
SEQEND
8
OBJECT__17
0
POLYLINE
8
OBJECT__18
66
1
70
64
71
4
72
2
62
253
0
VERTEX
8
OBJECT__18
10
37.792999
20
61.457001
30
484.132996
70
192
0
VERTEX
8
OBJECT__18
10
28.743999
20
61.457001
30
495.994995
70
192
0
VERTEX
8
OBJECT__18
10
32.220001
20
61.457001
30
511.222992
70
192
0
VERTEX
8
OBJECT__18
10
37.792999
20
61.457001
30
515.867004
70
192
0
VERTEX
8
OBJECT__18
10
0
20
0
30
0
70
128
71
1
72
2
73
3
0
VERTEX
8
OBJECT__18
10
0
20
0
30
0
70
128
71
3
72
4
73
1
0
SEQEND
8
OBJECT__18
0
POLYLINE
8
OBJECT__19
66
1
70
64
71
4
72
2
62
253
0
VERTEX
8
OBJECT__19
10
54.792999
20
61.457001
30
484.132996
70
192
0
VERTEX
8
OBJECT__19
10
54.792999
20
61.457001
30
515.867004
70
192
0
VERTEX
8
OBJECT__19
10
60.366001
20
61.457001
30
511.222992
70
192
0
VERTEX
8
OBJECT__19
10
63.841999
20
61.457001
30
495.994995
70
192
0
VERTEX
8
OBJECT__19
10
0
20
0
30
0
70
128
71
1
72
2
73
3
0
VERTEX
8
OBJECT__19
10
0
20
0
30
0
70
128
71
3
72
4
73
1
0
SEQEND
8
OBJECT__19
0
POLYLINE
8
OBJECT__20
66
1
70
64
71
7
72
5
62
253
0
VERTEX
8
OBJECT__20
10
35.070000
20
-40.842999
30
514.072998
70
192
0
VERTEX
8
OBJECT__20
10
50.298000
20
-40.842999
30
482.450989
70
192
0
VERTEX
8
OBJECT__20
10
62.509998
20
-40.842999
30
492.190002
70
192
0
VERTEX
8
OBJECT__20
10
62.509998
20
-40.842999
30
507.809998
70
192
0
VERTEX
8
OBJECT__20
10
28.292999
20
-40.842999
30
500.000000
70
192
0
VERTEX
8
OBJECT__20
10
35.070000
20
-40.842999
30
485.927002
70
192
0
VERTEX
8
OBJECT__20
10
50.298000
20
-40.842999
30
517.549011
70
192
0
VERTEX
8
OBJECT__20
10
0
20
0
30
0
70
128
71
1
72
2
73
3
0
VERTEX
8
OBJECT__20
10
0
20
0
30
0
70
128
71
3
72
4
73
1
0
VERTEX
8
OBJECT__20
10
0
20
0
30
0
70
128
71
1
72
5
73
6
0
VERTEX
8
OBJECT__20
10
0
20
0
30
0
70
128
71
6
72
2
73
1
0
VERTEX
8
OBJECT__20
10
0
20
0
30
0
70
128
71
4
72
7
73
1
0
SEQEND
8
OBJECT__20
0
POLYLINE
8
OBJECT__21
66
1
70
64
71
14
72
14
62
253
0
VERTEX
8
OBJECT__21
10
35.070000
20
-40.842999
30
485.927002
70
192
0
VERTEX
8
OBJECT__21
10
28.292999
20
-40.842999
30
500.000000
70
192
0
VERTEX
8
OBJECT__21
10
28.292999
20
-18.843000
30
500.000000
70
192
0
VERTEX
8
OBJECT__21
10
50.298000
20
-40.842999
30
482.450989
70
192
0
VERTEX
8
OBJECT__21
10
35.070000
20
-18.843000
30
485.927002
70
192
0
VERTEX
8
OBJECT__21
10
62.509998
20
-18.843000
30
492.190002
70
192
0
VERTEX
8
OBJECT__21
10
62.509998
20
-40.842999
30
492.190002
70
192
0
VERTEX
8
OBJECT__21
10
62.509998
20
-18.843000
30
507.809998
70
192
0
VERTEX
8
OBJECT__21
10
62.509998
20
-40.842999
30
507.809998
70
192
0
VERTEX
8
OBJECT__21
10
50.298000
20
-18.843000
30
517.549011
70
192
0
VERTEX
8
OBJECT__21
10
35.070000
20
-40.842999
30
514.072998
70
192
0
VERTEX
8
OBJECT__21
10
50.298000
20
-40.842999
30
517.549011
70
192
0
VERTEX
8
OBJECT__21
10
35.070000
20
-18.843000
30
514.072998
70
192
0
VERTEX
8
OBJECT__21
10
50.298000
20
-18.843000
30
482.450989
70
192
0
VERTEX
8
OBJECT__21
10
0
20
0
30
0
70
128
71
1
72
2
73
3
0
VERTEX
8
OBJECT__21
10
0
20
0
30
0
70
128
71
4
72
1
73
5
0
VERTEX
8
OBJECT__21
10
0
20
0
30
0
70
128
71
6
72
7
73
4
0
VERTEX
8
OBJECT__21
10
0
20
0
30
0
70
128
71
7
72
6
73
8
0
VERTEX
8
OBJECT__21
10
0
20
0
30
0
70
128
71
9
72
8
73
10
0
VERTEX
8
OBJECT__21
10
0
20
0
30
0
70
128
71
11
72
12
73
10
0
VERTEX
8
OBJECT__21
10
0
20
0
30
0
70
128
71
2
72
11
73
13
0
VERTEX
8
OBJECT__21
10
0
20
0
30
0
70
128
71
13
72
3
73
2
0
VERTEX
8
OBJECT__21
10
0
20
0
30
0
70
128
71
10
72
13
73
11
0
VERTEX
8
OBJECT__21
10
0
20
0
30
0
70
128
71
10
72
12
73
9
0
VERTEX
8
OBJECT__21
10
0
20
0
30
0
70
128
71
8
72
9
73
7
0
VERTEX
8
OBJECT__21
10
0
20
0
30
0
70
128
71
4
72
14
73
6
0
VERTEX
8
OBJECT__21
10
0
20
0
30
0
70
128
71
5
72
14
73
4
0
VERTEX
8
OBJECT__21
10
0
20
0
30
0
70
128
71
3
72
5
73
1
0
SEQEND
8
OBJECT__21
0
POLYLINE
8
OBJECT__23
66
1
70
64
71
7
72
5
62
253
0
VERTEX
8
OBJECT__23
10
50.298000
20
-18.843000
30
517.549011
70
192
0
VERTEX
8
OBJECT__23
10
35.070000
20
-18.843000
30
485.927002
70
192
0
VERTEX
8
OBJECT__23
10
28.292999
20
-18.843000
30
500.000000
70
192
0
VERTEX
8
OBJECT__23
10
50.298000
20
-18.843000
30
482.450989
70
192
0
VERTEX
8
OBJECT__23
10
62.509998
20
-18.843000
30
507.809998
70
192
0
VERTEX
8
OBJECT__23
10
62.509998
20
-18.843000
30
492.190002
70
192
0
VERTEX
8
OBJECT__23
10
35.070000
20
-18.843000
30
514.072998
70
192
0
VERTEX
8
OBJECT__23
10
0
20
0
30
0
70
128
71
1
72
2
73
3
0
VERTEX
8
OBJECT__23
10
0
20
0
30
0
70
128
71
1
72
4
73
2
0
VERTEX
8
OBJECT__23
10
0
20
0
30
0
70
128
71
4
72
1
73
5
0
VERTEX
8
OBJECT__23
10
0
20
0
30
0
70
128
71
5
72
6
73
4
0
VERTEX
8
OBJECT__23
10
0
20
0
30
0
70
128
71
3
72
7
73
1
0
SEQEND
8
OBJECT__23
0
POLYLINE
8
OBJECT__24
66
1
70
64
71
7
72
5
62
253
0
VERTEX
8
OBJECT__24
10
1.293000
20
2.980000
30
20.473000
70
192
0
VERTEX
8
OBJECT__24
10
1.293000
20
-14.786000
30
-16.417999
70
192
0
VERTEX
8
OBJECT__24
10
1.293000
20
-22.693001
30
0.000000
70
192
0
VERTEX
8
OBJECT__24
10
1.293000
20
17.226999
30
9.112000
70
192
0
VERTEX
8
OBJECT__24
10
1.293000
20
17.226999
30
-9.112000
70
192
0
VERTEX
8
OBJECT__24
10
1.293000
20
2.980000
30
-20.473000
70
192
0
VERTEX
8
OBJECT__24
10
1.293000
20
-14.786000
30
16.417999
70
192
0
VERTEX
8
OBJECT__24
10
0
20
0
30
0
70
128
71
1
72
2
73
3
0
VERTEX
8
OBJECT__24
10
0
20
0
30
0
70
128
71
1
72
4
73
5
0
VERTEX
8
OBJECT__24
10
0
20
0
30
0
70
128
71
1
72
6
73
2
0
VERTEX
8
OBJECT__24
10
0
20
0
30
0
70
128
71
3
72
7
73
1
0
VERTEX
8
OBJECT__24
10
0
20
0
30
0
70
128
71
5
72
6
73
1
0
SEQEND
8
OBJECT__24
0
POLYLINE
8
OBJECT__25
66
1
70
64
71
14
72
14
62
253
0
VERTEX
8
OBJECT__25
10
1.293000
20
-14.786000
30
16.417999
70
192
0
VERTEX
8
OBJECT__25
10
1.293000
20
-22.693001
30
0.000000
70
192
0
VERTEX
8
OBJECT__25
10
7.793000
20
-22.636000
30
0.000000
70
192
0
VERTEX
8
OBJECT__25
10
1.293000
20
2.980000
30
20.473000
70
192
0
VERTEX
8
OBJECT__25
10
7.793000
20
-14.751000
30
16.374001
70
192
0
VERTEX
8
OBJECT__25
10
7.793000
20
2.967000
30
20.417999
70
192
0
VERTEX
8
OBJECT__25
10
7.793000
20
17.176001
30
9.087000
70
192
0
VERTEX
8
OBJECT__25
10
1.293000
20
17.226999
30
9.112000
70
192
0
VERTEX
8
OBJECT__25
10
7.793000
20
17.176001
30
-9.087000
70
192
0
VERTEX
8
OBJECT__25
10
1.293000
20
17.226999
30
-9.112000
70
192
0
VERTEX
8
OBJECT__25
10
7.793000
20
2.967000
30
-20.417999
70
192
0
VERTEX
8
OBJECT__25
10
1.293000
20
-14.786000
30
-16.417999
70
192
0
VERTEX
8
OBJECT__25
10
1.293000
20
2.980000
30
-20.473000
70
192
0
VERTEX
8
OBJECT__25
10
7.793000
20
-14.751000
30
-16.374001
70
192
0
VERTEX
8
OBJECT__25
10
0
20
0
30
0
70
128
71
1
72
2
73
3
0
VERTEX
8
OBJECT__25
10
0
20
0
30
0
70
128
71
4
72
1
73
5
0
VERTEX
8
OBJECT__25
10
0
20
0
30
0
70
128
71
4
72
6
73
7
0
VERTEX
8
OBJECT__25
10
0
20
0
30
0
70
128
71
8
72
7
73
9
0
VERTEX
8
OBJECT__25
10
0
20
0
30
0
70
128
71
10
72
9
73
11
0
VERTEX
8
OBJECT__25
10
0
20
0
30
0
70
128
71
12
72
13
73
11
0
VERTEX
8
OBJECT__25
10
0
20
0
30
0
70
128
71
2
72
12
73
14
0
VERTEX
8
OBJECT__25
10
0
20
0
30
0
70
128
71
14
72
3
73
2
0
VERTEX
8
OBJECT__25
10
0
20
0
30
0
70
128
71
11
72
14
73
12
0
VERTEX
8
OBJECT__25
10
0
20
0
30
0
70
128
71
11
72
13
73
10
0
VERTEX
8
OBJECT__25
10
0
20
0
30
0
70
128
71
9
72
10
73
8
0
VERTEX
8
OBJECT__25
10
0
20
0
30
0
70
128
71
7
72
8
73
4
0
VERTEX
8
OBJECT__25
10
0
20
0
30
0
70
128
71
5
72
6
73
4
0
VERTEX
8
OBJECT__25
10
0
20
0
30
0
70
128
71
3
72
5
73
1
0
SEQEND
8
OBJECT__25
0
POLYLINE
8
OBJECT__27
66
1
70
64
71
14
72
14
62
253
0
VERTEX
8
OBJECT__27
10
7.793000
20
17.176001
30
9.087000
70
192
0
VERTEX
8
OBJECT__27
10
7.793000
20
2.967000
30
20.417999
70
192
0
VERTEX
8
OBJECT__27
10
7.793000
20
2.201000
30
17.061001
70
192
0
VERTEX
8
OBJECT__27
10
7.793000
20
-14.751000
30
16.374001
70
192
0
VERTEX
8
OBJECT__27
10
7.793000
20
-12.604000
30
13.682000
70
192
0
VERTEX
8
OBJECT__27
10
7.793000
20
-22.636000
30
0.000000
70
192
0
VERTEX
8
OBJECT__27
10
7.793000
20
-19.193001
30
0.000000
70
192
0
VERTEX
8
OBJECT__27
10
7.793000
20
-14.751000
30
-16.374001
70
192
0
VERTEX
8
OBJECT__27
10
7.793000
20
-12.604000
30
-13.682000
70
192
0
VERTEX
8
OBJECT__27
10
7.793000
20
2.967000
30
-20.417999
70
192
0
VERTEX
8
OBJECT__27
10
7.793000
20
2.201000
30
-17.061001
70
192
0
VERTEX
8
OBJECT__27
10
7.793000
20
17.176001
30
-9.087000
70
192
0
VERTEX
8
OBJECT__27
10
7.793000
20
14.074000
30
-7.593000
70
192
0
VERTEX
8
OBJECT__27
10
7.793000
20
14.074000
30
7.593000
70
192
0
VERTEX
8
OBJECT__27
10
0
20
0
30
0
70
128
71
1
72
2
73
3
0
VERTEX
8
OBJECT__27
10
0
20
0
30
0
70
128
71
2
72
4
73
5
0
VERTEX
8
OBJECT__27
10
0
20
0
30
0
70
128
71
5
72
3
73
2
0
VERTEX
8
OBJECT__27
10
0
20
0
30
0
70
128
71
6
72
7
73
5
0
VERTEX
8
OBJECT__27
10
0
20
0
30
0
70
128
71
8
72
9
73
7
0
VERTEX
8
OBJECT__27
10
0
20
0
30
0
70
128
71
8
72
10
73
11
0
VERTEX
8
OBJECT__27
10
0
20
0
30
0
70
128
71
5
72
4
73
6
0
VERTEX
8
OBJECT__27
10
0
20
0
30
0
70
128
71
11
72
9
73
8
0
VERTEX
8
OBJECT__27
10
0
20
0
30
0
70
128
71
7
72
6
73
8
0
VERTEX
8
OBJECT__27
10
0
20
0
30
0
70
128
71
10
72
12
73
13
0
VERTEX
8
OBJECT__27
10
0
20
0
30
0
70
128
71
12
72
1
73
14
0
VERTEX
8
OBJECT__27
10
0
20
0
30
0
70
128
71
13
72
11
73
10
0
VERTEX
8
OBJECT__27
10
0
20
0
30
0
70
128
71
3
72
14
73
1
0
VERTEX
8
OBJECT__27
10
0
20
0
30
0
70
128
71
14
72
13
73
12
0
SEQEND
8
OBJECT__27
0
POLYLINE
8
OBJECT__28
66
1
70
64
71
14
72
14
62
253
0
VERTEX
8
OBJECT__28
10
7.793000
20
-19.193001
30
0.000000
70
192
0
VERTEX
8
OBJECT__28
10
11.293000
20
-19.162001
30
0.000000
70
192
0
VERTEX
8
OBJECT__28
10
11.293000
20
-12.585000
30
13.658000
70
192
0
VERTEX
8
OBJECT__28
10
7.793000
20
-12.604000
30
13.682000
70
192
0
VERTEX
8
OBJECT__28
10
11.293000
20
2.194000
30
17.031000
70
192
0
VERTEX
8
OBJECT__28
10
7.793000
20
14.074000
30
7.593000
70
192
0
VERTEX
8
OBJECT__28
10
7.793000
20
2.201000
30
17.061001
70
192
0
VERTEX
8
OBJECT__28
10
7.793000
20
14.074000
30
-7.593000
70
192
0
VERTEX
8
OBJECT__28
10
11.293000
20
14.047000
30
7.580000
70
192
0
VERTEX
8
OBJECT__28
10
7.793000
20
2.201000
30
-17.061001
70
192
0
VERTEX
8
OBJECT__28
10
11.293000
20
14.047000
30
-7.580000
70
192
0
VERTEX
8
OBJECT__28
10
11.293000
20
2.194000
30
-17.031000
70
192
0
VERTEX
8
OBJECT__28
10
11.293000
20
-12.585000
30
-13.658000
70
192
0
VERTEX
8
OBJECT__28
10
7.793000
20
-12.604000
30
-13.682000
70
192
0
VERTEX
8
OBJECT__28
10
0
20
0
30
0
70
128
71
1
72
2
73
3
0
VERTEX
8
OBJECT__28
10
0
20
0
30
0
70
128
71
4
72
3
73
5
0
VERTEX
8
OBJECT__28
10
0
20
0
30
0
70
128
71
6
72
7
73
5
0
VERTEX
8
OBJECT__28
10
0
20
0
30
0
70
128
71
8
72
6
73
9
0
VERTEX
8
OBJECT__28
10
0
20
0
30
0
70
128
71
10
72
8
73
11
0
VERTEX
8
OBJECT__28
10
0
20
0
30
0
70
128
71
10
72
12
73
13
0
VERTEX
8
OBJECT__28
10
0
20
0
30
0
70
128
71
1
72
14
73
13
0
VERTEX
8
OBJECT__28
10
0
20
0
30
0
70
128
71
13
72
2
73
1
0
VERTEX
8
OBJECT__28
10
0
20
0
30
0
70
128
71
13
72
14
73
10
0
VERTEX
8
OBJECT__28
10
0
20
0
30
0
70
128
71
11
72
12
73
10
0
VERTEX
8
OBJECT__28
10
0
20
0
30
0
70
128
71
9
72
11
73
8
0
VERTEX
8
OBJECT__28
10
0
20
0
30
0
70
128
71
5
72
9
73
6
0
VERTEX
8
OBJECT__28
10
0
20
0
30
0
70
128
71
5
72
7
73
4
0
VERTEX
8
OBJECT__28
10
0
20
0
30
0
70
128
71
3
72
4
73
1
0
SEQEND
8
OBJECT__28
0
POLYLINE
8
OBJECT__29
66
1
70
64
71
13
72
13
62
253
0
VERTEX
8
OBJECT__29
10
11.293000
20
2.194000
30
17.031000
70
192
0
VERTEX
8
OBJECT__29
10
11.293000
20
-12.585000
30
13.658000
70
192
0
VERTEX
8
OBJECT__29
10
11.293000
20
-7.943000
30
10.825000
70
192
0
VERTEX
8
OBJECT__29
10
11.293000
20
4.557000
30
10.825000
70
192
0
VERTEX
8
OBJECT__29
10
11.293000
20
-19.162001
30
0.000000
70
192
0
VERTEX
8
OBJECT__29
10
11.293000
20
-14.193000
30
0.000000
70
192
0
VERTEX
8
OBJECT__29
10
11.293000
20
14.047000
30
-7.580000
70
192
0
VERTEX
8
OBJECT__29
10
11.293000
20
10.807000
30
0.000000
70
192
0
VERTEX
8
OBJECT__29
10
11.293000
20
4.557000
30
-10.825000
70
192
0
VERTEX
8
OBJECT__29
10
11.293000
20
-12.585000
30
-13.658000
70
192
0
VERTEX
8
OBJECT__29
10
11.293000
20
-7.943000
30
-10.825000
70
192
0
VERTEX
8
OBJECT__29
10
11.293000
20
2.194000
30
-17.031000
70
192
0
VERTEX
8
OBJECT__29
10
11.293000
20
14.047000
30
7.580000
70
192
0
VERTEX
8
OBJECT__29
10
0
20
0
30
0
70
128
71
1
72
2
73
3
0
VERTEX
8
OBJECT__29
10
0
20
0
30
0
70
128
71
3
72
4
73
1
0
VERTEX
8
OBJECT__29
10
0
20
0
30
0
70
128
71
2
72
5
73
6
0
VERTEX
8
OBJECT__29
10
0
20
0
30
0
70
128
71
7
72
8
73
9
0
VERTEX
8
OBJECT__29
10
0
20
0
30
0
70
128
71
6
72
3
73
2
0
VERTEX
8
OBJECT__29
10
0
20
0
30
0
70
128
71
10
72
11
73
6
0
VERTEX
8
OBJECT__29
10
0
20
0
30
0
70
128
71
12
72
9
73
11
0
VERTEX
8
OBJECT__29
10
0
20
0
30
0
70
128
71
7
72
13
73
8
0
VERTEX
8
OBJECT__29
10
0
20
0
30
0
70
128
71
6
72
5
73
10
0
VERTEX
8
OBJECT__29
10
0
20
0
30
0
70
128
71
9
72
12
73
7
0
VERTEX
8
OBJECT__29
10
0
20
0
30
0
70
128
71
11
72
10
73
12
0
VERTEX
8
OBJECT__29
10
0
20
0
30
0
70
128
71
4
72
8
73
1
0
VERTEX
8
OBJECT__29
10
0
20
0
30
0
70
128
71
8
72
13
73
1
0
SEQEND
8
OBJECT__29
0
POLYLINE
8
OBJECT__30
66
1
70
64
71
12
72
12
62
253
0
VERTEX
8
OBJECT__30
10
11.293000
20
-7.943000
30
10.825000
70
192
0
VERTEX
8
OBJECT__30
10
11.293000
20
-14.193000
30
0.000000
70
192
0
VERTEX
8
OBJECT__30
10
46.792999
20
-13.883000
30
0.000000
70
192
0
VERTEX
8
OBJECT__30
10
46.792999
20
-7.788000
30
10.557000
70
192
0
VERTEX
8
OBJECT__30
10
46.792999
20
4.402000
30
10.557000
70
192
0
VERTEX
8
OBJECT__30
10
11.293000
20
4.557000
30
10.825000
70
192
0
VERTEX
8
OBJECT__30
10
46.792999
20
10.497000
30
0.000000
70
192
0
VERTEX
8
OBJECT__30
10
11.293000
20
4.557000
30
-10.825000
70
192
0
VERTEX
8
OBJECT__30
10
11.293000
20
10.807000
30
0.000000
70
192
0
VERTEX
8
OBJECT__30
10
11.293000
20
-7.943000
30
-10.825000
70
192
0
VERTEX
8
OBJECT__30
10
46.792999
20
4.402000
30
-10.557000
70
192
0
VERTEX
8
OBJECT__30
10
46.792999
20
-7.788000
30
-10.557000
70
192
0
VERTEX
8
OBJECT__30
10
0
20
0
30
0
70
128
71
1
72
2
73
3
0
VERTEX
8
OBJECT__30
10
0
20
0
30
0
70
128
71
1
72
4
73
5
0
VERTEX
8
OBJECT__30
10
0
20
0
30
0
70
128
71
6
72
5
73
7
0
VERTEX
8
OBJECT__30
10
0
20
0
30
0
70
128
71
8
72
9
73
7
0
VERTEX
8
OBJECT__30
10
0
20
0
30
0
70
128
71
10
72
8
73
11
0
VERTEX
8
OBJECT__30
10
0
20
0
30
0
70
128
71
2
72
10
73
12
0
VERTEX
8
OBJECT__30
10
0
20
0
30
0
70
128
71
12
72
3
73
2
0
VERTEX
8
OBJECT__30
10
0
20
0
30
0
70
128
71
11
72
12
73
10
0
VERTEX
8
OBJECT__30
10
0
20
0
30
0
70
128
71
7
72
11
73
8
0
VERTEX
8
OBJECT__30
10
0
20
0
30
0
70
128
71
7
72
9
73
6
0
VERTEX
8
OBJECT__30
10
0
20
0
30
0
70
128
71
5
72
6
73
1
0
VERTEX
8
OBJECT__30
10
0
20
0
30
0
70
128
71
3
72
4
73
1
0
SEQEND
8
OBJECT__30
0
POLYLINE
8
OBJECT__31
66
1
70
64
71
6
72
4
62
253
0
VERTEX
8
OBJECT__31
10
46.792999
20
-7.788000
30
10.557000
70
192
0
VERTEX
8
OBJECT__31
10
46.792999
20
4.402000
30
-10.557000
70
192
0
VERTEX
8
OBJECT__31
10
46.792999
20
10.497000
30
0.000000
70
192
0
VERTEX
8
OBJECT__31
10
46.792999
20
-13.883000
30
0.000000
70
192
0
VERTEX
8
OBJECT__31
10
46.792999
20
-7.788000
30
-10.557000
70
192
0
VERTEX
8
OBJECT__31
10
46.792999
20
4.402000
30
10.557000
70
192
0
VERTEX
8
OBJECT__31
10
0
20
0
30
0
70
128
71
1
72
2
73
3
0
VERTEX
8
OBJECT__31
10
0
20
0
30
0
70
128
71
2
72
1
73
4
0
VERTEX
8
OBJECT__31
10
0
20
0
30
0
70
128
71
4
72
5
73
2
0
VERTEX
8
OBJECT__31
10
0
20
0
30
0
70
128
71
3
72
6
73
1
0
SEQEND
8
OBJECT__31
0
POLYLINE
8
OBJECT__32
66
1
70
64
71
4
72
2
62
253
0
VERTEX
8
OBJECT__32
10
46.292999
20
-7.693000
30
934.000000
70
192
0
VERTEX
8
OBJECT__32
10
52.292999
20
-1.693000
30
934.000000
70
192
0
VERTEX
8
OBJECT__32
10
46.292999
20
4.307000
30
934.000000
70
192
0
VERTEX
8
OBJECT__32
10
40.292999
20
-1.693000
30
934.000000
70
192
0
VERTEX
8
OBJECT__32
10
0
20
0
30
0
70
128
71
1
72
2
73
3
0
VERTEX
8
OBJECT__32
10
0
20
0
30
0
70
128
71
3
72
4
73
1
0
SEQEND
8
OBJECT__32
0
POLYLINE
8
OBJECT__33
66
1
70
64
71
8
72
8
62
253
0
VERTEX
8
OBJECT__33
10
40.292999
20
-1.693000
30
905.500000
70
192
0
VERTEX
8
OBJECT__33
10
40.292999
20
-1.693000
30
934.000000
70
192
0
VERTEX
8
OBJECT__33
10
46.292999
20
4.307000
30
934.000000
70
192
0
VERTEX
8
OBJECT__33
10
46.292999
20
-7.693000
30
905.500000
70
192
0
VERTEX
8
OBJECT__33
10
46.292999
20
-7.693000
30
934.000000
70
192
0
VERTEX
8
OBJECT__33
10
52.292999
20
-1.693000
30
934.000000
70
192
0
VERTEX
8
OBJECT__33
10
52.292999
20
-1.693000
30
905.500000
70
192
0
VERTEX
8
OBJECT__33
10
46.292999
20
4.307000
30
905.500000
70
192
0
VERTEX
8
OBJECT__33
10
0
20
0
30
0
70
128
71
1
72
2
73
3
0
VERTEX
8
OBJECT__33
10
0
20
0
30
0
70
128
71
4
72
5
73
2
0
VERTEX
8
OBJECT__33
10
0
20
0
30
0
70
128
71
6
72
5
73
4
0
VERTEX
8
OBJECT__33
10
0
20
0
30
0
70
128
71
3
72
6
73
7
0
VERTEX
8
OBJECT__33
10
0
20
0
30
0
70
128
71
7
72
8
73
3
0
VERTEX
8
OBJECT__33
10
0
20
0
30
0
70
128
71
4
72
7
73
6
0
VERTEX
8
OBJECT__33
10
0
20
0
30
0
70
128
71
2
72
1
73
4
0
VERTEX
8
OBJECT__33
10
0
20
0
30
0
70
128
71
3
72
8
73
1
0
SEQEND
8
OBJECT__33
0
POLYLINE
8
OBJECT__35
66
1
70
64
71
9
72
9
62
253
0
VERTEX
8
OBJECT__35
10
56.278999
20
1.552000
30
905.500000
70
192
0
VERTEX
8
OBJECT__35
10
46.292999
20
8.807000
30
905.500000
70
192
0
VERTEX
8
OBJECT__35
10
46.292999
20
4.307000
30
905.500000
70
192
0
VERTEX
8
OBJECT__35
10
36.306999
20
1.552000
30
905.500000
70
192
0
VERTEX
8
OBJECT__35
10
40.292999
20
-1.693000
30
905.500000
70
192
0
VERTEX
8
OBJECT__35
10
40.120998
20
-10.188000
30
905.500000
70
192
0
VERTEX
8
OBJECT__35
10
46.292999
20
-7.693000
30
905.500000
70
192
0
VERTEX
8
OBJECT__35
10
52.465000
20
-10.188000
30
905.500000
70
192
0
VERTEX
8
OBJECT__35
10
52.292999
20
-1.693000
30
905.500000
70
192
0
VERTEX
8
OBJECT__35
10
0
20
0
30
0
70
128
71
1
72
2
73
3
0
VERTEX
8
OBJECT__35
10
0
20
0
30
0
70
128
71
4
72
5
73
3
0
VERTEX
8
OBJECT__35
10
0
20
0
30
0
70
128
71
3
72
2
73
4
0
VERTEX
8
OBJECT__35
10
0
20
0
30
0
70
128
71
6
72
7
73
5
0
VERTEX
8
OBJECT__35
10
0
20
0
30
0
70
128
71
8
72
1
73
9
0
VERTEX
8
OBJECT__35
10
0
20
0
30
0
70
128
71
5
72
4
73
6
0
VERTEX
8
OBJECT__35
10
0
20
0
30
0
70
128
71
3
72
9
73
1
0
VERTEX
8
OBJECT__35
10
0
20
0
30
0
70
128
71
9
72
7
73
8
0
VERTEX
8
OBJECT__35
10
0
20
0
30
0
70
128
71
7
72
6
73
8
0
SEQEND
8
OBJECT__35
0
POLYLINE
8
OBJECT__36
66
1
70
64
71
10
72
10
62
253
0
VERTEX
8
OBJECT__36
10
36.306999
20
1.552000
30
905.000000
70
192
0
VERTEX
8
OBJECT__36
10
36.306999
20
1.552000
30
905.500000
70
192
0
VERTEX
8
OBJECT__36
10
46.292999
20
8.807000
30
905.500000
70
192
0
VERTEX
8
OBJECT__36
10
40.120998
20
-10.188000
30
905.000000
70
192
0
VERTEX
8
OBJECT__36
10
40.120998
20
-10.188000
30
905.500000
70
192
0
VERTEX
8
OBJECT__36
10
52.465000
20
-10.188000
30
905.000000
70
192
0
VERTEX
8
OBJECT__36
10
52.465000
20
-10.188000
30
905.500000
70
192
0
VERTEX
8
OBJECT__36
10
56.278999
20
1.552000
30
905.500000
70
192
0
VERTEX
8
OBJECT__36
10
56.278999
20
1.552000
30
905.000000
70
192
0
VERTEX
8
OBJECT__36
10
46.292999
20
8.807000
30
905.000000
70
192
0
VERTEX
8
OBJECT__36
10
0
20
0
30
0
70
128
71
1
72
2
73
3
0
VERTEX
8
OBJECT__36
10
0
20
0
30
0
70
128
71
4
72
5
73
2
0
VERTEX
8
OBJECT__36
10
0
20
0
30
0
70
128
71
6
72
7
73
5
0
VERTEX
8
OBJECT__36
10
0
20
0
30
0
70
128
71
8
72
7
73
6
0
VERTEX
8
OBJECT__36
10
0
20
0
30
0
70
128
71
3
72
8
73
9
0
VERTEX
8
OBJECT__36
10
0
20
0
30
0
70
128
71
9
72
10
73
3
0
VERTEX
8
OBJECT__36
10
0
20
0
30
0
70
128
71
6
72
9
73
8
0
VERTEX
8
OBJECT__36
10
0
20
0
30
0
70
128
71
5
72
4
73
6
0
VERTEX
8
OBJECT__36
10
0
20
0
30
0
70
128
71
2
72
1
73
4
0
VERTEX
8
OBJECT__36
10
0
20
0
30
0
70
128
71
3
72
10
73
1
0
SEQEND
8
OBJECT__36
0
POLYLINE
8
OBJECT__37
66
1
70
64
71
20
72
20
62
253
0
VERTEX
8
OBJECT__37
10
38.160999
20
55.589001
30
521.500000
70
192
0
VERTEX
8
OBJECT__37
10
34.792999
20
47.457001
30
521.500000
70
192
0
VERTEX
8
OBJECT__37
10
35.292999
20
47.457001
30
522.000000
70
192
0
VERTEX
8
OBJECT__37
10
38.514999
20
55.235001
30
522.000000
70
192
0
VERTEX
8
OBJECT__37
10
46.292999
20
58.457001
30
522.000000
70
192
0
VERTEX
8
OBJECT__37
10
43.061001
20
57.618000
30
521.500000
70
192
0
VERTEX
8
OBJECT__37
10
46.292999
20
58.957001
30
521.500000
70
192
0
VERTEX
8
OBJECT__37
10
54.070999
20
55.235001
30
522.000000
70
192
0
VERTEX
8
OBJECT__37
10
57.292999
20
47.457001
30
522.000000
70
192
0
VERTEX
8
OBJECT__37
10
57.792999
20
47.457001
30
521.500000
70
192
0
VERTEX
8
OBJECT__37
10
55.081001
20
54.002998
30
521.500000
70
192
0
VERTEX
8
OBJECT__37
10
54.070999
20
39.679001
30
522.000000
70
192
0
VERTEX
8
OBJECT__37
10
55.081001
20
40.910999
30
521.500000
70
192
0
VERTEX
8
OBJECT__37
10
54.424999
20
39.325001
30
521.500000
70
192
0
VERTEX
8
OBJECT__37
10
46.292999
20
36.457001
30
522.000000
70
192
0
VERTEX
8
OBJECT__37
10
38.514999
20
39.679001
30
522.000000
70
192
0
VERTEX
8
OBJECT__37
10
38.160999
20
39.325001
30
521.500000
70
192
0
VERTEX
8
OBJECT__37
10
43.061001
20
37.296001
30
521.500000
70
192
0
VERTEX
8
OBJECT__37
10
46.292999
20
35.957001
30
521.500000
70
192
0
VERTEX
8
OBJECT__37
10
54.424999
20
55.589001
30
521.500000
70
192
0
VERTEX
8
OBJECT__37
10
0
20
0
30
0
70
128
71
1
72
2
73
3
0
VERTEX
8
OBJECT__37
10
0
20
0
30
0
70
128
71
4
72
5
73
6
0
VERTEX
8
OBJECT__37
10
0
20
0
30
0
70
128
71
5
72
7
73
6
0
VERTEX
8
OBJECT__37
10
0
20
0
30
0
70
128
71
7
72
5
73
8
0
VERTEX
8
OBJECT__37
10
0
20
0
30
0
70
128
71
9
72
10
73
11
0
VERTEX
8
OBJECT__37
10
0
20
0
30
0
70
128
71
11
72
8
73
9
0
VERTEX
8
OBJECT__37
10
0
20
0
30
0
70
128
71
9
72
12
73
13
0
VERTEX
8
OBJECT__37
10
0
20
0
30
0
70
128
71
12
72
14
73
13
0
VERTEX
8
OBJECT__37
10
0
20
0
30
0
70
128
71
14
72
12
73
15
0
VERTEX
8
OBJECT__37
10
0
20
0
30
0
70
128
71
16
72
17
73
18
0
VERTEX
8
OBJECT__37
10
0
20
0
30
0
70
128
71
18
72
15
73
16
0
VERTEX
8
OBJECT__37
10
0
20
0
30
0
70
128
71
17
72
16
73
3
0
VERTEX
8
OBJECT__37
10
0
20
0
30
0
70
128
71
3
72
2
73
17
0
VERTEX
8
OBJECT__37
10
0
20
0
30
0
70
128
71
18
72
19
73
15
0
VERTEX
8
OBJECT__37
10
0
20
0
30
0
70
128
71
15
72
19
73
14
0
VERTEX
8
OBJECT__37
10
0
20
0
30
0
70
128
71
13
72
10
73
9
0
VERTEX
8
OBJECT__37
10
0
20
0
30
0
70
128
71
11
72
20
73
8
0
VERTEX
8
OBJECT__37
10
0
20
0
30
0
70
128
71
8
72
20
73
7
0
VERTEX
8
OBJECT__37
10
0
20
0
30
0
70
128
71
6
72
1
73
4
0
VERTEX
8
OBJECT__37
10
0
20
0
30
0
70
128
71
3
72
4
73
1
0
SEQEND
8
OBJECT__37
0
POLYLINE
8
OBJECT__38
66
1
70
64
71
22
72
22
62
253
0
VERTEX
8
OBJECT__38
10
43.061001
20
57.618000
30
521.500000
70
192
0
VERTEX
8
OBJECT__38
10
42.738998
20
57.416000
30
518.799988
70
192
0
VERTEX
8
OBJECT__38
10
40.542999
20
57.416000
30
518.799988
70
192
0
VERTEX
8
OBJECT__38
10
34.792999
20
47.457001
30
518.799988
70
192
0
VERTEX
8
OBJECT__38
10
34.792999
20
47.457001
30
521.500000
70
192
0
VERTEX
8
OBJECT__38
10
38.160999
20
55.589001
30
521.500000
70
192
0
VERTEX
8
OBJECT__38
10
46.292999
20
58.957001
30
521.500000
70
192
0
VERTEX
8
OBJECT__38
10
54.424999
20
55.589001
30
521.500000
70
192
0
VERTEX
8
OBJECT__38
10
52.042999
20
57.416000
30
518.799988
70
192
0
VERTEX
8
OBJECT__38
10
54.317001
20
53.478001
30
518.799988
70
192
0
VERTEX
8
OBJECT__38
10
57.792999
20
47.457001
30
521.500000
70
192
0
VERTEX
8
OBJECT__38
10
55.081001
20
40.910999
30
521.500000
70
192
0
VERTEX
8
OBJECT__38
10
54.317001
20
41.436001
30
518.799988
70
192
0
VERTEX
8
OBJECT__38
10
57.792999
20
47.457001
30
518.799988
70
192
0
VERTEX
8
OBJECT__38
10
55.081001
20
54.002998
30
521.500000
70
192
0
VERTEX
8
OBJECT__38
10
52.042999
20
37.498001
30
518.799988
70
192
0
VERTEX
8
OBJECT__38
10
54.424999
20
39.325001
30
521.500000
70
192
0
VERTEX
8
OBJECT__38
10
46.292999
20
35.957001
30
521.500000
70
192
0
VERTEX
8
OBJECT__38
10
42.738998
20
37.498001
30
518.799988
70
192
0
VERTEX
8
OBJECT__38
10
40.542999
20
37.498001
30
518.799988
70
192
0
VERTEX
8
OBJECT__38
10
38.160999
20
39.325001
30
521.500000
70
192
0
VERTEX
8
OBJECT__38
10
43.061001
20
37.296001
30
521.500000
70
192
0
VERTEX
8
OBJECT__38
10
0
20
0
30
0
70
128
71
1
72
2
73
3
0
VERTEX
8
OBJECT__38
10
0
20
0
30
0
70
128
71
4
72
5
73
6
0
VERTEX
8
OBJECT__38
10
0
20
0
30
0
70
128
71
6
72
3
73
4
0
VERTEX
8
OBJECT__38
10
0
20
0
30
0
70
128
71
7
72
8
73
9
0
VERTEX
8
OBJECT__38
10
0
20
0
30
0
70
128
71
8
72
10
73
9
0
VERTEX
8
OBJECT__38
10
0
20
0
30
0
70
128
71
9
72
2
73
7
0
VERTEX
8
OBJECT__38
10
0
20
0
30
0
70
128
71
2
72
1
73
7
0
VERTEX
8
OBJECT__38
10
0
20
0
30
0
70
128
71
11
72
12
73
13
0
VERTEX
8
OBJECT__38
10
0
20
0
30
0
70
128
71
11
72
14
73
10
0
VERTEX
8
OBJECT__38
10
0
20
0
30
0
70
128
71
10
72
15
73
11
0
VERTEX
8
OBJECT__38
10
0
20
0
30
0
70
128
71
16
72
17
73
18
0
VERTEX
8
OBJECT__38
10
0
20
0
30
0
70
128
71
18
72
19
73
16
0
VERTEX
8
OBJECT__38
10
0
20
0
30
0
70
128
71
16
72
13
73
17
0
VERTEX
8
OBJECT__38
10
0
20
0
30
0
70
128
71
13
72
12
73
17
0
VERTEX
8
OBJECT__38
10
0
20
0
30
0
70
128
71
4
72
20
73
21
0
VERTEX
8
OBJECT__38
10
0
20
0
30
0
70
128
71
22
72
21
73
20
0
VERTEX
8
OBJECT__38
10
0
20
0
30
0
70
128
71
20
72
19
73
22
0
VERTEX
8
OBJECT__38
10
0
20
0
30
0
70
128
71
21
72
5
73
4
0
VERTEX
8
OBJECT__38
10
0
20
0
30
0
70
128
71
18
72
22
73
19
0
VERTEX
8
OBJECT__38
10
0
20
0
30
0
70
128
71
13
72
14
73
11
0
VERTEX
8
OBJECT__38
10
0
20
0
30
0
70
128
71
8
72
15
73
10
0
VERTEX
8
OBJECT__38
10
0
20
0
30
0
70
128
71
3
72
6
73
1
0
SEQEND
8
OBJECT__38
0
POLYLINE
8
OBJECT__40
66
1
70
64
71
16
72
16
62
253
0
VERTEX
8
OBJECT__40
10
40.393002
20
57.675999
30
518.500000
70
192
0
VERTEX
8
OBJECT__40
10
34.493000
20
47.457001
30
518.500000
70
192
0
VERTEX
8
OBJECT__40
10
34.792999
20
47.457001
30
518.799988
70
192
0
VERTEX
8
OBJECT__40
10
52.193001
20
57.675999
30
518.500000
70
192
0
VERTEX
8
OBJECT__40
10
42.738998
20
57.416000
30
518.799988
70
192
0
VERTEX
8
OBJECT__40
10
40.542999
20
57.416000
30
518.799988
70
192
0
VERTEX
8
OBJECT__40
10
58.092999
20
47.457001
30
518.500000
70
192
0
VERTEX
8
OBJECT__40
10
54.317001
20
53.478001
30
518.799988
70
192
0
VERTEX
8
OBJECT__40
10
52.042999
20
57.416000
30
518.799988
70
192
0
VERTEX
8
OBJECT__40
10
57.792999
20
47.457001
30
518.799988
70
192
0
VERTEX
8
OBJECT__40
10
54.317001
20
41.436001
30
518.799988
70
192
0
VERTEX
8
OBJECT__40
10
52.193001
20
37.237999
30
518.500000
70
192
0
VERTEX
8
OBJECT__40
10
52.042999
20
37.498001
30
518.799988
70
192
0
VERTEX
8
OBJECT__40
10
42.738998
20
37.498001
30
518.799988
70
192
0
VERTEX
8
OBJECT__40
10
40.393002
20
37.237999
30
518.500000
70
192
0
VERTEX
8
OBJECT__40
10
40.542999
20
37.498001
30
518.799988
70
192
0
VERTEX
8
OBJECT__40
10
0
20
0
30
0
70
128
71
1
72
2
73
3
0
VERTEX
8
OBJECT__40
10
0
20
0
30
0
70
128
71
4
72
1
73
5
0
VERTEX
8
OBJECT__40
10
0
20
0
30
0
70
128
71
1
72
6
73
5
0
VERTEX
8
OBJECT__40
10
0
20
0
30
0
70
128
71
7
72
4
73
8
0
VERTEX
8
OBJECT__40
10
0
20
0
30
0
70
128
71
4
72
9
73
8
0
VERTEX
8
OBJECT__40
10
0
20
0
30
0
70
128
71
7
72
10
73
11
0
VERTEX
8
OBJECT__40
10
0
20
0
30
0
70
128
71
11
72
12
73
7
0
VERTEX
8
OBJECT__40
10
0
20
0
30
0
70
128
71
12
72
13
73
14
0
VERTEX
8
OBJECT__40
10
0
20
0
30
0
70
128
71
14
72
15
73
12
0
VERTEX
8
OBJECT__40
10
0
20
0
30
0
70
128
71
15
72
16
73
3
0
VERTEX
8
OBJECT__40
10
0
20
0
30
0
70
128
71
3
72
2
73
15
0
VERTEX
8
OBJECT__40
10
0
20
0
30
0
70
128
71
14
72
16
73
15
0
VERTEX
8
OBJECT__40
10
0
20
0
30
0
70
128
71
11
72
13
73
12
0
VERTEX
8
OBJECT__40
10
0
20
0
30
0
70
128
71
8
72
10
73
7
0
VERTEX
8
OBJECT__40
10
0
20
0
30
0
70
128
71
5
72
9
73
4
0
VERTEX
8
OBJECT__40
10
0
20
0
30
0
70
128
71
3
72
6
73
1
0
SEQEND
8
OBJECT__40
0
POLYLINE
8
OBJECT__41
66
1
70
64
71
16
72
16
62
253
0
VERTEX
8
OBJECT__41
10
52.193001
20
57.675999
30
518.500000
70
192
0
VERTEX
8
OBJECT__41
10
58.092999
20
47.457001
30
518.500000
70
192
0
VERTEX
8
OBJECT__41
10
57.612999
20
47.457001
30
490.270996
70
192
0
VERTEX
8
OBJECT__41
10
40.393002
20
57.675999
30
518.500000
70
192
0
VERTEX
8
OBJECT__41
10
49.791000
20
57.261002
30
490.270996
70
192
0
VERTEX
8
OBJECT__41
10
51.952999
20
57.261002
30
490.270996
70
192
0
VERTEX
8
OBJECT__41
10
34.493000
20
47.457001
30
518.500000
70
192
0
VERTEX
8
OBJECT__41
10
38.394001
20
53.383999
30
490.270996
70
192
0
VERTEX
8
OBJECT__41
10
40.632999
20
57.261002
30
490.270996
70
192
0
VERTEX
8
OBJECT__41
10
34.972000
20
47.457001
30
490.270996
70
192
0
VERTEX
8
OBJECT__41
10
38.394001
20
41.529999
30
490.270996
70
192
0
VERTEX
8
OBJECT__41
10
40.393002
20
37.237999
30
518.500000
70
192
0
VERTEX
8
OBJECT__41
10
40.632999
20
37.653000
30
490.270996
70
192
0
VERTEX
8
OBJECT__41
10
49.791000
20
37.653000
30
490.270996
70
192
0
VERTEX
8
OBJECT__41
10
52.193001
20
37.237999
30
518.500000
70
192
0
VERTEX
8
OBJECT__41
10
51.952999
20
37.653000
30
490.270996
70
192
0
VERTEX
8
OBJECT__41
10
0
20
0
30
0
70
128
71
1
72
2
73
3
0
VERTEX
8
OBJECT__41
10
0
20
0
30
0
70
128
71
4
72
1
73
5
0
VERTEX
8
OBJECT__41
10
0
20
0
30
0
70
128
71
1
72
6
73
5
0
VERTEX
8
OBJECT__41
10
0
20
0
30
0
70
128
71
7
72
4
73
8
0
VERTEX
8
OBJECT__41
10
0
20
0
30
0
70
128
71
4
72
9
73
8
0
VERTEX
8
OBJECT__41
10
0
20
0
30
0
70
128
71
7
72
10
73
11
0
VERTEX
8
OBJECT__41
10
0
20
0
30
0
70
128
71
11
72
12
73
7
0
VERTEX
8
OBJECT__41
10
0
20
0
30
0
70
128
71
12
72
13
73
14
0
VERTEX
8
OBJECT__41
10
0
20
0
30
0
70
128
71
14
72
15
73
12
0
VERTEX
8
OBJECT__41
10
0
20
0
30
0
70
128
71
2
72
15
73
16
0
VERTEX
8
OBJECT__41
10
0
20
0
30
0
70
128
71
16
72
3
73
2
0
VERTEX
8
OBJECT__41
10
0
20
0
30
0
70
128
71
14
72
16
73
15
0
VERTEX
8
OBJECT__41
10
0
20
0
30
0
70
128
71
11
72
13
73
12
0
VERTEX
8
OBJECT__41
10
0
20
0
30
0
70
128
71
8
72
10
73
7
0
VERTEX
8
OBJECT__41
10
0
20
0
30
0
70
128
71
5
72
9
73
4
0
VERTEX
8
OBJECT__41
10
0
20
0
30
0
70
128
71
3
72
6
73
1
0
SEQEND
8
OBJECT__41
0
POLYLINE
8
OBJECT__42
66
1
70
64
71
20
72
20
62
253
0
VERTEX
8
OBJECT__42
10
57.612999
20
47.457001
30
490.270996
70
192
0
VERTEX
8
OBJECT__42
10
57.243000
20
47.457001
30
489.899994
70
192
0
VERTEX
8
OBJECT__42
10
53.459999
20
52.664001
30
489.899994
70
192
0
VERTEX
8
OBJECT__42
10
49.676998
20
57.870998
30
489.899994
70
192
0
VERTEX
8
OBJECT__42
10
49.791000
20
57.261002
30
490.270996
70
192
0
VERTEX
8
OBJECT__42
10
51.952999
20
57.261002
30
490.270996
70
192
0
VERTEX
8
OBJECT__42
10
43.555000
20
55.882000
30
489.899994
70
192
0
VERTEX
8
OBJECT__42
10
40.632999
20
57.261002
30
490.270996
70
192
0
VERTEX
8
OBJECT__42
10
37.433998
20
53.893002
30
489.899994
70
192
0
VERTEX
8
OBJECT__42
10
38.394001
20
53.383999
30
490.270996
70
192
0
VERTEX
8
OBJECT__42
10
35.342999
20
47.457001
30
489.899994
70
192
0
VERTEX
8
OBJECT__42
10
37.433998
20
41.021000
30
489.899994
70
192
0
VERTEX
8
OBJECT__42
10
38.394001
20
41.529999
30
490.270996
70
192
0
VERTEX
8
OBJECT__42
10
34.972000
20
47.457001
30
490.270996
70
192
0
VERTEX
8
OBJECT__42
10
43.555000
20
39.032001
30
489.899994
70
192
0
VERTEX
8
OBJECT__42
10
49.676998
20
37.042999
30
489.899994
70
192
0
VERTEX
8
OBJECT__42
10
49.791000
20
37.653000
30
490.270996
70
192
0
VERTEX
8
OBJECT__42
10
40.632999
20
37.653000
30
490.270996
70
192
0
VERTEX
8
OBJECT__42
10
53.459999
20
42.250000
30
489.899994
70
192
0
VERTEX
8
OBJECT__42
10
51.952999
20
37.653000
30
490.270996
70
192
0
VERTEX
8
OBJECT__42
10
0
20
0
30
0
70
128
71
1
72
2
73
3
0
VERTEX
8
OBJECT__42
10
0
20
0
30
0
70
128
71
3
72
4
73
5
0
VERTEX
8
OBJECT__42
10
0
20
0
30
0
70
128
71
5
72
6
73
3
0
VERTEX
8
OBJECT__42
10
0
20
0
30
0
70
128
71
3
72
6
73
1
0
VERTEX
8
OBJECT__42
10
0
20
0
30
0
70
128
71
7
72
8
73
5
0
VERTEX
8
OBJECT__42
10
0
20
0
30
0
70
128
71
5
72
4
73
7
0
VERTEX
8
OBJECT__42
10
0
20
0
30
0
70
128
71
7
72
9
73
10
0
VERTEX
8
OBJECT__42
10
0
20
0
30
0
70
128
71
10
72
8
73
7
0
VERTEX
8
OBJECT__42
10
0
20
0
30
0
70
128
71
11
72
12
73
13
0
VERTEX
8
OBJECT__42
10
0
20
0
30
0
70
128
71
13
72
14
73
11
0
VERTEX
8
OBJECT__42
10
0
20
0
30
0
70
128
71
11
72
14
73
10
0
VERTEX
8
OBJECT__42
10
0
20
0
30
0
70
128
71
10
72
9
73
11
0
VERTEX
8
OBJECT__42
10
0
20
0
30
0
70
128
71
15
72
16
73
17
0
VERTEX
8
OBJECT__42
10
0
20
0
30
0
70
128
71
17
72
18
73
15
0
VERTEX
8
OBJECT__42
10
0
20
0
30
0
70
128
71
15
72
18
73
13
0
VERTEX
8
OBJECT__42
10
0
20
0
30
0
70
128
71
13
72
12
73
15
0
VERTEX
8
OBJECT__42
10
0
20
0
30
0
70
128
71
1
72
16
73
19
0
VERTEX
8
OBJECT__42
10
0
20
0
30
0
70
128
71
1
72
20
73
17
0
VERTEX
8
OBJECT__42
10
0
20
0
30
0
70
128
71
17
72
16
73
1
0
VERTEX
8
OBJECT__42
10
0
20
0
30
0
70
128
71
19
72
2
73
1
0
SEQEND
8
OBJECT__42
0
POLYLINE
8
OBJECT__43
66
1
70
64
71
21
72
21
62
253
0
VERTEX
8
OBJECT__43
10
43.555000
20
55.882000
30
489.899994
70
192
0
VERTEX
8
OBJECT__43
10
43.140999
20
56.856998
30
486.899994
70
192
0
VERTEX
8
OBJECT__43
10
39.466000
20
56.018002
30
486.899994
70
192
0
VERTEX
8
OBJECT__43
10
35.342999
20
47.457001
30
486.899994
70
192
0
VERTEX
8
OBJECT__43
10
35.342999
20
47.457001
30
489.899994
70
192
0
VERTEX
8
OBJECT__43
10
37.433998
20
53.893002
30
489.899994
70
192
0
VERTEX
8
OBJECT__43
10
48.729000
20
58.132999
30
486.899994
70
192
0
VERTEX
8
OBJECT__43
10
49.676998
20
57.870998
30
489.899994
70
192
0
VERTEX
8
OBJECT__43
10
53.459999
20
52.664001
30
489.899994
70
192
0
VERTEX
8
OBJECT__43
10
53.459999
20
42.250000
30
489.899994
70
192
0
VERTEX
8
OBJECT__43
10
54.722000
20
41.560001
30
486.899994
70
192
0
VERTEX
8
OBJECT__43
10
56.159000
20
42.706001
30
486.899994
70
192
0
VERTEX
8
OBJECT__43
10
56.159000
20
52.208000
30
486.899994
70
192
0
VERTEX
8
OBJECT__43
10
57.243000
20
47.457001
30
489.899994
70
192
0
VERTEX
8
OBJECT__43
10
54.722000
20
53.354000
30
486.899994
70
192
0
VERTEX
8
OBJECT__43
10
43.555000
20
39.032001
30
489.899994
70
192
0
VERTEX
8
OBJECT__43
10
43.140999
20
38.056999
30
486.899994
70
192
0
VERTEX
8
OBJECT__43
10
48.729000
20
36.782001
30
486.899994
70
192
0
VERTEX
8
OBJECT__43
10
49.676998
20
37.042999
30
489.899994
70
192
0
VERTEX
8
OBJECT__43
10
39.466000
20
38.896000
30
486.899994
70
192
0
VERTEX
8
OBJECT__43
10
37.433998
20
41.021000
30
489.899994
70
192
0
VERTEX
8
OBJECT__43
10
0
20
0
30
0
70
128
71
1
72
2
73
3
0
VERTEX
8
OBJECT__43
10
0
20
0
30
0
70
128
71
4
72
5
73
6
0
VERTEX
8
OBJECT__43
10
0
20
0
30
0
70
128
71
6
72
3
73
4
0
VERTEX
8
OBJECT__43
10
0
20
0
30
0
70
128
71
7
72
8
73
9
0
VERTEX
8
OBJECT__43
10
0
20
0
30
0
70
128
71
1
72
8
73
7
0
VERTEX
8
OBJECT__43
10
0
20
0
30
0
70
128
71
7
72
2
73
1
0
VERTEX
8
OBJECT__43
10
0
20
0
30
0
70
128
71
10
72
11
73
12
0
VERTEX
8
OBJECT__43
10
0
20
0
30
0
70
128
71
13
72
9
73
14
0
VERTEX
8
OBJECT__43
10
0
20
0
30
0
70
128
71
14
72
12
73
13
0
VERTEX
8
OBJECT__43
10
0
20
0
30
0
70
128
71
13
72
15
73
9
0
VERTEX
8
OBJECT__43
10
0
20
0
30
0
70
128
71
16
72
17
73
18
0
VERTEX
8
OBJECT__43
10
0
20
0
30
0
70
128
71
11
72
10
73
19
0
VERTEX
8
OBJECT__43
10
0
20
0
30
0
70
128
71
19
72
18
73
11
0
VERTEX
8
OBJECT__43
10
0
20
0
30
0
70
128
71
4
72
20
73
21
0
VERTEX
8
OBJECT__43
10
0
20
0
30
0
70
128
71
16
72
21
73
20
0
VERTEX
8
OBJECT__43
10
0
20
0
30
0
70
128
71
20
72
17
73
16
0
VERTEX
8
OBJECT__43
10
0
20
0
30
0
70
128
71
21
72
5
73
4
0
VERTEX
8
OBJECT__43
10
0
20
0
30
0
70
128
71
18
72
19
73
16
0
VERTEX
8
OBJECT__43
10
0
20
0
30
0
70
128
71
12
72
14
73
10
0
VERTEX
8
OBJECT__43
10
0
20
0
30
0
70
128
71
9
72
15
73
7
0
VERTEX
8
OBJECT__43
10
0
20
0
30
0
70
128
71
3
72
6
73
1
0
SEQEND
8
OBJECT__43
0
POLYLINE
8
OBJECT__44
66
1
70
64
71
18
72
18
62
253
0
VERTEX
8
OBJECT__44
10
35.342999
20
47.457001
30
486.899994
70
192
0
VERTEX
8
OBJECT__44
10
39.466000
20
56.018002
30
486.899994
70
192
0
VERTEX
8
OBJECT__44
10
39.590000
20
55.862000
30
486.700012
70
192
0
VERTEX
8
OBJECT__44
10
48.685001
20
57.938000
30
486.700012
70
192
0
VERTEX
8
OBJECT__44
10
43.140999
20
56.856998
30
486.899994
70
192
0
VERTEX
8
OBJECT__44
10
48.729000
20
58.132999
30
486.899994
70
192
0
VERTEX
8
OBJECT__44
10
54.722000
20
53.354000
30
486.899994
70
192
0
VERTEX
8
OBJECT__44
10
55.978001
20
52.120998
30
486.700012
70
192
0
VERTEX
8
OBJECT__44
10
56.159000
20
52.208000
30
486.899994
70
192
0
VERTEX
8
OBJECT__44
10
56.159000
20
42.706001
30
486.899994
70
192
0
VERTEX
8
OBJECT__44
10
55.978001
20
42.792999
30
486.700012
70
192
0
VERTEX
8
OBJECT__44
10
48.685001
20
36.977001
30
486.700012
70
192
0
VERTEX
8
OBJECT__44
10
54.722000
20
41.560001
30
486.899994
70
192
0
VERTEX
8
OBJECT__44
10
48.729000
20
36.782001
30
486.899994
70
192
0
VERTEX
8
OBJECT__44
10
43.140999
20
38.056999
30
486.899994
70
192
0
VERTEX
8
OBJECT__44
10
39.590000
20
39.051998
30
486.700012
70
192
0
VERTEX
8
OBJECT__44
10
35.542999
20
47.457001
30
486.700012
70
192
0
VERTEX
8
OBJECT__44
10
39.466000
20
38.896000
30
486.899994
70
192
0
VERTEX
8
OBJECT__44
10
0
20
0
30
0
70
128
71
1
72
2
73
3
0
VERTEX
8
OBJECT__44
10
0
20
0
30
0
70
128
71
4
72
3
73
5
0
VERTEX
8
OBJECT__44
10
0
20
0
30
0
70
128
71
3
72
2
73
5
0
VERTEX
8
OBJECT__44
10
0
20
0
30
0
70
128
71
4
72
6
73
7
0
VERTEX
8
OBJECT__44
10
0
20
0
30
0
70
128
71
7
72
8
73
4
0
VERTEX
8
OBJECT__44
10
0
20
0
30
0
70
128
71
9
72
10
73
11
0
VERTEX
8
OBJECT__44
10
0
20
0
30
0
70
128
71
12
72
11
73
13
0
VERTEX
8
OBJECT__44
10
0
20
0
30
0
70
128
71
11
72
10
73
13
0
VERTEX
8
OBJECT__44
10
0
20
0
30
0
70
128
71
12
72
14
73
15
0
VERTEX
8
OBJECT__44
10
0
20
0
30
0
70
128
71
15
72
16
73
12
0
VERTEX
8
OBJECT__44
10
0
20
0
30
0
70
128
71
1
72
17
73
16
0
VERTEX
8
OBJECT__44
10
0
20
0
30
0
70
128
71
16
72
18
73
1
0
VERTEX
8
OBJECT__44
10
0
20
0
30
0
70
128
71
15
72
18
73
16
0
VERTEX
8
OBJECT__44
10
0
20
0
30
0
70
128
71
13
72
14
73
12
0
VERTEX
8
OBJECT__44
10
0
20
0
30
0
70
128
71
11
72
8
73
9
0
VERTEX
8
OBJECT__44
10
0
20
0
30
0
70
128
71
7
72
9
73
8
0
VERTEX
8
OBJECT__44
10
0
20
0
30
0
70
128
71
5
72
6
73
4
0
VERTEX
8
OBJECT__44
10
0
20
0
30
0
70
128
71
3
72
17
73
1
0
SEQEND
8
OBJECT__44
0
POLYLINE
8
OBJECT__45
66
1
70
64
71
11
72
11
62
253
0
VERTEX
8
OBJECT__45
10
39.590000
20
55.862000
30
486.700012
70
192
0
VERTEX
8
OBJECT__45
10
48.685001
20
57.938000
30
486.700012
70
192
0
VERTEX
8
OBJECT__45
10
46.292999
20
53.457001
30
486.700012
70
192
0
VERTEX
8
OBJECT__45
10
55.978001
20
52.120998
30
486.700012
70
192
0
VERTEX
8
OBJECT__45
10
52.292999
20
47.457001
30
486.700012
70
192
0
VERTEX
8
OBJECT__45
10
55.978001
20
42.792999
30
486.700012
70
192
0
VERTEX
8
OBJECT__45
10
48.685001
20
36.977001
30
486.700012
70
192
0
VERTEX
8
OBJECT__45
10
46.292999
20
41.457001
30
486.700012
70
192
0
VERTEX
8
OBJECT__45
10
39.590000
20
39.051998
30
486.700012
70
192
0
VERTEX
8
OBJECT__45
10
35.542999
20
47.457001
30
486.700012
70
192
0
VERTEX
8
OBJECT__45
10
40.292999
20
47.457001
30
486.700012
70
192
0
VERTEX
8
OBJECT__45
10
0
20
0
30
0
70
128
71
1
72
2
73
3
0
VERTEX
8
OBJECT__45
10
0
20
0
30
0
70
128
71
4
72
5
73
3
0
VERTEX
8
OBJECT__45
10
0
20
0
30
0
70
128
71
6
72
7
73
8
0
VERTEX
8
OBJECT__45
10
0
20
0
30
0
70
128
71
3
72
2
73
4
0
VERTEX
8
OBJECT__45
10
0
20
0
30
0
70
128
71
8
72
5
73
6
0
VERTEX
8
OBJECT__45
10
0
20
0
30
0
70
128
71
9
72
10
73
11
0
VERTEX
8
OBJECT__45
10
0
20
0
30
0
70
128
71
5
72
4
73
6
0
VERTEX
8
OBJECT__45
10
0
20
0
30
0
70
128
71
11
72
8
73
9
0
VERTEX
8
OBJECT__45
10
0
20
0
30
0
70
128
71
8
72
7
73
9
0
VERTEX
8
OBJECT__45
10
0
20
0
30
0
70
128
71
3
72
11
73
1
0
VERTEX
8
OBJECT__45
10
0
20
0
30
0
70
128
71
11
72
10
73
1
0
SEQEND
8
OBJECT__45
0
POLYLINE
8
OBJECT__46
66
1
70
64
71
8
72
8
62
253
0
VERTEX
8
OBJECT__46
10
46.292999
20
53.457001
30
486.700012
70
192
0
VERTEX
8
OBJECT__46
10
46.292999
20
53.457001
30
227.082001
70
192
0
VERTEX
8
OBJECT__46
10
40.292999
20
47.457001
30
227.082001
70
192
0
VERTEX
8
OBJECT__46
10
52.292999
20
47.457001
30
486.700012
70
192
0
VERTEX
8
OBJECT__46
10
52.292999
20
47.457001
30
227.082001
70
192
0
VERTEX
8
OBJECT__46
10
46.292999
20
41.457001
30
486.700012
70
192
0
VERTEX
8
OBJECT__46
10
46.292999
20
41.457001
30
227.082001
70
192
0
VERTEX
8
OBJECT__46
10
40.292999
20
47.457001
30
486.700012
70
192
0
VERTEX
8
OBJECT__46
10
0
20
0
30
0
70
128
71
1
72
2
73
3
0
VERTEX
8
OBJECT__46
10
0
20
0
30
0
70
128
71
4
72
5
73
2
0
VERTEX
8
OBJECT__46
10
0
20
0
30
0
70
128
71
6
72
7
73
5
0
VERTEX
8
OBJECT__46
10
0
20
0
30
0
70
128
71
8
72
3
73
7
0
VERTEX
8
OBJECT__46
10
0
20
0
30
0
70
128
71
7
72
6
73
8
0
VERTEX
8
OBJECT__46
10
0
20
0
30
0
70
128
71
5
72
4
73
6
0
VERTEX
8
OBJECT__46
10
0
20
0
30
0
70
128
71
2
72
1
73
4
0
VERTEX
8
OBJECT__46
10
0
20
0
30
0
70
128
71
3
72
8
73
1
0
SEQEND
8
OBJECT__46
0
POLYLINE
8
OBJECT__47
66
1
70
64
71
8
72
8
62
253
0
VERTEX
8
OBJECT__47
10
53.792000
20
47.457001
30
227.082001
70
192
0
VERTEX
8
OBJECT__47
10
46.292999
20
54.956001
30
227.082001
70
192
0
VERTEX
8
OBJECT__47
10
46.292999
20
53.457001
30
227.082001
70
192
0
VERTEX
8
OBJECT__47
10
38.793999
20
47.457001
30
227.082001
70
192
0
VERTEX
8
OBJECT__47
10
40.292999
20
47.457001
30
227.082001
70
192
0
VERTEX
8
OBJECT__47
10
46.292999
20
39.958000
30
227.082001
70
192
0
VERTEX
8
OBJECT__47
10
46.292999
20
41.457001
30
227.082001
70
192
0
VERTEX
8
OBJECT__47
10
52.292999
20
47.457001
30
227.082001
70
192
0
VERTEX
8
OBJECT__47
10
0
20
0
30
0
70
128
71
1
72
2
73
3
0
VERTEX
8
OBJECT__47
10
0
20
0
30
0
70
128
71
2
72
4
73
5
0
VERTEX
8
OBJECT__47
10
0
20
0
30
0
70
128
71
4
72
6
73
7
0
VERTEX
8
OBJECT__47
10
0
20
0
30
0
70
128
71
6
72
1
73
8
0
VERTEX
8
OBJECT__47
10
0
20
0
30
0
70
128
71
5
72
3
73
2
0
VERTEX
8
OBJECT__47
10
0
20
0
30
0
70
128
71
8
72
7
73
6
0
VERTEX
8
OBJECT__47
10
0
20
0
30
0
70
128
71
7
72
5
73
4
0
VERTEX
8
OBJECT__47
10
0
20
0
30
0
70
128
71
3
72
8
73
1
0
SEQEND
8
OBJECT__47
0
POLYLINE
8
OBJECT__48
66
1
70
64
71
8
72
8
62
253
0
VERTEX
8
OBJECT__48
10
46.292999
20
54.956001
30
227.082001
70
192
0
VERTEX
8
OBJECT__48
10
46.292999
20
54.956001
30
209.582001
70
192
0
VERTEX
8
OBJECT__48
10
38.793999
20
47.457001
30
209.582001
70
192
0
VERTEX
8
OBJECT__48
10
53.792000
20
47.457001
30
227.082001
70
192
0
VERTEX
8
OBJECT__48
10
53.792000
20
47.457001
30
209.582001
70
192
0
VERTEX
8
OBJECT__48
10
46.292999
20
39.958000
30
227.082001
70
192
0
VERTEX
8
OBJECT__48
10
46.292999
20
39.958000
30
209.582001
70
192
0
VERTEX
8
OBJECT__48
10
38.793999
20
47.457001
30
227.082001
70
192
0
VERTEX
8
OBJECT__48
10
0
20
0
30
0
70
128
71
1
72
2
73
3
0
VERTEX
8
OBJECT__48
10
0
20
0
30
0
70
128
71
4
72
5
73
2
0
VERTEX
8
OBJECT__48
10
0
20
0
30
0
70
128
71
6
72
7
73
5
0
VERTEX
8
OBJECT__48
10
0
20
0
30
0
70
128
71
8
72
3
73
7
0
VERTEX
8
OBJECT__48
10
0
20
0
30
0
70
128
71
7
72
6
73
8
0
VERTEX
8
OBJECT__48
10
0
20
0
30
0
70
128
71
5
72
4
73
6
0
VERTEX
8
OBJECT__48
10
0
20
0
30
0
70
128
71
2
72
1
73
4
0
VERTEX
8
OBJECT__48
10
0
20
0
30
0
70
128
71
3
72
8
73
1
0
SEQEND
8
OBJECT__48
0
POLYLINE
8
OBJECT__49
66
1
70
64
71
12
72
12
62
253
0
VERTEX
8
OBJECT__49
10
54.070999
20
55.235001
30
209.582001
70
192
0
VERTEX
8
OBJECT__49
10
46.292999
20
54.956001
30
209.582001
70
192
0
VERTEX
8
OBJECT__49
10
53.792000
20
47.457001
30
209.582001
70
192
0
VERTEX
8
OBJECT__49
10
38.514999
20
55.235001
30
209.582001
70
192
0
VERTEX
8
OBJECT__49
10
38.793999
20
47.457001
30
209.582001
70
192
0
VERTEX
8
OBJECT__49
10
38.514999
20
39.679001
30
209.582001
70
192
0
VERTEX
8
OBJECT__49
10
46.292999
20
39.958000
30
209.582001
70
192
0
VERTEX
8
OBJECT__49
10
54.070999
20
39.679001
30
209.582001
70
192
0
VERTEX
8
OBJECT__49
10
57.292999
20
47.457001
30
209.582001
70
192
0
VERTEX
8
OBJECT__49
10
46.292999
20
58.457001
30
209.582001
70
192
0
VERTEX
8
OBJECT__49
10
35.292999
20
47.457001
30
209.582001
70
192
0
VERTEX
8
OBJECT__49
10
46.292999
20
36.457001
30
209.582001
70
192
0
VERTEX
8
OBJECT__49
10
0
20
0
30
0
70
128
71
1
72
2
73
3
0
VERTEX
8
OBJECT__49
10
0
20
0
30
0
70
128
71
4
72
5
73
2
0
VERTEX
8
OBJECT__49
10
0
20
0
30
0
70
128
71
6
72
7
73
5
0
VERTEX
8
OBJECT__49
10
0
20
0
30
0
70
128
71
8
72
3
73
7
0
VERTEX
8
OBJECT__49
10
0
20
0
30
0
70
128
71
3
72
9
73
1
0
VERTEX
8
OBJECT__49
10
0
20
0
30
0
70
128
71
2
72
10
73
4
0
VERTEX
8
OBJECT__49
10
0
20
0
30
0
70
128
71
5
72
11
73
6
0
VERTEX
8
OBJECT__49
10
0
20
0
30
0
70
128
71
8
72
9
73
3
0
VERTEX
8
OBJECT__49
10
0
20
0
30
0
70
128
71
4
72
11
73
5
0
VERTEX
8
OBJECT__49
10
0
20
0
30
0
70
128
71
7
72
12
73
8
0
VERTEX
8
OBJECT__49
10
0
20
0
30
0
70
128
71
6
72
12
73
7
0
VERTEX
8
OBJECT__49
10
0
20
0
30
0
70
128
71
1
72
10
73
2
0
SEQEND
8
OBJECT__49
0
POLYLINE
8
OBJECT__50
66
1
70
64
71
20
72
20
62
253
0
VERTEX
8
OBJECT__50
10
34.792999
20
47.457001
30
209.082001
70
192
0
VERTEX
8
OBJECT__50
10
35.292999
20
47.457001
30
209.582001
70
192
0
VERTEX
8
OBJECT__50
10
38.514999
20
55.235001
30
209.582001
70
192
0
VERTEX
8
OBJECT__50
10
46.292999
20
58.457001
30
209.582001
70
192
0
VERTEX
8
OBJECT__50
10
43.061001
20
57.618000
30
209.082001
70
192
0
VERTEX
8
OBJECT__50
10
46.292999
20
58.957001
30
209.082001
70
192
0
VERTEX
8
OBJECT__50
10
54.424999
20
55.589001
30
209.082001
70
192
0
VERTEX
8
OBJECT__50
10
57.292999
20
47.457001
30
209.582001
70
192
0
VERTEX
8
OBJECT__50
10
57.792999
20
47.457001
30
209.082001
70
192
0
VERTEX
8
OBJECT__50
10
55.081001
20
54.002998
30
209.082001
70
192
0
VERTEX
8
OBJECT__50
10
54.070999
20
55.235001
30
209.582001
70
192
0
VERTEX
8
OBJECT__50
10
54.070999
20
39.679001
30
209.582001
70
192
0
VERTEX
8
OBJECT__50
10
55.081001
20
40.910999
30
209.082001
70
192
0
VERTEX
8
OBJECT__50
10
54.424999
20
39.325001
30
209.082001
70
192
0
VERTEX
8
OBJECT__50
10
46.292999
20
35.957001
30
209.082001
70
192
0
VERTEX
8
OBJECT__50
10
38.514999
20
39.679001
30
209.582001
70
192
0
VERTEX
8
OBJECT__50
10
38.160999
20
39.325001
30
209.082001
70
192
0
VERTEX
8
OBJECT__50
10
43.061001
20
37.296001
30
209.082001
70
192
0
VERTEX
8
OBJECT__50
10
46.292999
20
36.457001
30
209.582001
70
192
0
VERTEX
8
OBJECT__50
10
38.160999
20
55.589001
30
209.082001
70
192
0
VERTEX
8
OBJECT__50
10
0
20
0
30
0
70
128
71
1
72
2
73
3
0
VERTEX
8
OBJECT__50
10
0
20
0
30
0
70
128
71
3
72
4
73
5
0
VERTEX
8
OBJECT__50
10
0
20
0
30
0
70
128
71
4
72
6
73
5
0
VERTEX
8
OBJECT__50
10
0
20
0
30
0
70
128
71
7
72
6
73
4
0
VERTEX
8
OBJECT__50
10
0
20
0
30
0
70
128
71
8
72
9
73
10
0
VERTEX
8
OBJECT__50
10
0
20
0
30
0
70
128
71
10
72
11
73
8
0
VERTEX
8
OBJECT__50
10
0
20
0
30
0
70
128
71
8
72
12
73
13
0
VERTEX
8
OBJECT__50
10
0
20
0
30
0
70
128
71
12
72
14
73
13
0
VERTEX
8
OBJECT__50
10
0
20
0
30
0
70
128
71
15
72
14
73
12
0
VERTEX
8
OBJECT__50
10
0
20
0
30
0
70
128
71
16
72
17
73
18
0
VERTEX
8
OBJECT__50
10
0
20
0
30
0
70
128
71
18
72
19
73
16
0
VERTEX
8
OBJECT__50
10
0
20
0
30
0
70
128
71
1
72
17
73
16
0
VERTEX
8
OBJECT__50
10
0
20
0
30
0
70
128
71
16
72
2
73
1
0
VERTEX
8
OBJECT__50
10
0
20
0
30
0
70
128
71
18
72
15
73
19
0
VERTEX
8
OBJECT__50
10
0
20
0
30
0
70
128
71
12
72
19
73
15
0
VERTEX
8
OBJECT__50
10
0
20
0
30
0
70
128
71
13
72
9
73
8
0
VERTEX
8
OBJECT__50
10
0
20
0
30
0
70
128
71
10
72
7
73
11
0
VERTEX
8
OBJECT__50
10
0
20
0
30
0
70
128
71
4
72
11
73
7
0
VERTEX
8
OBJECT__50
10
0
20
0
30
0
70
128
71
5
72
20
73
3
0
VERTEX
8
OBJECT__50
10
0
20
0
30
0
70
128
71
3
72
20
73
1
0
SEQEND
8
OBJECT__50
0
POLYLINE
8
OBJECT__51
66
1
70
64
71
24
72
24
62
253
0
VERTEX
8
OBJECT__51
10
43.061001
20
57.618000
30
196.582001
70
192
0
VERTEX
8
OBJECT__51
10
38.160999
20
55.589001
30
196.582001
70
192
0
VERTEX
8
OBJECT__51
10
38.160999
20
55.589001
30
209.082001
70
192
0
VERTEX
8
OBJECT__51
10
34.792999
20
47.457001
30
209.082001
70
192
0
VERTEX
8
OBJECT__51
10
34.792999
20
47.457001
30
196.582001
70
192
0
VERTEX
8
OBJECT__51
10
55.081001
20
54.002998
30
196.582001
70
192
0
VERTEX
8
OBJECT__51
10
54.424999
20
55.589001
30
196.582001
70
192
0
VERTEX
8
OBJECT__51
10
54.424999
20
55.589001
30
209.082001
70
192
0
VERTEX
8
OBJECT__51
10
46.292999
20
58.957001
30
209.082001
70
192
0
VERTEX
8
OBJECT__51
10
46.292999
20
58.957001
30
196.582001
70
192
0
VERTEX
8
OBJECT__51
10
43.061001
20
57.618000
30
209.082001
70
192
0
VERTEX
8
OBJECT__51
10
55.081001
20
40.910999
30
196.582001
70
192
0
VERTEX
8
OBJECT__51
10
57.792999
20
47.457001
30
196.582001
70
192
0
VERTEX
8
OBJECT__51
10
57.792999
20
47.457001
30
209.082001
70
192
0
VERTEX
8
OBJECT__51
10
55.081001
20
54.002998
30
209.082001
70
192
0
VERTEX
8
OBJECT__51
10
43.061001
20
37.296001
30
196.582001
70
192
0
VERTEX
8
OBJECT__51
10
46.292999
20
35.957001
30
196.582001
70
192
0
VERTEX
8
OBJECT__51
10
46.292999
20
35.957001
30
209.082001
70
192
0
VERTEX
8
OBJECT__51
10
54.424999
20
39.325001
30
209.082001
70
192
0
VERTEX
8
OBJECT__51
10
54.424999
20
39.325001
30
196.582001
70
192
0
VERTEX
8
OBJECT__51
10
55.081001
20
40.910999
30
209.082001
70
192
0
VERTEX
8
OBJECT__51
10
38.160999
20
39.325001
30
196.582001
70
192
0
VERTEX
8
OBJECT__51
10
38.160999
20
39.325001
30
209.082001
70
192
0
VERTEX
8
OBJECT__51
10
43.061001
20
37.296001
30
209.082001
70
192
0
VERTEX
8
OBJECT__51
10
0
20
0
30
0
70
128
71
1
72
2
73
3
0
VERTEX
8
OBJECT__51
10
0
20
0
30
0
70
128
71
4
72
3
73
2
0
VERTEX
8
OBJECT__51
10
0
20
0
30
0
70
128
71
2
72
5
73
4
0
VERTEX
8
OBJECT__51
10
0
20
0
30
0
70
128
71
6
72
7
73
8
0
VERTEX
8
OBJECT__51
10
0
20
0
30
0
70
128
71
9
72
8
73
7
0
VERTEX
8
OBJECT__51
10
0
20
0
30
0
70
128
71
7
72
10
73
9
0
VERTEX
8
OBJECT__51
10
0
20
0
30
0
70
128
71
11
72
9
73
10
0
VERTEX
8
OBJECT__51
10
0
20
0
30
0
70
128
71
10
72
1
73
11
0
VERTEX
8
OBJECT__51
10
0
20
0
30
0
70
128
71
12
72
13
73
14
0
VERTEX
8
OBJECT__51
10
0
20
0
30
0
70
128
71
15
72
14
73
13
0
VERTEX
8
OBJECT__51
10
0
20
0
30
0
70
128
71
13
72
6
73
15
0
VERTEX
8
OBJECT__51
10
0
20
0
30
0
70
128
71
16
72
17
73
18
0
VERTEX
8
OBJECT__51
10
0
20
0
30
0
70
128
71
19
72
18
73
17
0
VERTEX
8
OBJECT__51
10
0
20
0
30
0
70
128
71
17
72
20
73
19
0
VERTEX
8
OBJECT__51
10
0
20
0
30
0
70
128
71
21
72
19
73
20
0
VERTEX
8
OBJECT__51
10
0
20
0
30
0
70
128
71
20
72
12
73
21
0
VERTEX
8
OBJECT__51
10
0
20
0
30
0
70
128
71
5
72
22
73
23
0
VERTEX
8
OBJECT__51
10
0
20
0
30
0
70
128
71
24
72
23
73
22
0
VERTEX
8
OBJECT__51
10
0
20
0
30
0
70
128
71
22
72
16
73
24
0
VERTEX
8
OBJECT__51
10
0
20
0
30
0
70
128
71
23
72
4
73
5
0
VERTEX
8
OBJECT__51
10
0
20
0
30
0
70
128
71
18
72
24
73
16
0
VERTEX
8
OBJECT__51
10
0
20
0
30
0
70
128
71
14
72
21
73
12
0
VERTEX
8
OBJECT__51
10
0
20
0
30
0
70
128
71
8
72
15
73
6
0
VERTEX
8
OBJECT__51
10
0
20
0
30
0
70
128
71
3
72
11
73
1
0
SEQEND
8
OBJECT__51
0
POLYLINE
8
OBJECT__52
66
1
70
64
71
28
72
36
62
253
0
VERTEX
8
OBJECT__52
10
38.160999
20
55.589001
30
196.582001
70
192
0
VERTEX
8
OBJECT__52
10
38.264999
20
55.485001
30
196.227997
70
192
0
VERTEX
8
OBJECT__52
10
34.938999
20
47.457001
30
196.227997
70
192
0
VERTEX
8
OBJECT__52
10
43.061001
20
57.618000
30
196.582001
70
192
0
VERTEX
8
OBJECT__52
10
46.292999
20
58.811001
30
196.227997
70
192
0
VERTEX
8
OBJECT__52
10
46.292999
20
58.957001
30
196.582001
70
192
0
VERTEX
8
OBJECT__52
10
54.424999
20
55.589001
30
196.582001
70
192
0
VERTEX
8
OBJECT__52
10
54.320999
20
55.485001
30
196.227997
70
192
0
VERTEX
8
OBJECT__52
10
57.646000
20
47.457001
30
196.227997
70
192
0
VERTEX
8
OBJECT__52
10
55.081001
20
54.002998
30
196.582001
70
192
0
VERTEX
8
OBJECT__52
10
57.792999
20
47.457001
30
196.582001
70
192
0
VERTEX
8
OBJECT__52
10
55.081001
20
40.910999
30
196.582001
70
192
0
VERTEX
8
OBJECT__52
10
54.320999
20
39.429001
30
196.227997
70
192
0
VERTEX
8
OBJECT__52
10
46.292999
20
35.957001
30
196.582001
70
192
0
VERTEX
8
OBJECT__52
10
46.292999
20
36.104000
30
196.227997
70
192
0
VERTEX
8
OBJECT__52
10
38.264999
20
39.429001
30
196.227997
70
192
0
VERTEX
8
OBJECT__52
10
43.061001
20
37.296001
30
196.582001
70
192
0
VERTEX
8
OBJECT__52
10
34.792999
20
47.457001
30
196.582001
70
192
0
VERTEX
8
OBJECT__52
10
38.514999
20
55.235001
30
196.082001
70
192
0
VERTEX
8
OBJECT__52
10
46.292999
20
58.457001
30
196.082001
70
192
0
VERTEX
8
OBJECT__52
10
54.070999
20
55.235001
30
196.082001
70
192
0
VERTEX
8
OBJECT__52
10
57.292999
20
47.457001
30
196.082001
70
192
0
VERTEX
8
OBJECT__52
10
54.070999
20
39.679001
30
196.082001
70
192
0
VERTEX
8
OBJECT__52
10
46.292999
20
36.457001
30
196.082001
70
192
0
VERTEX
8
OBJECT__52
10
38.514999
20
39.679001
30
196.082001
70
192
0
VERTEX
8
OBJECT__52
10
35.292999
20
47.457001
30
196.082001
70
192
0
VERTEX
8
OBJECT__52
10
38.160999
20
39.325001
30
196.582001
70
192
0
VERTEX
8
OBJECT__52
10
54.424999
20
39.325001
30
196.582001
70
192
0
VERTEX
8
OBJECT__52
10
0
20
0
30
0
70
128
71
1
72
2
73
3
0
VERTEX
8
OBJECT__52
10
0
20
0
30
0
70
128
71
2
72
1
73
4
0
VERTEX
8
OBJECT__52
10
0
20
0
30
0
70
128
71
4
72
5
73
2
0
VERTEX
8
OBJECT__52
10
0
20
0
30
0
70
128
71
6
72
7
73
8
0
VERTEX
8
OBJECT__52
10
0
20
0
30
0
70
128
71
9
72
8
73
10
0
VERTEX
8
OBJECT__52
10
0
20
0
30
0
70
128
71
8
72
7
73
10
0
VERTEX
8
OBJECT__52
10
0
20
0
30
0
70
128
71
9
72
11
73
12
0
VERTEX
8
OBJECT__52
10
0
20
0
30
0
70
128
71
12
72
13
73
9
0
VERTEX
8
OBJECT__52
10
0
20
0
30
0
70
128
71
14
72
15
73
13
0
VERTEX
8
OBJECT__52
10
0
20
0
30
0
70
128
71
16
72
15
73
17
0
VERTEX
8
OBJECT__52
10
0
20
0
30
0
70
128
71
15
72
14
73
17
0
VERTEX
8
OBJECT__52
10
0
20
0
30
0
70
128
71
18
72
3
73
16
0
VERTEX
8
OBJECT__52
10
0
20
0
30
0
70
128
71
3
72
2
73
19
0
VERTEX
8
OBJECT__52
10
0
20
0
30
0
70
128
71
2
72
5
73
20
0
VERTEX
8
OBJECT__52
10
0
20
0
30
0
70
128
71
5
72
8
73
21
0
VERTEX
8
OBJECT__52
10
0
20
0
30
0
70
128
71
8
72
9
73
22
0
VERTEX
8
OBJECT__52
10
0
20
0
30
0
70
128
71
9
72
13
73
23
0
VERTEX
8
OBJECT__52
10
0
20
0
30
0
70
128
71
13
72
15
73
24
0
VERTEX
8
OBJECT__52
10
0
20
0
30
0
70
128
71
15
72
16
73
25
0
VERTEX
8
OBJECT__52
10
0
20
0
30
0
70
128
71
16
72
3
73
26
0
VERTEX
8
OBJECT__52
10
0
20
0
30
0
70
128
71
26
72
25
73
16
0
VERTEX
8
OBJECT__52
10
0
20
0
30
0
70
128
71
25
72
24
73
15
0
VERTEX
8
OBJECT__52
10
0
20
0
30
0
70
128
71
24
72
23
73
13
0
VERTEX
8
OBJECT__52
10
0
20
0
30
0
70
128
71
23
72
22
73
9
0
VERTEX
8
OBJECT__52
10
0
20
0
30
0
70
128
71
22
72
21
73
8
0
VERTEX
8
OBJECT__52
10
0
20
0
30
0
70
128
71
21
72
20
73
5
0
VERTEX
8
OBJECT__52
10
0
20
0
30
0
70
128
71
20
72
19
73
2
0
VERTEX
8
OBJECT__52
10
0
20
0
30
0
70
128
71
19
72
26
73
3
0
VERTEX
8
OBJECT__52
10
0
20
0
30
0
70
128
71
16
72
27
73
18
0
VERTEX
8
OBJECT__52
10
0
20
0
30
0
70
128
71
17
72
27
73
16
0
VERTEX
8
OBJECT__52
10
0
20
0
30
0
70
128
71
13
72
28
73
14
0
VERTEX
8
OBJECT__52
10
0
20
0
30
0
70
128
71
12
72
28
73
13
0
VERTEX
8
OBJECT__52
10
0
20
0
30
0
70
128
71
10
72
11
73
9
0
VERTEX
8
OBJECT__52
10
0
20
0
30
0
70
128
71
8
72
5
73
6
0
VERTEX
8
OBJECT__52
10
0
20
0
30
0
70
128
71
4
72
6
73
5
0
VERTEX
8
OBJECT__52
10
0
20
0
30
0
70
128
71
3
72
18
73
1
0
SEQEND
8
OBJECT__52
0
POLYLINE
8
OBJECT__53
66
1
70
64
71
8
72
6
62
253
0
VERTEX
8
OBJECT__53
10
57.292999
20
47.457001
30
196.082001
70
192
0
VERTEX
8
OBJECT__53
10
38.514999
20
55.235001
30
196.082001
70
192
0
VERTEX
8
OBJECT__53
10
46.292999
20
58.457001
30
196.082001
70
192
0
VERTEX
8
OBJECT__53
10
35.292999
20
47.457001
30
196.082001
70
192
0
VERTEX
8
OBJECT__53
10
54.070999
20
39.679001
30
196.082001
70
192
0
VERTEX
8
OBJECT__53
10
46.292999
20
36.457001
30
196.082001
70
192
0
VERTEX
8
OBJECT__53
10
38.514999
20
39.679001
30
196.082001
70
192
0
VERTEX
8
OBJECT__53
10
54.070999
20
55.235001
30
196.082001
70
192
0
VERTEX
8
OBJECT__53
10
0
20
0
30
0
70
128
71
1
72
2
73
3
0
VERTEX
8
OBJECT__53
10
0
20
0
30
0
70
128
71
4
72
5
73
6
0
VERTEX
8
OBJECT__53
10
0
20
0
30
0
70
128
71
1
72
4
73
2
0
VERTEX
8
OBJECT__53
10
0
20
0
30
0
70
128
71
4
72
1
73
5
0
VERTEX
8
OBJECT__53
10
0
20
0
30
0
70
128
71
6
72
7
73
4
0
VERTEX
8
OBJECT__53
10
0
20
0
30
0
70
128
71
3
72
8
73
1
0
SEQEND
8
OBJECT__53
0
POLYLINE
8
OBJECT__54
66
1
70
64
71
12
72
12
62
253
0
VERTEX
8
OBJECT__54
10
35.901001
20
-26.193001
30
506.000000
70
192
0
VERTEX
8
OBJECT__54
10
46.292999
20
-26.193001
30
512.000000
70
192
0
VERTEX
8
OBJECT__54
10
46.292999
20
-17.693001
30
512.000000
70
192
0
VERTEX
8
OBJECT__54
10
35.901001
20
-26.193001
30
494.000000
70
192
0
VERTEX
8
OBJECT__54
10
35.901001
20
-17.693001
30
506.000000
70
192
0
VERTEX
8
OBJECT__54
10
46.292999
20
-26.193001
30
488.000000
70
192
0
VERTEX
8
OBJECT__54
10
35.901001
20
-17.693001
30
494.000000
70
192
0
VERTEX
8
OBJECT__54
10
56.685001
20
-17.693001
30
494.000000
70
192
0
VERTEX
8
OBJECT__54
10
56.685001
20
-26.193001
30
494.000000
70
192
0
VERTEX
8
OBJECT__54
10
56.685001
20
-17.693001
30
506.000000
70
192
0
VERTEX
8
OBJECT__54
10
56.685001
20
-26.193001
30
506.000000
70
192
0
VERTEX
8
OBJECT__54
10
46.292999
20
-17.693001
30
488.000000
70
192
0
VERTEX
8
OBJECT__54
10
0
20
0
30
0
70
128
71
1
72
2
73
3
0
VERTEX
8
OBJECT__54
10
0
20
0
30
0
70
128
71
4
72
1
73
5
0
VERTEX
8
OBJECT__54
10
0
20
0
30
0
70
128
71
6
72
4
73
7
0
VERTEX
8
OBJECT__54
10
0
20
0
30
0
70
128
71
8
72
9
73
6
0
VERTEX
8
OBJECT__54
10
0
20
0
30
0
70
128
71
10
72
11
73
9
0
VERTEX
8
OBJECT__54
10
0
20
0
30
0
70
128
71
3
72
2
73
11
0
VERTEX
8
OBJECT__54
10
0
20
0
30
0
70
128
71
11
72
10
73
3
0
VERTEX
8
OBJECT__54
10
0
20
0
30
0
70
128
71
9
72
8
73
10
0
VERTEX
8
OBJECT__54
10
0
20
0
30
0
70
128
71
6
72
12
73
8
0
VERTEX
8
OBJECT__54
10
0
20
0
30
0
70
128
71
7
72
12
73
6
0
VERTEX
8
OBJECT__54
10
0
20
0
30
0
70
128
71
5
72
7
73
4
0
VERTEX
8
OBJECT__54
10
0
20
0
30
0
70
128
71
3
72
5
73
1
0
SEQEND
8
OBJECT__54
0
POLYLINE
8
OBJECT__55
66
1
70
64
71
13
72
13
62
253
0
VERTEX
8
OBJECT__55
10
38.483002
20
-17.693001
30
483.782990
70
192
0
VERTEX
8
OBJECT__55
10
46.292999
20
-17.693001
30
488.000000
70
192
0
VERTEX
8
OBJECT__55
10
35.901001
20
-17.693001
30
494.000000
70
192
0
VERTEX
8
OBJECT__55
10
60.366001
20
-17.693001
30
511.222992
70
192
0
VERTEX
8
OBJECT__55
10
46.292999
20
-17.693001
30
518.000000
70
192
0
VERTEX
8
OBJECT__55
10
46.292999
20
-17.693001
30
512.000000
70
192
0
VERTEX
8
OBJECT__55
10
32.220001
20
-17.693001
30
511.222992
70
192
0
VERTEX
8
OBJECT__55
10
35.901001
20
-17.693001
30
506.000000
70
192
0
VERTEX
8
OBJECT__55
10
28.743999
20
-17.693001
30
495.994995
70
192
0
VERTEX
8
OBJECT__55
10
54.103001
20
-17.693001
30
483.782990
70
192
0
VERTEX
8
OBJECT__55
10
63.841999
20
-17.693001
30
495.994995
70
192
0
VERTEX
8
OBJECT__55
10
56.685001
20
-17.693001
30
494.000000
70
192
0
VERTEX
8
OBJECT__55
10
56.685001
20
-17.693001
30
506.000000
70
192
0
VERTEX
8
OBJECT__55
10
0
20
0
30
0
70
128
71
1
72
2
73
3
0
VERTEX
8
OBJECT__55
10
0
20
0
30
0
70
128
71
4
72
5
73
6
0
VERTEX
8
OBJECT__55
10
0
20
0
30
0
70
128
71
7
72
8
73
6
0
VERTEX
8
OBJECT__55
10
0
20
0
30
0
70
128
71
9
72
3
73
8
0
VERTEX
8
OBJECT__55
10
0
20
0
30
0
70
128
71
1
72
10
73
2
0
VERTEX
8
OBJECT__55
10
0
20
0
30
0
70
128
71
10
72
11
73
12
0
VERTEX
8
OBJECT__55
10
0
20
0
30
0
70
128
71
11
72
4
73
13
0
VERTEX
8
OBJECT__55
10
0
20
0
30
0
70
128
71
6
72
5
73
7
0
VERTEX
8
OBJECT__55
10
0
20
0
30
0
70
128
71
3
72
9
73
1
0
VERTEX
8
OBJECT__55
10
0
20
0
30
0
70
128
71
13
72
12
73
11
0
VERTEX
8
OBJECT__55
10
0
20
0
30
0
70
128
71
8
72
7
73
9
0
VERTEX
8
OBJECT__55
10
0
20
0
30
0
70
128
71
6
72
13
73
4
0
VERTEX
8
OBJECT__55
10
0
20
0
30
0
70
128
71
12
72
2
73
10
0
SEQEND
8
OBJECT__55
0
POLYLINE
8
OBJECT__57
66
1
70
64
71
14
72
14
62
253
0
VERTEX
8
OBJECT__57
10
32.220001
20
14.307000
30
511.222992
70
192
0
VERTEX
8
OBJECT__57
10
32.220001
20
-17.693001
30
511.222992
70
192
0
VERTEX
8
OBJECT__57
10
46.292999
20
-17.693001
30
518.000000
70
192
0
VERTEX
8
OBJECT__57
10
28.743999
20
14.307000
30
495.994995
70
192
0
VERTEX
8
OBJECT__57
10
28.743999
20
-17.693001
30
495.994995
70
192
0
VERTEX
8
OBJECT__57
10
38.483002
20
14.307000
30
483.782990
70
192
0
VERTEX
8
OBJECT__57
10
38.483002
20
-17.693001
30
483.782990
70
192
0
VERTEX
8
OBJECT__57
10
54.103001
20
14.307000
30
483.782990
70
192
0
VERTEX
8
OBJECT__57
10
54.103001
20
-17.693001
30
483.782990
70
192
0
VERTEX
8
OBJECT__57
10
63.841999
20
-17.693001
30
495.994995
70
192
0
VERTEX
8
OBJECT__57
10
60.366001
20
-17.693001
30
511.222992
70
192
0
VERTEX
8
OBJECT__57
10
63.841999
20
14.307000
30
495.994995
70
192
0
VERTEX
8
OBJECT__57
10
60.366001
20
14.307000
30
511.222992
70
192
0
VERTEX
8
OBJECT__57
10
46.292999
20
14.307000
30
518.000000
70
192
0
VERTEX
8
OBJECT__57
10
0
20
0
30
0
70
128
71
1
72
2
73
3
0
VERTEX
8
OBJECT__57
10
0
20
0
30
0
70
128
71
4
72
5
73
2
0
VERTEX
8
OBJECT__57
10
0
20
0
30
0
70
128
71
6
72
7
73
5
0
VERTEX
8
OBJECT__57
10
0
20
0
30
0
70
128
71
8
72
9
73
7
0
VERTEX
8
OBJECT__57
10
0
20
0
30
0
70
128
71
10
72
9
73
8
0
VERTEX
8
OBJECT__57
10
0
20
0
30
0
70
128
71
11
72
10
73
12
0
VERTEX
8
OBJECT__57
10
0
20
0
30
0
70
128
71
3
72
11
73
13
0
VERTEX
8
OBJECT__57
10
0
20
0
30
0
70
128
71
13
72
14
73
3
0
VERTEX
8
OBJECT__57
10
0
20
0
30
0
70
128
71
12
72
13
73
11
0
VERTEX
8
OBJECT__57
10
0
20
0
30
0
70
128
71
8
72
12
73
10
0
VERTEX
8
OBJECT__57
10
0
20
0
30
0
70
128
71
7
72
6
73
8
0
VERTEX
8
OBJECT__57
10
0
20
0
30
0
70
128
71
5
72
4
73
6
0
VERTEX
8
OBJECT__57
10
0
20
0
30
0
70
128
71
2
72
1
73
4
0
VERTEX
8
OBJECT__57
10
0
20
0
30
0
70
128
71
3
72
14
73
1
0
SEQEND
8
OBJECT__57
0
POLYLINE
8
OBJECT__58
66
1
70
64
71
13
72
13
62
253
0
VERTEX
8
OBJECT__58
10
38.483002
20
14.307000
30
483.782990
70
192
0
VERTEX
8
OBJECT__58
10
28.743999
20
14.307000
30
495.994995
70
192
0
VERTEX
8
OBJECT__58
10
35.035000
20
14.307000
30
493.500000
70
192
0
VERTEX
8
OBJECT__58
10
63.841999
20
14.307000
30
495.994995
70
192
0
VERTEX
8
OBJECT__58
10
57.550999
20
14.307000
30
493.500000
70
192
0
VERTEX
8
OBJECT__58
10
57.550999
20
14.307000
30
506.500000
70
192
0
VERTEX
8
OBJECT__58
10
54.103001
20
14.307000
30
483.782990
70
192
0
VERTEX
8
OBJECT__58
10
46.292999
20
14.307000
30
487.000000
70
192
0
VERTEX
8
OBJECT__58
10
32.220001
20
14.307000
30
511.222992
70
192
0
VERTEX
8
OBJECT__58
10
35.035000
20
14.307000
30
506.500000
70
192
0
VERTEX
8
OBJECT__58
10
46.292999
20
14.307000
30
518.000000
70
192
0
VERTEX
8
OBJECT__58
10
46.292999
20
14.307000
30
513.000000
70
192
0
VERTEX
8
OBJECT__58
10
60.366001
20
14.307000
30
511.222992
70
192
0
VERTEX
8
OBJECT__58
10
0
20
0
30
0
70
128
71
1
72
2
73
3
0
VERTEX
8
OBJECT__58
10
0
20
0
30
0
70
128
71
4
72
5
73
6
0
VERTEX
8
OBJECT__58
10
0
20
0
30
0
70
128
71
7
72
8
73
5
0
VERTEX
8
OBJECT__58
10
0
20
0
30
0
70
128
71
3
72
8
73
1
0
VERTEX
8
OBJECT__58
10
0
20
0
30
0
70
128
71
2
72
9
73
10
0
VERTEX
8
OBJECT__58
10
0
20
0
30
0
70
128
71
5
72
4
73
7
0
VERTEX
8
OBJECT__58
10
0
20
0
30
0
70
128
71
10
72
3
73
2
0
VERTEX
8
OBJECT__58
10
0
20
0
30
0
70
128
71
9
72
11
73
12
0
VERTEX
8
OBJECT__58
10
0
20
0
30
0
70
128
71
6
72
13
73
4
0
VERTEX
8
OBJECT__58
10
0
20
0
30
0
70
128
71
12
72
10
73
9
0
VERTEX
8
OBJECT__58
10
0
20
0
30
0
70
128
71
8
72
7
73
1
0
VERTEX
8
OBJECT__58
10
0
20
0
30
0
70
128
71
6
72
12
73
13
0
VERTEX
8
OBJECT__58
10
0
20
0
30
0
70
128
71
12
72
11
73
13
0
SEQEND
8
OBJECT__58
0
POLYLINE
8
OBJECT__59
66
1
70
64
71
12
72
12
62
253
0
VERTEX
8
OBJECT__59
10
35.035000
20
14.307000
30
506.500000
70
192
0
VERTEX
8
OBJECT__59
10
46.292999
20
14.307000
30
513.000000
70
192
0
VERTEX
8
OBJECT__59
10
46.292999
20
15.307000
30
513.000000
70
192
0
VERTEX
8
OBJECT__59
10
35.035000
20
14.307000
30
493.500000
70
192
0
VERTEX
8
OBJECT__59
10
35.035000
20
15.307000
30
506.500000
70
192
0
VERTEX
8
OBJECT__59
10
46.292999
20
14.307000
30
487.000000
70
192
0
VERTEX
8
OBJECT__59
10
35.035000
20
15.307000
30
493.500000
70
192
0
VERTEX
8
OBJECT__59
10
57.550999
20
15.307000
30
493.500000
70
192
0
VERTEX
8
OBJECT__59
10
57.550999
20
14.307000
30
493.500000
70
192
0
VERTEX
8
OBJECT__59
10
57.550999
20
15.307000
30
506.500000
70
192
0
VERTEX
8
OBJECT__59
10
57.550999
20
14.307000
30
506.500000
70
192
0
VERTEX
8
OBJECT__59
10
46.292999
20
15.307000
30
487.000000
70
192
0
VERTEX
8
OBJECT__59
10
0
20
0
30
0
70
128
71
1
72
2
73
3
0
VERTEX
8
OBJECT__59
10
0
20
0
30
0
70
128
71
4
72
1
73
5
0
VERTEX
8
OBJECT__59
10
0
20
0
30
0
70
128
71
6
72
4
73
7
0
VERTEX
8
OBJECT__59
10
0
20
0
30
0
70
128
71
8
72
9
73
6
0
VERTEX
8
OBJECT__59
10
0
20
0
30
0
70
128
71
10
72
11
73
9
0
VERTEX
8
OBJECT__59
10
0
20
0
30
0
70
128
71
3
72
2
73
11
0
VERTEX
8
OBJECT__59
10
0
20
0
30
0
70
128
71
11
72
10
73
3
0
VERTEX
8
OBJECT__59
10
0
20
0
30
0
70
128
71
9
72
8
73
10
0
VERTEX
8
OBJECT__59
10
0
20
0
30
0
70
128
71
6
72
12
73
8
0
VERTEX
8
OBJECT__59
10
0
20
0
30
0
70
128
71
7
72
12
73
6
0
VERTEX
8
OBJECT__59
10
0
20
0
30
0
70
128
71
5
72
7
73
4
0
VERTEX
8
OBJECT__59
10
0
20
0
30
0
70
128
71
3
72
5
73
1
0
SEQEND
8
OBJECT__59
0
POLYLINE
8
OBJECT__60
66
1
70
64
71
6
72
4
62
253
0
VERTEX
8
OBJECT__60
10
58.292999
20
47.457001
30
522.000000
70
192
0
VERTEX
8
OBJECT__60
10
34.292999
20
47.457001
30
522.000000
70
192
0
VERTEX
8
OBJECT__60
10
40.292999
20
57.848999
30
522.000000
70
192
0
VERTEX
8
OBJECT__60
10
52.292999
20
37.064999
30
522.000000
70
192
0
VERTEX
8
OBJECT__60
10
40.292999
20
37.064999
30
522.000000
70
192
0
VERTEX
8
OBJECT__60
10
52.292999
20
57.848999
30
522.000000
70
192
0
VERTEX
8
OBJECT__60
10
0
20
0
30
0
70
128
71
1
72
2
73
3
0
VERTEX
8
OBJECT__60
10
0
20
0
30
0
70
128
71
1
72
4
73
5
0
VERTEX
8
OBJECT__60
10
0
20
0
30
0
70
128
71
5
72
2
73
1
0
VERTEX
8
OBJECT__60
10
0
20
0
30
0
70
128
71
3
72
6
73
1
0
SEQEND
8
OBJECT__60
0
POLYLINE
8
OBJECT__61
66
1
70
64
71
12
72
12
62
253
0
VERTEX
8
OBJECT__61
10
52.292999
20
37.064999
30
652.000000
70
192
0
VERTEX
8
OBJECT__61
10
52.292999
20
37.064999
30
522.000000
70
192
0
VERTEX
8
OBJECT__61
10
58.292999
20
47.457001
30
522.000000
70
192
0
VERTEX
8
OBJECT__61
10
40.292999
20
37.064999
30
652.000000
70
192
0
VERTEX
8
OBJECT__61
10
40.292999
20
37.064999
30
522.000000
70
192
0
VERTEX
8
OBJECT__61
10
34.292999
20
47.457001
30
652.000000
70
192
0
VERTEX
8
OBJECT__61
10
34.292999
20
47.457001
30
522.000000
70
192
0
VERTEX
8
OBJECT__61
10
40.292999
20
57.848999
30
652.000000
70
192
0
VERTEX
8
OBJECT__61
10
40.292999
20
57.848999
30
522.000000
70
192
0
VERTEX
8
OBJECT__61
10
52.292999
20
57.848999
30
652.000000
70
192
0
VERTEX
8
OBJECT__61
10
52.292999
20
57.848999
30
522.000000
70
192
0
VERTEX
8
OBJECT__61
10
58.292999
20
47.457001
30
652.000000
70
192
0
VERTEX
8
OBJECT__61
10
0
20
0
30
0
70
128
71
1
72
2
73
3
0
VERTEX
8
OBJECT__61
10
0
20
0
30
0
70
128
71
4
72
5
73
2
0
VERTEX
8
OBJECT__61
10
0
20
0
30
0
70
128
71
6
72
7
73
5
0
VERTEX
8
OBJECT__61
10
0
20
0
30
0
70
128
71
8
72
9
73
7
0
VERTEX
8
OBJECT__61
10
0
20
0
30
0
70
128
71
10
72
11
73
9
0
VERTEX
8
OBJECT__61
10
0
20
0
30
0
70
128
71
12
72
3
73
11
0
VERTEX
8
OBJECT__61
10
0
20
0
30
0
70
128
71
11
72
10
73
12
0
VERTEX
8
OBJECT__61
10
0
20
0
30
0
70
128
71
9
72
8
73
10
0
VERTEX
8
OBJECT__61
10
0
20
0
30
0
70
128
71
7
72
6
73
8
0
VERTEX
8
OBJECT__61
10
0
20
0
30
0
70
128
71
5
72
4
73
6
0
VERTEX
8
OBJECT__61
10
0
20
0
30
0
70
128
71
2
72
1
73
4
0
VERTEX
8
OBJECT__61
10
0
20
0
30
0
70
128
71
3
72
12
73
1
0
SEQEND
8
OBJECT__61
0
POLYLINE
8
OBJECT__63
66
1
70
64
71
12
72
12
62
253
0
VERTEX
8
OBJECT__63
10
30.292999
20
47.457001
30
652.000000
70
192
0
VERTEX
8
OBJECT__63
10
38.292999
20
61.313999
30
652.000000
70
192
0
VERTEX
8
OBJECT__63
10
40.292999
20
57.848999
30
652.000000
70
192
0
VERTEX
8
OBJECT__63
10
54.292999
20
61.313999
30
652.000000
70
192
0
VERTEX
8
OBJECT__63
10
52.292999
20
57.848999
30
652.000000
70
192
0
VERTEX
8
OBJECT__63
10
62.292999
20
47.457001
30
652.000000
70
192
0
VERTEX
8
OBJECT__63
10
54.292999
20
33.601002
30
652.000000
70
192
0
VERTEX
8
OBJECT__63
10
52.292999
20
37.064999
30
652.000000
70
192
0
VERTEX
8
OBJECT__63
10
38.292999
20
33.601002
30
652.000000
70
192
0
VERTEX
8
OBJECT__63
10
40.292999
20
37.064999
30
652.000000
70
192
0
VERTEX
8
OBJECT__63
10
58.292999
20
47.457001
30
652.000000
70
192
0
VERTEX
8
OBJECT__63
10
34.292999
20
47.457001
30
652.000000
70
192
0
VERTEX
8
OBJECT__63
10
0
20
0
30
0
70
128
71
1
72
2
73
3
0
VERTEX
8
OBJECT__63
10
0
20
0
30
0
70
128
71
2
72
4
73
5
0
VERTEX
8
OBJECT__63
10
0
20
0
30
0
70
128
71
6
72
7
73
8
0
VERTEX
8
OBJECT__63
10
0
20
0
30
0
70
128
71
9
72
10
73
8
0
VERTEX
8
OBJECT__63
10
0
20
0
30
0
70
128
71
5
72
3
73
2
0
VERTEX
8
OBJECT__63
10
0
20
0
30
0
70
128
71
4
72
6
73
11
0
VERTEX
8
OBJECT__63
10
0
20
0
30
0
70
128
71
8
72
7
73
9
0
VERTEX
8
OBJECT__63
10
0
20
0
30
0
70
128
71
9
72
1
73
12
0
VERTEX
8
OBJECT__63
10
0
20
0
30
0
70
128
71
11
72
5
73
4
0
VERTEX
8
OBJECT__63
10
0
20
0
30
0
70
128
71
12
72
10
73
9
0
VERTEX
8
OBJECT__63
10
0
20
0
30
0
70
128
71
8
72
11
73
6
0
VERTEX
8
OBJECT__63
10
0
20
0
30
0
70
128
71
3
72
12
73
1
0
SEQEND
8
OBJECT__63
0
POLYLINE
8
OBJECT__64
66
1
70
64
71
12
72
12
62
253
0
VERTEX
8
OBJECT__64
10
54.292999
20
33.601002
30
727.000000
70
192
0
VERTEX
8
OBJECT__64
10
54.292999
20
33.601002
30
652.000000
70
192
0
VERTEX
8
OBJECT__64
10
62.292999
20
47.457001
30
652.000000
70
192
0
VERTEX
8
OBJECT__64
10
38.292999
20
33.601002
30
727.000000
70
192
0
VERTEX
8
OBJECT__64
10
38.292999
20
33.601002
30
652.000000
70
192
0
VERTEX
8
OBJECT__64
10
30.292999
20
47.457001
30
727.000000
70
192
0
VERTEX
8
OBJECT__64
10
30.292999
20
47.457001
30
652.000000
70
192
0
VERTEX
8
OBJECT__64
10
38.292999
20
61.313999
30
727.000000
70
192
0
VERTEX
8
OBJECT__64
10
38.292999
20
61.313999
30
652.000000
70
192
0
VERTEX
8
OBJECT__64
10
54.292999
20
61.313999
30
727.000000
70
192
0
VERTEX
8
OBJECT__64
10
54.292999
20
61.313999
30
652.000000
70
192
0
VERTEX
8
OBJECT__64
10
62.292999
20
47.457001
30
727.000000
70
192
0
VERTEX
8
OBJECT__64
10
0
20
0
30
0
70
128
71
1
72
2
73
3
0
VERTEX
8
OBJECT__64
10
0
20
0
30
0
70
128
71
4
72
5
73
2
0
VERTEX
8
OBJECT__64
10
0
20
0
30
0
70
128
71
6
72
7
73
5
0
VERTEX
8
OBJECT__64
10
0
20
0
30
0
70
128
71
8
72
9
73
7
0
VERTEX
8
OBJECT__64
10
0
20
0
30
0
70
128
71
10
72
11
73
9
0
VERTEX
8
OBJECT__64
10
0
20
0
30
0
70
128
71
12
72
3
73
11
0
VERTEX
8
OBJECT__64
10
0
20
0
30
0
70
128
71
11
72
10
73
12
0
VERTEX
8
OBJECT__64
10
0
20
0
30
0
70
128
71
9
72
8
73
10
0
VERTEX
8
OBJECT__64
10
0
20
0
30
0
70
128
71
7
72
6
73
8
0
VERTEX
8
OBJECT__64
10
0
20
0
30
0
70
128
71
5
72
4
73
6
0
VERTEX
8
OBJECT__64
10
0
20
0
30
0
70
128
71
2
72
1
73
4
0
VERTEX
8
OBJECT__64
10
0
20
0
30
0
70
128
71
3
72
12
73
1
0
SEQEND
8
OBJECT__64
0
POLYLINE
8
OBJECT__65
66
1
70
64
71
6
72
4
62
253
0
VERTEX
8
OBJECT__65
10
38.292999
20
33.601002
30
727.000000
70
192
0
VERTEX
8
OBJECT__65
10
54.292999
20
61.313999
30
727.000000
70
192
0
VERTEX
8
OBJECT__65
10
38.292999
20
61.313999
30
727.000000
70
192
0
VERTEX
8
OBJECT__65
10
54.292999
20
33.601002
30
727.000000
70
192
0
VERTEX
8
OBJECT__65
10
62.292999
20
47.457001
30
727.000000
70
192
0
VERTEX
8
OBJECT__65
10
30.292999
20
47.457001
30
727.000000
70
192
0
VERTEX
8
OBJECT__65
10
0
20
0
30
0
70
128
71
1
72
2
73
3
0
VERTEX
8
OBJECT__65
10
0
20
0
30
0
70
128
71
1
72
4
73
5
0
VERTEX
8
OBJECT__65
10
0
20
0
30
0
70
128
71
5
72
2
73
1
0
VERTEX
8
OBJECT__65
10
0
20
0
30
0
70
128
71
3
72
6
73
1
0
SEQEND
8
OBJECT__65
0
POLYLINE
8
OBJECT__66
66
1
70
64
71
7
72
5
62
253
0
VERTEX
8
OBJECT__66
10
1.293000
20
-20.613001
30
929.112000
70
192
0
VERTEX
8
OBJECT__66
10
1.293000
20
-6.366000
30
940.473022
70
192
0
VERTEX
8
OBJECT__66
10
1.293000
20
11.400000
30
936.418030
70
192
0
VERTEX
8
OBJECT__66
10
1.293000
20
19.306999
30
920.000000
70
192
0
VERTEX
8
OBJECT__66
10
1.293000
20
-20.613001
30
910.888000
70
192
0
VERTEX
8
OBJECT__66
10
1.293000
20
11.400000
30
903.581970
70
192
0
VERTEX
8
OBJECT__66
10
1.293000
20
-6.366000
30
899.526978
70
192
0
VERTEX
8
OBJECT__66
10
0
20
0
30
0
70
128
71
1
72
2
73
3
0
VERTEX
8
OBJECT__66
10
0
20
0
30
0
70
128
71
4
72
5
73
1
0
VERTEX
8
OBJECT__66
10
0
20
0
30
0
70
128
71
5
72
4
73
6
0
VERTEX
8
OBJECT__66
10
0
20
0
30
0
70
128
71
6
72
7
73
5
0
VERTEX
8
OBJECT__66
10
0
20
0
30
0
70
128
71
3
72
4
73
1
0
SEQEND
8
OBJECT__66
0
POLYLINE
8
OBJECT__67
66
1
70
64
71
14
72
14
62
253
0
VERTEX
8
OBJECT__67
10
1.293000
20
19.306999
30
920.000000
70
192
0
VERTEX
8
OBJECT__67
10
7.793000
20
19.250000
30
920.000000
70
192
0
VERTEX
8
OBJECT__67
10
7.793000
20
11.365000
30
903.625977
70
192
0
VERTEX
8
OBJECT__67
10
1.293000
20
11.400000
30
903.581970
70
192
0
VERTEX
8
OBJECT__67
10
7.793000
20
-6.353000
30
899.581970
70
192
0
VERTEX
8
OBJECT__67
10
1.293000
20
-6.366000
30
899.526978
70
192
0
VERTEX
8
OBJECT__67
10
7.793000
20
-20.562000
30
910.913025
70
192
0
VERTEX
8
OBJECT__67
10
1.293000
20
-20.613001
30
929.112000
70
192
0
VERTEX
8
OBJECT__67
10
1.293000
20
-20.613001
30
910.888000
70
192
0
VERTEX
8
OBJECT__67
10
1.293000
20
-6.366000
30
940.473022
70
192
0
VERTEX
8
OBJECT__67
10
7.793000
20
-20.562000
30
929.086975
70
192
0
VERTEX
8
OBJECT__67
10
1.293000
20
11.400000
30
936.418030
70
192
0
VERTEX
8
OBJECT__67
10
7.793000
20
-6.353000
30
940.418030
70
192
0
VERTEX
8
OBJECT__67
10
7.793000
20
11.365000
30
936.374023
70
192
0
VERTEX
8
OBJECT__67
10
0
20
0
30
0
70
128
71
1
72
2
73
3
0
VERTEX
8
OBJECT__67
10
0
20
0
30
0
70
128
71
4
72
3
73
5
0
VERTEX
8
OBJECT__67
10
0
20
0
30
0
70
128
71
6
72
5
73
7
0
VERTEX
8
OBJECT__67
10
0
20
0
30
0
70
128
71
8
72
9
73
7
0
VERTEX
8
OBJECT__67
10
0
20
0
30
0
70
128
71
10
72
8
73
11
0
VERTEX
8
OBJECT__67
10
0
20
0
30
0
70
128
71
12
72
10
73
13
0
VERTEX
8
OBJECT__67
10
0
20
0
30
0
70
128
71
1
72
12
73
14
0
VERTEX
8
OBJECT__67
10
0
20
0
30
0
70
128
71
14
72
2
73
1
0
VERTEX
8
OBJECT__67
10
0
20
0
30
0
70
128
71
13
72
14
73
12
0
VERTEX
8
OBJECT__67
10
0
20
0
30
0
70
128
71
11
72
13
73
10
0
VERTEX
8
OBJECT__67
10
0
20
0
30
0
70
128
71
7
72
11
73
8
0
VERTEX
8
OBJECT__67
10
0
20
0
30
0
70
128
71
7
72
9
73
6
0
VERTEX
8
OBJECT__67
10
0
20
0
30
0
70
128
71
5
72
6
73
4
0
VERTEX
8
OBJECT__67
10
0
20
0
30
0
70
128
71
3
72
4
73
1
0
SEQEND
8
OBJECT__67
0
POLYLINE
8
OBJECT__69
66
1
70
64
71
14
72
14
62
253
0
VERTEX
8
OBJECT__69
10
7.793000
20
11.365000
30
903.625977
70
192
0
VERTEX
8
OBJECT__69
10
7.793000
20
19.250000
30
920.000000
70
192
0
VERTEX
8
OBJECT__69
10
7.793000
20
15.807000
30
920.000000
70
192
0
VERTEX
8
OBJECT__69
10
7.793000
20
-6.353000
30
940.418030
70
192
0
VERTEX
8
OBJECT__69
10
7.793000
20
-5.587000
30
937.060974
70
192
0
VERTEX
8
OBJECT__69
10
7.793000
20
9.218000
30
933.682007
70
192
0
VERTEX
8
OBJECT__69
10
7.793000
20
-20.562000
30
929.086975
70
192
0
VERTEX
8
OBJECT__69
10
7.793000
20
-17.459999
30
927.593018
70
192
0
VERTEX
8
OBJECT__69
10
7.793000
20
-20.562000
30
910.913025
70
192
0
VERTEX
8
OBJECT__69
10
7.793000
20
-17.459999
30
912.406982
70
192
0
VERTEX
8
OBJECT__69
10
7.793000
20
-6.353000
30
899.581970
70
192
0
VERTEX
8
OBJECT__69
10
7.793000
20
-5.587000
30
902.939026
70
192
0
VERTEX
8
OBJECT__69
10
7.793000
20
9.218000
30
906.317993
70
192
0
VERTEX
8
OBJECT__69
10
7.793000
20
11.365000
30
936.374023
70
192
0
VERTEX
8
OBJECT__69
10
0
20
0
30
0
70
128
71
1
72
2
73
3
0
VERTEX
8
OBJECT__69
10
0
20
0
30
0
70
128
71
4
72
5
73
6
0
VERTEX
8
OBJECT__69
10
0
20
0
30
0
70
128
71
4
72
7
73
8
0
VERTEX
8
OBJECT__69
10
0
20
0
30
0
70
128
71
7
72
9
73
10
0
VERTEX
8
OBJECT__69
10
0
20
0
30
0
70
128
71
9
72
11
73
12
0
VERTEX
8
OBJECT__69
10
0
20
0
30
0
70
128
71
3
72
13
73
1
0
VERTEX
8
OBJECT__69
10
0
20
0
30
0
70
128
71
14
72
6
73
3
0
VERTEX
8
OBJECT__69
10
0
20
0
30
0
70
128
71
8
72
5
73
4
0
VERTEX
8
OBJECT__69
10
0
20
0
30
0
70
128
71
12
72
10
73
9
0
VERTEX
8
OBJECT__69
10
0
20
0
30
0
70
128
71
3
72
2
73
14
0
VERTEX
8
OBJECT__69
10
0
20
0
30
0
70
128
71
10
72
8
73
7
0
VERTEX
8
OBJECT__69
10
0
20
0
30
0
70
128
71
6
72
14
73
4
0
VERTEX
8
OBJECT__69
10
0
20
0
30
0
70
128
71
13
72
12
73
1
0
VERTEX
8
OBJECT__69
10
0
20
0
30
0
70
128
71
12
72
11
73
1
0
SEQEND
8
OBJECT__69
0
POLYLINE
8
OBJECT__70
66
1
70
64
71
14
72
14
62
253
0
VERTEX
8
OBJECT__70
10
7.793000
20
9.218000
30
906.317993
70
192
0
VERTEX
8
OBJECT__70
10
7.793000
20
15.807000
30
920.000000
70
192
0
VERTEX
8
OBJECT__70
10
11.293000
20
15.777000
30
920.000000
70
192
0
VERTEX
8
OBJECT__70
10
11.293000
20
9.199000
30
906.341980
70
192
0
VERTEX
8
OBJECT__70
10
11.293000
20
-5.580000
30
902.968994
70
192
0
VERTEX
8
OBJECT__70
10
7.793000
20
-17.459999
30
912.406982
70
192
0
VERTEX
8
OBJECT__70
10
7.793000
20
-5.587000
30
902.939026
70
192
0
VERTEX
8
OBJECT__70
10
7.793000
20
-17.459999
30
927.593018
70
192
0
VERTEX
8
OBJECT__70
10
11.293000
20
-17.431999
30
912.419983
70
192
0
VERTEX
8
OBJECT__70
10
11.293000
20
-17.431999
30
927.580017
70
192
0
VERTEX
8
OBJECT__70
10
11.293000
20
-5.580000
30
937.031006
70
192
0
VERTEX
8
OBJECT__70
10
7.793000
20
9.218000
30
933.682007
70
192
0
VERTEX
8
OBJECT__70
10
7.793000
20
-5.587000
30
937.060974
70
192
0
VERTEX
8
OBJECT__70
10
11.293000
20
9.199000
30
933.658020
70
192
0
VERTEX
8
OBJECT__70
10
0
20
0
30
0
70
128
71
1
72
2
73
3
0
VERTEX
8
OBJECT__70
10
0
20
0
30
0
70
128
71
1
72
4
73
5
0
VERTEX
8
OBJECT__70
10
0
20
0
30
0
70
128
71
6
72
7
73
5
0
VERTEX
8
OBJECT__70
10
0
20
0
30
0
70
128
71
8
72
6
73
9
0
VERTEX
8
OBJECT__70
10
0
20
0
30
0
70
128
71
8
72
10
73
11
0
VERTEX
8
OBJECT__70
10
0
20
0
30
0
70
128
71
12
72
13
73
11
0
VERTEX
8
OBJECT__70
10
0
20
0
30
0
70
128
71
12
72
14
73
3
0
VERTEX
8
OBJECT__70
10
0
20
0
30
0
70
128
71
3
72
2
73
12
0
VERTEX
8
OBJECT__70
10
0
20
0
30
0
70
128
71
11
72
14
73
12
0
VERTEX
8
OBJECT__70
10
0
20
0
30
0
70
128
71
11
72
13
73
8
0
VERTEX
8
OBJECT__70
10
0
20
0
30
0
70
128
71
9
72
10
73
8
0
VERTEX
8
OBJECT__70
10
0
20
0
30
0
70
128
71
5
72
9
73
6
0
VERTEX
8
OBJECT__70
10
0
20
0
30
0
70
128
71
5
72
7
73
1
0
VERTEX
8
OBJECT__70
10
0
20
0
30
0
70
128
71
3
72
4
73
1
0
SEQEND
8
OBJECT__70
0
POLYLINE
8
OBJECT__71
66
1
70
64
71
13
72
13
62
253
0
VERTEX
8
OBJECT__71
10
11.293000
20
-17.431999
30
912.419983
70
192
0
VERTEX
8
OBJECT__71
10
11.293000
20
-5.580000
30
902.968994
70
192
0
VERTEX
8
OBJECT__71
10
11.293000
20
-7.943000
30
909.174988
70
192
0
VERTEX
8
OBJECT__71
10
11.293000
20
9.199000
30
933.658020
70
192
0
VERTEX
8
OBJECT__71
10
11.293000
20
4.557000
30
930.825012
70
192
0
VERTEX
8
OBJECT__71
10
11.293000
20
10.807000
30
920.000000
70
192
0
VERTEX
8
OBJECT__71
10
11.293000
20
-17.431999
30
927.580017
70
192
0
VERTEX
8
OBJECT__71
10
11.293000
20
-14.193000
30
920.000000
70
192
0
VERTEX
8
OBJECT__71
10
11.293000
20
-7.943000
30
930.825012
70
192
0
VERTEX
8
OBJECT__71
10
11.293000
20
15.777000
30
920.000000
70
192
0
VERTEX
8
OBJECT__71
10
11.293000
20
-5.580000
30
937.031006
70
192
0
VERTEX
8
OBJECT__71
10
11.293000
20
9.199000
30
906.341980
70
192
0
VERTEX
8
OBJECT__71
10
11.293000
20
4.557000
30
909.174988
70
192
0
VERTEX
8
OBJECT__71
10
0
20
0
30
0
70
128
71
1
72
2
73
3
0
VERTEX
8
OBJECT__71
10
0
20
0
30
0
70
128
71
4
72
5
73
6
0
VERTEX
8
OBJECT__71
10
0
20
0
30
0
70
128
71
7
72
8
73
9
0
VERTEX
8
OBJECT__71
10
0
20
0
30
0
70
128
71
3
72
8
73
1
0
VERTEX
8
OBJECT__71
10
0
20
0
30
0
70
128
71
6
72
10
73
4
0
VERTEX
8
OBJECT__71
10
0
20
0
30
0
70
128
71
11
72
9
73
5
0
VERTEX
8
OBJECT__71
10
0
20
0
30
0
70
128
71
8
72
7
73
1
0
VERTEX
8
OBJECT__71
10
0
20
0
30
0
70
128
71
2
72
12
73
13
0
VERTEX
8
OBJECT__71
10
0
20
0
30
0
70
128
71
5
72
4
73
11
0
VERTEX
8
OBJECT__71
10
0
20
0
30
0
70
128
71
13
72
3
73
2
0
VERTEX
8
OBJECT__71
10
0
20
0
30
0
70
128
71
9
72
11
73
7
0
VERTEX
8
OBJECT__71
10
0
20
0
30
0
70
128
71
6
72
13
73
10
0
VERTEX
8
OBJECT__71
10
0
20
0
30
0
70
128
71
13
72
12
73
10
0
SEQEND
8
OBJECT__71
0
POLYLINE
8
OBJECT__72
66
1
70
64
71
12
72
12
62
253
0
VERTEX
8
OBJECT__72
10
11.293000
20
10.807000
30
920.000000
70
192
0
VERTEX
8
OBJECT__72
10
46.792999
20
10.497000
30
920.000000
70
192
0
VERTEX
8
OBJECT__72
10
46.792999
20
4.402000
30
909.442993
70
192
0
VERTEX
8
OBJECT__72
10
11.293000
20
4.557000
30
909.174988
70
192
0
VERTEX
8
OBJECT__72
10
46.792999
20
-7.788000
30
909.442993
70
192
0
VERTEX
8
OBJECT__72
10
11.293000
20
-14.193000
30
920.000000
70
192
0
VERTEX
8
OBJECT__72
10
11.293000
20
-7.943000
30
909.174988
70
192
0
VERTEX
8
OBJECT__72
10
46.792999
20
-13.883000
30
920.000000
70
192
0
VERTEX
8
OBJECT__72
10
46.792999
20
-7.788000
30
930.557007
70
192
0
VERTEX
8
OBJECT__72
10
11.293000
20
4.557000
30
930.825012
70
192
0
VERTEX
8
OBJECT__72
10
11.293000
20
-7.943000
30
930.825012
70
192
0
VERTEX
8
OBJECT__72
10
46.792999
20
4.402000
30
930.557007
70
192
0
VERTEX
8
OBJECT__72
10
0
20
0
30
0
70
128
71
1
72
2
73
3
0
VERTEX
8
OBJECT__72
10
0
20
0
30
0
70
128
71
4
72
3
73
5
0
VERTEX
8
OBJECT__72
10
0
20
0
30
0
70
128
71
6
72
7
73
5
0
VERTEX
8
OBJECT__72
10
0
20
0
30
0
70
128
71
6
72
8
73
9
0
VERTEX
8
OBJECT__72
10
0
20
0
30
0
70
128
71
10
72
11
73
9
0
VERTEX
8
OBJECT__72
10
0
20
0
30
0
70
128
71
1
72
10
73
12
0
VERTEX
8
OBJECT__72
10
0
20
0
30
0
70
128
71
12
72
2
73
1
0
VERTEX
8
OBJECT__72
10
0
20
0
30
0
70
128
71
9
72
12
73
10
0
VERTEX
8
OBJECT__72
10
0
20
0
30
0
70
128
71
9
72
11
73
6
0
VERTEX
8
OBJECT__72
10
0
20
0
30
0
70
128
71
5
72
8
73
6
0
VERTEX
8
OBJECT__72
10
0
20
0
30
0
70
128
71
5
72
7
73
4
0
VERTEX
8
OBJECT__72
10
0
20
0
30
0
70
128
71
3
72
4
73
1
0
SEQEND
8
OBJECT__72
0
POLYLINE
8
OBJECT__73
66
1
70
64
71
6
72
4
62
253
0
VERTEX
8
OBJECT__73
10
46.792999
20
-7.788000
30
909.442993
70
192
0
VERTEX
8
OBJECT__73
10
46.792999
20
4.402000
30
930.557007
70
192
0
VERTEX
8
OBJECT__73
10
46.792999
20
-7.788000
30
930.557007
70
192
0
VERTEX
8
OBJECT__73
10
46.792999
20
4.402000
30
909.442993
70
192
0
VERTEX
8
OBJECT__73
10
46.792999
20
10.497000
30
920.000000
70
192
0
VERTEX
8
OBJECT__73
10
46.792999
20
-13.883000
30
920.000000
70
192
0
VERTEX
8
OBJECT__73
10
0
20
0
30
0
70
128
71
1
72
2
73
3
0
VERTEX
8
OBJECT__73
10
0
20
0
30
0
70
128
71
2
72
1
73
4
0
VERTEX
8
OBJECT__73
10
0
20
0
30
0
70
128
71
4
72
5
73
2
0
VERTEX
8
OBJECT__73
10
0
20
0
30
0
70
128
71
3
72
6
73
1
0
SEQEND
8
OBJECT__73
0
ENDSEC
0
EOF
