999
Converted by 3D Exploration 
999
XDimension Software, LLC
999
http://www.xdsoft.com/explorer/
0
SECTION
2
HEADER
9
$ACADVER
1
AC1008
9
$UCSORG
10
0.0
20
0.0
30
0.0
9
$UCSXDIR
10
1.0
20
0.0
30
0.0
9
$TILEMODE
70
1
9
$UCSYDIR
10
0.0
20
1.0
30
0.0
9
$EXTMIN
10
-29.069000
20
-85.405998
30
-85.405998
9
$EXTMAX
10
163.882004
20
86.000000
30
236.468994
0
ENDSEC
0
SECTION
2
TABLES
0
TABLE
2
LTYPE
70
1
0
LTYPE
2
CONTINUOUS
70
64
3
Solid line
72
65
73
0
40
0.0
0
ENDTAB
0
TABLE
2
LAYER
70
66
0
LAYER
2
OBJECT__0
70
0
62
253
6
CONTINUOUS
0
LAYER
2
OBJECT__1
70
0
62
253
6
CONTINUOUS
0
LAYER
2
OBJECT__3
70
0
62
253
6
CONTINUOUS
0
LAYER
2
OBJECT__4
70
0
62
253
6
CONTINUOUS
0
LAYER
2
OBJECT__5
70
0
62
253
6
CONTINUOUS
0
LAYER
2
OBJECT__6
70
0
62
253
6
CONTINUOUS
0
LAYER
2
OBJECT__7
70
0
62
253
6
CONTINUOUS
0
LAYER
2
OBJECT__8
70
0
62
253
6
CONTINUOUS
0
LAYER
2
OBJECT__9
70
0
62
253
6
CONTINUOUS
0
LAYER
2
OBJECT__10
70
0
62
253
6
CONTINUOUS
0
LAYER
2
OBJECT__11
70
0
62
253
6
CONTINUOUS
0
LAYER
2
OBJECT__12
70
0
62
253
6
CONTINUOUS
0
LAYER
2
OBJECT__14
70
0
62
253
6
CONTINUOUS
0
LAYER
2
OBJECT__15
70
0
62
253
6
CONTINUOUS
0
LAYER
2
OBJECT__16
70
0
62
253
6
CONTINUOUS
0
LAYER
2
OBJECT__17
70
0
62
253
6
CONTINUOUS
0
LAYER
2
OBJECT__18
70
0
62
253
6
CONTINUOUS
0
LAYER
2
OBJECT__19
70
0
62
253
6
CONTINUOUS
0
LAYER
2
OBJECT__20
70
0
62
253
6
CONTINUOUS
0
LAYER
2
OBJECT__22
70
0
62
253
6
CONTINUOUS
0
LAYER
2
OBJECT__23
70
0
62
253
6
CONTINUOUS
0
LAYER
2
OBJECT__24
70
0
62
253
6
CONTINUOUS
0
LAYER
2
OBJECT__25
70
0
62
253
6
CONTINUOUS
0
LAYER
2
OBJECT__26
70
0
62
253
6
CONTINUOUS
0
LAYER
2
OBJECT__27
70
0
62
253
6
CONTINUOUS
0
LAYER
2
OBJECT__28
70
0
62
253
6
CONTINUOUS
0
LAYER
2
OBJECT__29
70
0
62
253
6
CONTINUOUS
0
LAYER
2
OBJECT__30
70
0
62
253
6
CONTINUOUS
0
LAYER
2
OBJECT__31
70
0
62
253
6
CONTINUOUS
0
LAYER
2
OBJECT__33
70
0
62
253
6
CONTINUOUS
0
LAYER
2
OBJECT__34
70
0
62
253
6
CONTINUOUS
0
LAYER
2
OBJECT__36
70
0
62
253
6
CONTINUOUS
0
LAYER
2
OBJECT__37
70
0
62
253
6
CONTINUOUS
0
LAYER
2
OBJECT__38
70
0
62
253
6
CONTINUOUS
0
LAYER
2
OBJECT__40
70
0
62
253
6
CONTINUOUS
0
LAYER
2
OBJECT__41
70
0
62
253
6
CONTINUOUS
0
LAYER
2
OBJECT__43
70
0
62
253
6
CONTINUOUS
0
LAYER
2
OBJECT__44
70
0
62
253
6
CONTINUOUS
0
LAYER
2
OBJECT__45
70
0
62
253
6
CONTINUOUS
0
LAYER
2
OBJECT__47
70
0
62
253
6
CONTINUOUS
0
LAYER
2
OBJECT__48
70
0
62
253
6
CONTINUOUS
0
LAYER
2
OBJECT__49
70
0
62
253
6
CONTINUOUS
0
LAYER
2
OBJECT__50
70
0
62
253
6
CONTINUOUS
0
LAYER
2
OBJECT__51
70
0
62
253
6
CONTINUOUS
0
LAYER
2
OBJECT__52
70
0
62
253
6
CONTINUOUS
0
LAYER
2
OBJECT__53
70
0
62
253
6
CONTINUOUS
0
LAYER
2
OBJECT__54
70
0
62
253
6
CONTINUOUS
0
LAYER
2
OBJECT__56
70
0
62
253
6
CONTINUOUS
0
LAYER
2
OBJECT__57
70
0
62
253
6
CONTINUOUS
0
LAYER
2
OBJECT__59
70
0
62
253
6
CONTINUOUS
0
LAYER
2
OBJECT__60
70
0
62
253
6
CONTINUOUS
0
LAYER
2
OBJECT__61
70
0
62
253
6
CONTINUOUS
0
LAYER
2
OBJECT__62
70
0
62
253
6
CONTINUOUS
0
LAYER
2
OBJECT__63
70
0
62
253
6
CONTINUOUS
0
LAYER
2
OBJECT__65
70
0
62
253
6
CONTINUOUS
0
ENDTAB
0
TABLE
2
STYLE
70
1
0
STYLE
2
STANDARD
70
0
40
0.0
41
1.0
50
0.0
71
0
42
0.2
3
txt
4
1
0
ENDTAB
0
TABLE
2
UCS
70
0
0
ENDTAB
0
ENDSEC
0
SECTION
2
ENTITIES
0
POLYLINE
8
OBJECT__0
66
1
70
64
71
10
72
8
62
253
0
VERTEX
8
OBJECT__0
10
18.000000
20
85.500000
30
78.000000
70
192
0
VERTEX
8
OBJECT__0
10
23.231001
20
78.300003
30
78.000000
70
192
0
VERTEX
8
OBJECT__0
10
23.231001
20
81.699997
30
78.000000
70
192
0
VERTEX
8
OBJECT__0
10
18.000000
20
74.500000
30
78.000000
70
192
0
VERTEX
8
OBJECT__0
10
21.233000
20
75.550003
30
78.000000
70
192
0
VERTEX
8
OBJECT__0
10
12.769000
20
78.300003
30
78.000000
70
192
0
VERTEX
8
OBJECT__0
10
14.767000
20
75.550003
30
78.000000
70
192
0
VERTEX
8
OBJECT__0
10
14.767000
20
84.449997
30
78.000000
70
192
0
VERTEX
8
OBJECT__0
10
12.769000
20
81.699997
30
78.000000
70
192
0
VERTEX
8
OBJECT__0
10
21.233000
20
84.449997
30
78.000000
70
192
0
VERTEX
8
OBJECT__0
10
0
20
0
30
0
70
128
71
1
72
2
73
3
0
VERTEX
8
OBJECT__0
10
0
20
0
30
0
70
128
71
1
72
4
73
5
0
VERTEX
8
OBJECT__0
10
0
20
0
30
0
70
128
71
1
72
6
73
7
0
VERTEX
8
OBJECT__0
10
0
20
0
30
0
70
128
71
1
72
8
73
9
0
VERTEX
8
OBJECT__0
10
0
20
0
30
0
70
128
71
5
72
2
73
1
0
VERTEX
8
OBJECT__0
10
0
20
0
30
0
70
128
71
9
72
6
73
1
0
VERTEX
8
OBJECT__0
10
0
20
0
30
0
70
128
71
7
72
4
73
1
0
VERTEX
8
OBJECT__0
10
0
20
0
30
0
70
128
71
3
72
10
73
1
0
SEQEND
8
OBJECT__0
0
POLYLINE
8
OBJECT__1
66
1
70
64
71
26
72
26
62
253
0
VERTEX
8
OBJECT__1
10
18.000000
20
74.500000
30
78.000000
70
192
0
VERTEX
8
OBJECT__1
10
14.767000
20
75.550003
30
78.000000
70
192
0
VERTEX
8
OBJECT__1
10
15.471000
20
74.821999
30
77.500000
70
192
0
VERTEX
8
OBJECT__1
10
14.473000
20
75.146004
30
77.500000
70
192
0
VERTEX
8
OBJECT__1
10
12.769000
20
78.300003
30
78.000000
70
192
0
VERTEX
8
OBJECT__1
10
12.769000
20
81.699997
30
78.000000
70
192
0
VERTEX
8
OBJECT__1
10
12.294000
20
81.853996
30
77.500000
70
192
0
VERTEX
8
OBJECT__1
10
12.294000
20
78.665001
30
77.500000
70
192
0
VERTEX
8
OBJECT__1
10
14.767000
20
84.449997
30
78.000000
70
192
0
VERTEX
8
OBJECT__1
10
13.542000
20
83.571999
30
77.500000
70
192
0
VERTEX
8
OBJECT__1
10
14.473000
20
84.853996
30
77.500000
70
192
0
VERTEX
8
OBJECT__1
10
18.000000
20
86.000000
30
77.500000
70
192
0
VERTEX
8
OBJECT__1
10
18.000000
20
85.500000
30
78.000000
70
192
0
VERTEX
8
OBJECT__1
10
21.233000
20
84.449997
30
78.000000
70
192
0
VERTEX
8
OBJECT__1
10
23.231001
20
81.699997
30
78.000000
70
192
0
VERTEX
8
OBJECT__1
10
23.705999
20
81.853996
30
77.500000
70
192
0
VERTEX
8
OBJECT__1
10
22.458000
20
83.571999
30
77.500000
70
192
0
VERTEX
8
OBJECT__1
10
23.231001
20
78.300003
30
78.000000
70
192
0
VERTEX
8
OBJECT__1
10
23.705999
20
78.665001
30
77.500000
70
192
0
VERTEX
8
OBJECT__1
10
23.705999
20
78.146004
30
77.500000
70
192
0
VERTEX
8
OBJECT__1
10
21.527000
20
75.146004
30
77.500000
70
192
0
VERTEX
8
OBJECT__1
10
18.000000
20
74.000000
30
77.500000
70
192
0
VERTEX
8
OBJECT__1
10
20.528999
20
74.821999
30
77.500000
70
192
0
VERTEX
8
OBJECT__1
10
21.233000
20
75.550003
30
78.000000
70
192
0
VERTEX
8
OBJECT__1
10
21.527000
20
84.853996
30
77.500000
70
192
0
VERTEX
8
OBJECT__1
10
12.294000
20
78.146004
30
77.500000
70
192
0
VERTEX
8
OBJECT__1
10
0
20
0
30
0
70
128
71
1
72
2
73
3
0
VERTEX
8
OBJECT__1
10
0
20
0
30
0
70
128
71
2
72
4
73
3
0
VERTEX
8
OBJECT__1
10
0
20
0
30
0
70
128
71
4
72
2
73
5
0
VERTEX
8
OBJECT__1
10
0
20
0
30
0
70
128
71
6
72
7
73
8
0
VERTEX
8
OBJECT__1
10
0
20
0
30
0
70
128
71
8
72
5
73
6
0
VERTEX
8
OBJECT__1
10
0
20
0
30
0
70
128
71
6
72
9
73
10
0
VERTEX
8
OBJECT__1
10
0
20
0
30
0
70
128
71
9
72
11
73
10
0
VERTEX
8
OBJECT__1
10
0
20
0
30
0
70
128
71
12
72
11
73
9
0
VERTEX
8
OBJECT__1
10
0
20
0
30
0
70
128
71
12
72
13
73
14
0
VERTEX
8
OBJECT__1
10
0
20
0
30
0
70
128
71
15
72
16
73
17
0
VERTEX
8
OBJECT__1
10
0
20
0
30
0
70
128
71
17
72
14
73
15
0
VERTEX
8
OBJECT__1
10
0
20
0
30
0
70
128
71
15
72
18
73
19
0
VERTEX
8
OBJECT__1
10
0
20
0
30
0
70
128
71
18
72
20
73
19
0
VERTEX
8
OBJECT__1
10
0
20
0
30
0
70
128
71
21
72
20
73
18
0
VERTEX
8
OBJECT__1
10
0
20
0
30
0
70
128
71
1
72
22
73
23
0
VERTEX
8
OBJECT__1
10
0
20
0
30
0
70
128
71
23
72
24
73
1
0
VERTEX
8
OBJECT__1
10
0
20
0
30
0
70
128
71
23
72
21
73
24
0
VERTEX
8
OBJECT__1
10
0
20
0
30
0
70
128
71
18
72
24
73
21
0
VERTEX
8
OBJECT__1
10
0
20
0
30
0
70
128
71
19
72
16
73
15
0
VERTEX
8
OBJECT__1
10
0
20
0
30
0
70
128
71
17
72
25
73
14
0
VERTEX
8
OBJECT__1
10
0
20
0
30
0
70
128
71
14
72
25
73
12
0
VERTEX
8
OBJECT__1
10
0
20
0
30
0
70
128
71
9
72
13
73
12
0
VERTEX
8
OBJECT__1
10
0
20
0
30
0
70
128
71
10
72
7
73
6
0
VERTEX
8
OBJECT__1
10
0
20
0
30
0
70
128
71
8
72
26
73
5
0
VERTEX
8
OBJECT__1
10
0
20
0
30
0
70
128
71
5
72
26
73
4
0
VERTEX
8
OBJECT__1
10
0
20
0
30
0
70
128
71
3
72
22
73
1
0
SEQEND
8
OBJECT__1
0
POLYLINE
8
OBJECT__3
66
1
70
64
71
90
72
92
62
253
0
VERTEX
8
OBJECT__3
10
13.542000
20
83.571999
30
2.500000
70
192
0
VERTEX
8
OBJECT__3
10
13.542000
20
83.571999
30
77.500000
70
192
0
VERTEX
8
OBJECT__3
10
14.473000
20
84.853996
30
77.500000
70
192
0
VERTEX
8
OBJECT__3
10
18.000000
20
86.000000
30
2.500000
70
192
0
VERTEX
8
OBJECT__3
10
14.473000
20
84.853996
30
2.500000
70
192
0
VERTEX
8
OBJECT__3
10
18.000000
20
86.000000
30
77.500000
70
192
0
VERTEX
8
OBJECT__3
10
21.527000
20
84.853996
30
2.500000
70
192
0
VERTEX
8
OBJECT__3
10
22.458000
20
83.571999
30
77.500000
70
192
0
VERTEX
8
OBJECT__3
10
22.458000
20
83.571999
30
2.500000
70
192
0
VERTEX
8
OBJECT__3
10
21.527000
20
84.853996
30
77.500000
70
192
0
VERTEX
8
OBJECT__3
10
21.527000
20
75.146004
30
2.500000
70
192
0
VERTEX
8
OBJECT__3
10
21.089001
20
74.856003
30
7.443000
70
192
0
VERTEX
8
OBJECT__3
10
20.580000
20
74.652000
30
7.338000
70
192
0
VERTEX
8
OBJECT__3
10
23.705999
20
78.146004
30
2.500000
70
192
0
VERTEX
8
OBJECT__3
10
22.618999
20
76.170998
30
8.017000
70
192
0
VERTEX
8
OBJECT__3
10
23.795000
20
78.679001
30
8.653000
70
192
0
VERTEX
8
OBJECT__3
10
23.530001
20
77.671997
30
8.491000
70
192
0
VERTEX
8
OBJECT__3
10
23.705999
20
78.665001
30
2.500000
70
192
0
VERTEX
8
OBJECT__3
10
15.471000
20
74.821999
30
2.500000
70
192
0
VERTEX
8
OBJECT__3
10
18.000000
20
74.000000
30
2.500000
70
192
0
VERTEX
8
OBJECT__3
10
18.000000
20
74.000000
30
7.000000
70
192
0
VERTEX
8
OBJECT__3
10
20.528999
20
74.821999
30
2.500000
70
192
0
VERTEX
8
OBJECT__3
10
19.103001
20
74.101997
30
7.055000
70
192
0
VERTEX
8
OBJECT__3
10
19.327999
20
74.149002
30
7.080000
70
192
0
VERTEX
8
OBJECT__3
10
16.165001
20
74.288002
30
7.154000
70
192
0
VERTEX
8
OBJECT__3
10
12.294000
20
78.146004
30
2.500000
70
192
0
VERTEX
8
OBJECT__3
10
14.473000
20
75.146004
30
2.500000
70
192
0
VERTEX
8
OBJECT__3
10
14.541000
20
75.098000
30
7.558000
70
192
0
VERTEX
8
OBJECT__3
10
13.177000
20
76.431000
30
8.114000
70
192
0
VERTEX
8
OBJECT__3
10
12.294000
20
78.665001
30
2.500000
70
192
0
VERTEX
8
OBJECT__3
10
12.238000
20
78.325996
30
8.630000
70
192
0
VERTEX
8
OBJECT__3
10
12.175000
20
78.668999
30
8.670000
70
192
0
VERTEX
8
OBJECT__3
10
15.427000
20
74.654999
30
7.338000
70
192
0
VERTEX
8
OBJECT__3
10
12.294000
20
78.665001
30
77.500000
70
192
0
VERTEX
8
OBJECT__3
10
12.019000
20
79.526001
30
27.231001
70
192
0
VERTEX
8
OBJECT__3
10
12.021000
20
79.500000
30
27.233000
70
192
0
VERTEX
8
OBJECT__3
10
12.002000
20
79.830002
30
27.072001
70
192
0
VERTEX
8
OBJECT__3
10
12.008000
20
79.692001
30
27.179001
70
192
0
VERTEX
8
OBJECT__3
10
12.175000
20
78.668999
30
27.330000
70
192
0
VERTEX
8
OBJECT__3
10
12.294000
20
81.853996
30
77.500000
70
192
0
VERTEX
8
OBJECT__3
10
12.000000
20
79.956001
30
26.867001
70
192
0
VERTEX
8
OBJECT__3
10
12.002000
20
79.848999
30
27.041000
70
192
0
VERTEX
8
OBJECT__3
10
12.000000
20
80.000000
30
9.383000
70
192
0
VERTEX
8
OBJECT__3
10
12.000000
20
80.000000
30
26.617001
70
192
0
VERTEX
8
OBJECT__3
10
12.000000
20
79.974998
30
9.192000
70
192
0
VERTEX
8
OBJECT__3
10
12.001000
20
79.898003
30
9.016000
70
192
0
VERTEX
8
OBJECT__3
10
12.004000
20
79.788002
30
8.887000
70
192
0
VERTEX
8
OBJECT__3
10
12.002000
20
79.849998
30
8.959000
70
192
0
VERTEX
8
OBJECT__3
10
12.294000
20
81.853996
30
2.500000
70
192
0
VERTEX
8
OBJECT__3
10
12.010000
20
79.653999
30
8.803000
70
192
0
VERTEX
8
OBJECT__3
10
12.021000
20
79.500000
30
8.767000
70
192
0
VERTEX
8
OBJECT__3
10
14.541000
20
75.098000
30
28.441999
70
192
0
VERTEX
8
OBJECT__3
10
14.473000
20
75.146004
30
77.500000
70
192
0
VERTEX
8
OBJECT__3
10
12.294000
20
78.146004
30
77.500000
70
192
0
VERTEX
8
OBJECT__3
10
15.427000
20
74.654999
30
28.662001
70
192
0
VERTEX
8
OBJECT__3
10
15.471000
20
74.821999
30
77.500000
70
192
0
VERTEX
8
OBJECT__3
10
12.238000
20
78.325996
30
27.370001
70
192
0
VERTEX
8
OBJECT__3
10
13.177000
20
76.431000
30
27.886000
70
192
0
VERTEX
8
OBJECT__3
10
20.528999
20
74.821999
30
77.500000
70
192
0
VERTEX
8
OBJECT__3
10
18.000000
20
74.000000
30
77.500000
70
192
0
VERTEX
8
OBJECT__3
10
18.000000
20
74.000000
30
29.000000
70
192
0
VERTEX
8
OBJECT__3
10
19.103001
20
74.101997
30
28.945000
70
192
0
VERTEX
8
OBJECT__3
10
19.327999
20
74.149002
30
28.920000
70
192
0
VERTEX
8
OBJECT__3
10
16.165001
20
74.288002
30
28.846001
70
192
0
VERTEX
8
OBJECT__3
10
23.705999
20
78.665001
30
77.500000
70
192
0
VERTEX
8
OBJECT__3
10
22.618999
20
76.170998
30
27.983000
70
192
0
VERTEX
8
OBJECT__3
10
23.530001
20
77.671997
30
27.509001
70
192
0
VERTEX
8
OBJECT__3
10
21.089001
20
74.856003
30
28.556999
70
192
0
VERTEX
8
OBJECT__3
10
21.527000
20
75.146004
30
77.500000
70
192
0
VERTEX
8
OBJECT__3
10
20.580000
20
74.652000
30
28.662001
70
192
0
VERTEX
8
OBJECT__3
10
23.705999
20
78.146004
30
77.500000
70
192
0
VERTEX
8
OBJECT__3
10
23.979000
20
79.500000
30
8.767000
70
192
0
VERTEX
8
OBJECT__3
10
23.959999
20
79.306000
30
8.754000
70
192
0
VERTEX
8
OBJECT__3
10
23.705999
20
81.853996
30
2.500000
70
192
0
VERTEX
8
OBJECT__3
10
23.981001
20
79.526001
30
8.769000
70
192
0
VERTEX
8
OBJECT__3
10
23.992001
20
79.692001
30
8.821000
70
192
0
VERTEX
8
OBJECT__3
10
23.997999
20
79.830002
30
8.928000
70
192
0
VERTEX
8
OBJECT__3
10
24.000000
20
79.956001
30
9.133000
70
192
0
VERTEX
8
OBJECT__3
10
23.997999
20
79.848999
30
8.959000
70
192
0
VERTEX
8
OBJECT__3
10
24.000000
20
79.974998
30
26.808001
70
192
0
VERTEX
8
OBJECT__3
10
24.000000
20
80.000000
30
26.617001
70
192
0
VERTEX
8
OBJECT__3
10
24.000000
20
80.000000
30
9.383000
70
192
0
VERTEX
8
OBJECT__3
10
23.999001
20
79.898003
30
26.983999
70
192
0
VERTEX
8
OBJECT__3
10
23.990000
20
79.653999
30
27.197001
70
192
0
VERTEX
8
OBJECT__3
10
23.996000
20
79.788002
30
27.113001
70
192
0
VERTEX
8
OBJECT__3
10
23.997999
20
79.849998
30
27.041000
70
192
0
VERTEX
8
OBJECT__3
10
23.705999
20
81.853996
30
77.500000
70
192
0
VERTEX
8
OBJECT__3
10
23.795000
20
78.679001
30
27.347000
70
192
0
VERTEX
8
OBJECT__3
10
23.959999
20
79.306000
30
27.246000
70
192
0
VERTEX
8
OBJECT__3
10
23.979000
20
79.500000
30
27.233000
70
192
0
VERTEX
8
OBJECT__3
10
0
20
0
30
0
70
128
71
1
72
2
73
3
0
VERTEX
8
OBJECT__3
10
0
20
0
30
0
70
128
71
4
72
5
73
3
0
VERTEX
8
OBJECT__3
10
0
20
0
30
0
70
128
71
3
72
6
73
4
0
VERTEX
8
OBJECT__3
10
0
20
0
30
0
70
128
71
7
72
4
73
6
0
VERTEX
8
OBJECT__3
10
0
20
0
30
0
70
128
71
8
72
9
73
7
0
VERTEX
8
OBJECT__3
10
0
20
0
30
0
70
128
71
7
72
10
73
8
0
VERTEX
8
OBJECT__3
10
0
20
0
30
0
70
128
71
11
72
12
73
13
0
VERTEX
8
OBJECT__3
10
0
20
0
30
0
70
128
71
14
72
15
73
12
0
VERTEX
8
OBJECT__3
10
0
20
0
30
0
70
128
71
14
72
16
73
17
0
VERTEX
8
OBJECT__3
10
0
20
0
30
0
70
128
71
17
72
15
73
14
0
VERTEX
8
OBJECT__3
10
0
20
0
30
0
70
128
71
12
72
11
73
14
0
VERTEX
8
OBJECT__3
10
0
20
0
30
0
70
128
71
14
72
18
73
16
0
VERTEX
8
OBJECT__3
10
0
20
0
30
0
70
128
71
19
72
20
73
21
0
VERTEX
8
OBJECT__3
10
0
20
0
30
0
70
128
71
20
72
22
73
23
0
VERTEX
8
OBJECT__3
10
0
20
0
30
0
70
128
71
22
72
24
73
23
0
VERTEX
8
OBJECT__3
10
0
20
0
30
0
70
128
71
22
72
13
73
24
0
VERTEX
8
OBJECT__3
10
0
20
0
30
0
70
128
71
23
72
21
73
20
0
VERTEX
8
OBJECT__3
10
0
20
0
30
0
70
128
71
21
72
25
73
19
0
VERTEX
8
OBJECT__3
10
0
20
0
30
0
70
128
71
26
72
27
73
28
0
VERTEX
8
OBJECT__3
10
0
20
0
30
0
70
128
71
28
72
29
73
26
0
VERTEX
8
OBJECT__3
10
0
20
0
30
0
70
128
71
30
72
26
73
31
0
VERTEX
8
OBJECT__3
10
0
20
0
30
0
70
128
71
31
72
32
73
30
0
VERTEX
8
OBJECT__3
10
0
20
0
30
0
70
128
71
27
72
19
73
33
0
VERTEX
8
OBJECT__3
10
0
20
0
30
0
70
128
71
33
72
28
73
27
0
VERTEX
8
OBJECT__3
10
0
20
0
30
0
70
128
71
34
72
35
73
36
0
VERTEX
8
OBJECT__3
10
0
20
0
30
0
70
128
71
34
72
37
73
38
0
VERTEX
8
OBJECT__3
10
0
20
0
30
0
70
128
71
38
72
35
73
34
0
VERTEX
8
OBJECT__3
10
0
20
0
30
0
70
128
71
36
72
39
73
34
0
VERTEX
8
OBJECT__3
10
0
20
0
30
0
70
128
71
40
72
41
73
42
0
VERTEX
8
OBJECT__3
10
0
20
0
30
0
70
128
71
42
72
34
73
40
0
VERTEX
8
OBJECT__3
10
0
20
0
30
0
70
128
71
40
72
2
73
41
0
VERTEX
8
OBJECT__3
10
0
20
0
30
0
70
128
71
42
72
37
73
34
0
VERTEX
8
OBJECT__3
10
0
20
0
30
0
70
128
71
1
72
43
73
44
0
VERTEX
8
OBJECT__3
10
0
20
0
30
0
70
128
71
1
72
45
73
43
0
VERTEX
8
OBJECT__3
10
0
20
0
30
0
70
128
71
44
72
2
73
1
0
VERTEX
8
OBJECT__3
10
0
20
0
30
0
70
128
71
1
72
46
73
45
0
VERTEX
8
OBJECT__3
10
0
20
0
30
0
70
128
71
1
72
47
73
48
0
VERTEX
8
OBJECT__3
10
0
20
0
30
0
70
128
71
48
72
46
73
1
0
VERTEX
8
OBJECT__3
10
0
20
0
30
0
70
128
71
47
72
1
73
49
0
VERTEX
8
OBJECT__3
10
0
20
0
30
0
70
128
71
49
72
50
73
47
0
VERTEX
8
OBJECT__3
10
0
20
0
30
0
70
128
71
30
72
32
73
51
0
VERTEX
8
OBJECT__3
10
0
20
0
30
0
70
128
71
51
72
49
73
30
0
VERTEX
8
OBJECT__3
10
0
20
0
30
0
70
128
71
51
72
50
73
49
0
VERTEX
8
OBJECT__3
10
0
20
0
30
0
70
128
71
44
72
41
73
2
0
VERTEX
8
OBJECT__3
10
0
20
0
30
0
70
128
71
52
72
53
73
54
0
VERTEX
8
OBJECT__3
10
0
20
0
30
0
70
128
71
53
72
52
73
55
0
VERTEX
8
OBJECT__3
10
0
20
0
30
0
70
128
71
55
72
56
73
53
0
VERTEX
8
OBJECT__3
10
0
20
0
30
0
70
128
71
34
72
39
73
57
0
VERTEX
8
OBJECT__3
10
0
20
0
30
0
70
128
71
57
72
58
73
34
0
VERTEX
8
OBJECT__3
10
0
20
0
30
0
70
128
71
58
72
52
73
34
0
VERTEX
8
OBJECT__3
10
0
20
0
30
0
70
128
71
59
72
60
73
61
0
VERTEX
8
OBJECT__3
10
0
20
0
30
0
70
128
71
61
72
62
73
59
0
VERTEX
8
OBJECT__3
10
0
20
0
30
0
70
128
71
62
72
63
73
59
0
VERTEX
8
OBJECT__3
10
0
20
0
30
0
70
128
71
56
72
64
73
61
0
VERTEX
8
OBJECT__3
10
0
20
0
30
0
70
128
71
61
72
60
73
56
0
VERTEX
8
OBJECT__3
10
0
20
0
30
0
70
128
71
56
72
55
73
64
0
VERTEX
8
OBJECT__3
10
0
20
0
30
0
70
128
71
65
72
66
73
67
0
VERTEX
8
OBJECT__3
10
0
20
0
30
0
70
128
71
65
72
68
73
66
0
VERTEX
8
OBJECT__3
10
0
20
0
30
0
70
128
71
69
72
59
73
70
0
VERTEX
8
OBJECT__3
10
0
20
0
30
0
70
128
71
68
72
71
73
69
0
VERTEX
8
OBJECT__3
10
0
20
0
30
0
70
128
71
68
72
65
73
71
0
VERTEX
8
OBJECT__3
10
0
20
0
30
0
70
128
71
70
72
68
73
69
0
VERTEX
8
OBJECT__3
10
0
20
0
30
0
70
128
71
18
72
72
73
73
0
VERTEX
8
OBJECT__3
10
0
20
0
30
0
70
128
71
18
72
74
73
75
0
VERTEX
8
OBJECT__3
10
0
20
0
30
0
70
128
71
75
72
72
73
18
0
VERTEX
8
OBJECT__3
10
0
20
0
30
0
70
128
71
76
72
75
73
74
0
VERTEX
8
OBJECT__3
10
0
20
0
30
0
70
128
71
74
72
9
73
76
0
VERTEX
8
OBJECT__3
10
0
20
0
30
0
70
128
71
9
72
77
73
76
0
VERTEX
8
OBJECT__3
10
0
20
0
30
0
70
128
71
9
72
78
73
79
0
VERTEX
8
OBJECT__3
10
0
20
0
30
0
70
128
71
79
72
77
73
9
0
VERTEX
8
OBJECT__3
10
0
20
0
30
0
70
128
71
9
72
80
73
81
0
VERTEX
8
OBJECT__3
10
0
20
0
30
0
70
128
71
81
72
82
73
9
0
VERTEX
8
OBJECT__3
10
0
20
0
30
0
70
128
71
8
72
83
73
80
0
VERTEX
8
OBJECT__3
10
0
20
0
30
0
70
128
71
80
72
9
73
8
0
VERTEX
8
OBJECT__3
10
0
20
0
30
0
70
128
71
82
72
78
73
9
0
VERTEX
8
OBJECT__3
10
0
20
0
30
0
70
128
71
8
72
84
73
85
0
VERTEX
8
OBJECT__3
10
0
20
0
30
0
70
128
71
86
72
83
73
8
0
VERTEX
8
OBJECT__3
10
0
20
0
30
0
70
128
71
85
72
86
73
8
0
VERTEX
8
OBJECT__3
10
0
20
0
30
0
70
128
71
87
72
65
73
88
0
VERTEX
8
OBJECT__3
10
0
20
0
30
0
70
128
71
88
72
89
73
87
0
VERTEX
8
OBJECT__3
10
0
20
0
30
0
70
128
71
90
72
8
73
87
0
VERTEX
8
OBJECT__3
10
0
20
0
30
0
70
128
71
89
72
90
73
87
0
VERTEX
8
OBJECT__3
10
0
20
0
30
0
70
128
71
90
72
84
73
8
0
VERTEX
8
OBJECT__3
10
0
20
0
30
0
70
128
71
73
72
16
73
18
0
VERTEX
8
OBJECT__3
10
0
20
0
30
0
70
128
71
67
72
88
73
65
0
VERTEX
8
OBJECT__3
10
0
20
0
30
0
70
128
71
63
72
70
73
59
0
VERTEX
8
OBJECT__3
10
0
20
0
30
0
70
128
71
54
72
34
73
52
0
VERTEX
8
OBJECT__3
10
0
20
0
30
0
70
128
71
29
72
31
73
26
0
VERTEX
8
OBJECT__3
10
0
20
0
30
0
70
128
71
25
72
33
73
19
0
VERTEX
8
OBJECT__3
10
0
20
0
30
0
70
128
71
13
72
22
73
11
0
VERTEX
8
OBJECT__3
10
0
20
0
30
0
70
128
71
6
72
10
73
7
0
VERTEX
8
OBJECT__3
10
0
20
0
30
0
70
128
71
3
72
5
73
1
0
SEQEND
8
OBJECT__3
0
POLYLINE
8
OBJECT__4
66
1
70
64
71
30
72
32
62
253
0
VERTEX
8
OBJECT__4
10
9.072000
20
79.853996
30
24.172001
70
192
0
VERTEX
8
OBJECT__4
10
9.363000
20
80.000000
30
23.971001
70
192
0
VERTEX
8
OBJECT__4
10
7.713000
20
80.000000
30
20.103001
70
192
0
VERTEX
8
OBJECT__4
10
7.366000
20
79.853996
30
20.173000
70
192
0
VERTEX
8
OBJECT__4
10
7.713000
20
80.000000
30
15.897000
70
192
0
VERTEX
8
OBJECT__4
10
9.072000
20
79.853996
30
11.828000
70
192
0
VERTEX
8
OBJECT__4
10
7.366000
20
79.853996
30
15.827000
70
192
0
VERTEX
8
OBJECT__4
10
7.703000
20
79.500000
30
21.329000
70
192
0
VERTEX
8
OBJECT__4
10
7.223000
20
79.500000
30
20.202999
70
192
0
VERTEX
8
OBJECT__4
10
7.223000
20
79.500000
30
15.797000
70
192
0
VERTEX
8
OBJECT__4
10
8.952000
20
79.500000
30
11.745000
70
192
0
VERTEX
8
OBJECT__4
10
7.703000
20
79.500000
30
14.671000
70
192
0
VERTEX
8
OBJECT__4
10
11.603000
20
79.500000
30
26.827999
70
192
0
VERTEX
8
OBJECT__4
10
12.008000
20
79.692001
30
27.179001
70
192
0
VERTEX
8
OBJECT__4
10
12.002000
20
79.830002
30
27.072001
70
192
0
VERTEX
8
OBJECT__4
10
12.019000
20
79.526001
30
27.231001
70
192
0
VERTEX
8
OBJECT__4
10
12.021000
20
79.500000
30
27.233000
70
192
0
VERTEX
8
OBJECT__4
10
8.952000
20
79.500000
30
24.254999
70
192
0
VERTEX
8
OBJECT__4
10
12.002000
20
79.848999
30
27.041000
70
192
0
VERTEX
8
OBJECT__4
10
12.000000
20
79.956001
30
26.867001
70
192
0
VERTEX
8
OBJECT__4
10
12.000000
20
80.000000
30
26.617001
70
192
0
VERTEX
8
OBJECT__4
10
9.363000
20
80.000000
30
12.029000
70
192
0
VERTEX
8
OBJECT__4
10
12.000000
20
80.000000
30
9.383000
70
192
0
VERTEX
8
OBJECT__4
10
12.000000
20
79.974998
30
9.192000
70
192
0
VERTEX
8
OBJECT__4
10
12.001000
20
79.898003
30
9.016000
70
192
0
VERTEX
8
OBJECT__4
10
12.002000
20
79.849998
30
8.959000
70
192
0
VERTEX
8
OBJECT__4
10
11.603000
20
79.500000
30
9.172000
70
192
0
VERTEX
8
OBJECT__4
10
12.004000
20
79.788002
30
8.887000
70
192
0
VERTEX
8
OBJECT__4
10
12.010000
20
79.653999
30
8.803000
70
192
0
VERTEX
8
OBJECT__4
10
12.021000
20
79.500000
30
8.767000
70
192
0
VERTEX
8
OBJECT__4
10
0
20
0
30
0
70
128
71
1
72
2
73
3
0
VERTEX
8
OBJECT__4
10
0
20
0
30
0
70
128
71
4
72
3
73
5
0
VERTEX
8
OBJECT__4
10
0
20
0
30
0
70
128
71
6
72
7
73
5
0
VERTEX
8
OBJECT__4
10
0
20
0
30
0
70
128
71
1
72
4
73
8
0
VERTEX
8
OBJECT__4
10
0
20
0
30
0
70
128
71
4
72
9
73
8
0
VERTEX
8
OBJECT__4
10
0
20
0
30
0
70
128
71
10
72
9
73
4
0
VERTEX
8
OBJECT__4
10
0
20
0
30
0
70
128
71
6
72
11
73
12
0
VERTEX
8
OBJECT__4
10
0
20
0
30
0
70
128
71
12
72
7
73
6
0
VERTEX
8
OBJECT__4
10
0
20
0
30
0
70
128
71
13
72
14
73
15
0
VERTEX
8
OBJECT__4
10
0
20
0
30
0
70
128
71
13
72
16
73
14
0
VERTEX
8
OBJECT__4
10
0
20
0
30
0
70
128
71
13
72
17
73
16
0
VERTEX
8
OBJECT__4
10
0
20
0
30
0
70
128
71
1
72
18
73
13
0
VERTEX
8
OBJECT__4
10
0
20
0
30
0
70
128
71
13
72
19
73
1
0
VERTEX
8
OBJECT__4
10
0
20
0
30
0
70
128
71
1
72
20
73
21
0
VERTEX
8
OBJECT__4
10
0
20
0
30
0
70
128
71
1
72
19
73
20
0
VERTEX
8
OBJECT__4
10
0
20
0
30
0
70
128
71
6
72
22
73
23
0
VERTEX
8
OBJECT__4
10
0
20
0
30
0
70
128
71
23
72
24
73
6
0
VERTEX
8
OBJECT__4
10
0
20
0
30
0
70
128
71
24
72
25
73
6
0
VERTEX
8
OBJECT__4
10
0
20
0
30
0
70
128
71
6
72
26
73
27
0
VERTEX
8
OBJECT__4
10
0
20
0
30
0
70
128
71
27
72
26
73
28
0
VERTEX
8
OBJECT__4
10
0
20
0
30
0
70
128
71
28
72
29
73
27
0
VERTEX
8
OBJECT__4
10
0
20
0
30
0
70
128
71
29
72
30
73
27
0
VERTEX
8
OBJECT__4
10
0
20
0
30
0
70
128
71
27
72
11
73
6
0
VERTEX
8
OBJECT__4
10
0
20
0
30
0
70
128
71
25
72
26
73
6
0
VERTEX
8
OBJECT__4
10
0
20
0
30
0
70
128
71
21
72
2
73
1
0
VERTEX
8
OBJECT__4
10
0
20
0
30
0
70
128
71
15
72
19
73
13
0
VERTEX
8
OBJECT__4
10
0
20
0
30
0
70
128
71
12
72
10
73
7
0
VERTEX
8
OBJECT__4
10
0
20
0
30
0
70
128
71
4
72
7
73
10
0
VERTEX
8
OBJECT__4
10
0
20
0
30
0
70
128
71
8
72
18
73
1
0
VERTEX
8
OBJECT__4
10
0
20
0
30
0
70
128
71
5
72
22
73
6
0
VERTEX
8
OBJECT__4
10
0
20
0
30
0
70
128
71
5
72
7
73
4
0
VERTEX
8
OBJECT__4
10
0
20
0
30
0
70
128
71
3
72
4
73
1
0
SEQEND
8
OBJECT__4
0
POLYLINE
8
OBJECT__5
66
1
70
64
71
30
72
32
62
253
0
VERTEX
8
OBJECT__5
10
28.634001
20
79.853996
30
15.827000
70
192
0
VERTEX
8
OBJECT__5
10
26.927999
20
79.853996
30
11.828000
70
192
0
VERTEX
8
OBJECT__5
10
26.636999
20
80.000000
30
12.029000
70
192
0
VERTEX
8
OBJECT__5
10
28.634001
20
79.853996
30
20.173000
70
192
0
VERTEX
8
OBJECT__5
10
28.287001
20
80.000000
30
15.897000
70
192
0
VERTEX
8
OBJECT__5
10
26.927999
20
79.853996
30
24.172001
70
192
0
VERTEX
8
OBJECT__5
10
28.287001
20
80.000000
30
20.103001
70
192
0
VERTEX
8
OBJECT__5
10
28.297001
20
79.500000
30
14.671000
70
192
0
VERTEX
8
OBJECT__5
10
28.777000
20
79.500000
30
15.797000
70
192
0
VERTEX
8
OBJECT__5
10
28.777000
20
79.500000
30
20.202999
70
192
0
VERTEX
8
OBJECT__5
10
27.048000
20
79.500000
30
24.254999
70
192
0
VERTEX
8
OBJECT__5
10
28.297001
20
79.500000
30
21.329000
70
192
0
VERTEX
8
OBJECT__5
10
24.396999
20
79.500000
30
9.172000
70
192
0
VERTEX
8
OBJECT__5
10
23.992001
20
79.692001
30
8.821000
70
192
0
VERTEX
8
OBJECT__5
10
23.997999
20
79.830002
30
8.928000
70
192
0
VERTEX
8
OBJECT__5
10
23.981001
20
79.526001
30
8.769000
70
192
0
VERTEX
8
OBJECT__5
10
23.979000
20
79.500000
30
8.767000
70
192
0
VERTEX
8
OBJECT__5
10
27.048000
20
79.500000
30
11.745000
70
192
0
VERTEX
8
OBJECT__5
10
23.997999
20
79.848999
30
8.959000
70
192
0
VERTEX
8
OBJECT__5
10
24.000000
20
79.956001
30
9.133000
70
192
0
VERTEX
8
OBJECT__5
10
24.000000
20
80.000000
30
9.383000
70
192
0
VERTEX
8
OBJECT__5
10
26.636999
20
80.000000
30
23.971001
70
192
0
VERTEX
8
OBJECT__5
10
24.000000
20
80.000000
30
26.617001
70
192
0
VERTEX
8
OBJECT__5
10
24.000000
20
79.974998
30
26.808001
70
192
0
VERTEX
8
OBJECT__5
10
23.999001
20
79.898003
30
26.983999
70
192
0
VERTEX
8
OBJECT__5
10
23.997999
20
79.849998
30
27.041000
70
192
0
VERTEX
8
OBJECT__5
10
24.396999
20
79.500000
30
26.827999
70
192
0
VERTEX
8
OBJECT__5
10
23.996000
20
79.788002
30
27.113001
70
192
0
VERTEX
8
OBJECT__5
10
23.990000
20
79.653999
30
27.197001
70
192
0
VERTEX
8
OBJECT__5
10
23.979000
20
79.500000
30
27.233000
70
192
0
VERTEX
8
OBJECT__5
10
0
20
0
30
0
70
128
71
1
72
2
73
3
0
VERTEX
8
OBJECT__5
10
0
20
0
30
0
70
128
71
4
72
1
73
5
0
VERTEX
8
OBJECT__5
10
0
20
0
30
0
70
128
71
6
72
4
73
7
0
VERTEX
8
OBJECT__5
10
0
20
0
30
0
70
128
71
2
72
1
73
8
0
VERTEX
8
OBJECT__5
10
0
20
0
30
0
70
128
71
1
72
9
73
8
0
VERTEX
8
OBJECT__5
10
0
20
0
30
0
70
128
71
10
72
9
73
1
0
VERTEX
8
OBJECT__5
10
0
20
0
30
0
70
128
71
6
72
11
73
12
0
VERTEX
8
OBJECT__5
10
0
20
0
30
0
70
128
71
12
72
4
73
6
0
VERTEX
8
OBJECT__5
10
0
20
0
30
0
70
128
71
13
72
14
73
15
0
VERTEX
8
OBJECT__5
10
0
20
0
30
0
70
128
71
13
72
16
73
14
0
VERTEX
8
OBJECT__5
10
0
20
0
30
0
70
128
71
13
72
17
73
16
0
VERTEX
8
OBJECT__5
10
0
20
0
30
0
70
128
71
2
72
18
73
13
0
VERTEX
8
OBJECT__5
10
0
20
0
30
0
70
128
71
13
72
19
73
2
0
VERTEX
8
OBJECT__5
10
0
20
0
30
0
70
128
71
2
72
20
73
21
0
VERTEX
8
OBJECT__5
10
0
20
0
30
0
70
128
71
2
72
19
73
20
0
VERTEX
8
OBJECT__5
10
0
20
0
30
0
70
128
71
6
72
22
73
23
0
VERTEX
8
OBJECT__5
10
0
20
0
30
0
70
128
71
23
72
24
73
6
0
VERTEX
8
OBJECT__5
10
0
20
0
30
0
70
128
71
24
72
25
73
6
0
VERTEX
8
OBJECT__5
10
0
20
0
30
0
70
128
71
6
72
26
73
27
0
VERTEX
8
OBJECT__5
10
0
20
0
30
0
70
128
71
27
72
26
73
28
0
VERTEX
8
OBJECT__5
10
0
20
0
30
0
70
128
71
28
72
29
73
27
0
VERTEX
8
OBJECT__5
10
0
20
0
30
0
70
128
71
29
72
30
73
27
0
VERTEX
8
OBJECT__5
10
0
20
0
30
0
70
128
71
27
72
11
73
6
0
VERTEX
8
OBJECT__5
10
0
20
0
30
0
70
128
71
25
72
26
73
6
0
VERTEX
8
OBJECT__5
10
0
20
0
30
0
70
128
71
21
72
3
73
2
0
VERTEX
8
OBJECT__5
10
0
20
0
30
0
70
128
71
15
72
19
73
13
0
VERTEX
8
OBJECT__5
10
0
20
0
30
0
70
128
71
12
72
10
73
4
0
VERTEX
8
OBJECT__5
10
0
20
0
30
0
70
128
71
1
72
4
73
10
0
VERTEX
8
OBJECT__5
10
0
20
0
30
0
70
128
71
8
72
18
73
2
0
VERTEX
8
OBJECT__5
10
0
20
0
30
0
70
128
71
7
72
22
73
6
0
VERTEX
8
OBJECT__5
10
0
20
0
30
0
70
128
71
5
72
7
73
4
0
VERTEX
8
OBJECT__5
10
0
20
0
30
0
70
128
71
3
72
5
73
1
0
SEQEND
8
OBJECT__5
0
POLYLINE
8
OBJECT__6
66
1
70
64
71
61
72
61
62
253
0
VERTEX
8
OBJECT__6
10
11.534000
20
59.500000
30
9.101000
70
192
0
VERTEX
8
OBJECT__6
10
7.538000
20
59.500000
30
14.601000
70
192
0
VERTEX
8
OBJECT__6
10
8.952000
20
79.500000
30
11.745000
70
192
0
VERTEX
8
OBJECT__6
10
7.703000
20
79.500000
30
14.671000
70
192
0
VERTEX
8
OBJECT__6
10
7.223000
20
79.500000
30
20.202999
70
192
0
VERTEX
8
OBJECT__6
10
7.223000
20
79.500000
30
15.797000
70
192
0
VERTEX
8
OBJECT__6
10
7.000000
20
59.500000
30
18.000000
70
192
0
VERTEX
8
OBJECT__6
10
7.538000
20
59.500000
30
21.399000
70
192
0
VERTEX
8
OBJECT__6
10
7.703000
20
79.500000
30
21.329000
70
192
0
VERTEX
8
OBJECT__6
10
11.534000
20
59.500000
30
26.899000
70
192
0
VERTEX
8
OBJECT__6
10
11.603000
20
79.500000
30
26.827999
70
192
0
VERTEX
8
OBJECT__6
10
8.952000
20
79.500000
30
24.254999
70
192
0
VERTEX
8
OBJECT__6
10
24.466000
20
59.500000
30
26.899000
70
192
0
VERTEX
8
OBJECT__6
10
28.462000
20
59.500000
30
21.399000
70
192
0
VERTEX
8
OBJECT__6
10
27.048000
20
79.500000
30
24.254999
70
192
0
VERTEX
8
OBJECT__6
10
28.297001
20
79.500000
30
21.329000
70
192
0
VERTEX
8
OBJECT__6
10
28.462000
20
59.500000
30
14.601000
70
192
0
VERTEX
8
OBJECT__6
10
28.777000
20
79.500000
30
15.797000
70
192
0
VERTEX
8
OBJECT__6
10
28.777000
20
79.500000
30
20.202999
70
192
0
VERTEX
8
OBJECT__6
10
28.297001
20
79.500000
30
14.671000
70
192
0
VERTEX
8
OBJECT__6
10
24.466000
20
59.500000
30
9.101000
70
192
0
VERTEX
8
OBJECT__6
10
24.396999
20
79.500000
30
9.172000
70
192
0
VERTEX
8
OBJECT__6
10
27.048000
20
79.500000
30
11.745000
70
192
0
VERTEX
8
OBJECT__6
10
18.000000
20
59.500000
30
29.000000
70
192
0
VERTEX
8
OBJECT__6
10
19.103001
20
74.101997
30
28.945000
70
192
0
VERTEX
8
OBJECT__6
10
19.327999
20
74.149002
30
28.920000
70
192
0
VERTEX
8
OBJECT__6
10
21.089001
20
74.856003
30
28.556999
70
192
0
VERTEX
8
OBJECT__6
10
20.580000
20
74.652000
30
28.662001
70
192
0
VERTEX
8
OBJECT__6
10
23.530001
20
77.671997
30
27.509001
70
192
0
VERTEX
8
OBJECT__6
10
22.618999
20
76.170998
30
27.983000
70
192
0
VERTEX
8
OBJECT__6
10
24.396999
20
79.500000
30
26.827999
70
192
0
VERTEX
8
OBJECT__6
10
23.795000
20
78.679001
30
27.347000
70
192
0
VERTEX
8
OBJECT__6
10
23.959999
20
79.306000
30
27.246000
70
192
0
VERTEX
8
OBJECT__6
10
23.979000
20
79.500000
30
27.233000
70
192
0
VERTEX
8
OBJECT__6
10
12.238000
20
78.325996
30
27.370001
70
192
0
VERTEX
8
OBJECT__6
10
12.175000
20
78.668999
30
27.330000
70
192
0
VERTEX
8
OBJECT__6
10
13.177000
20
76.431000
30
27.886000
70
192
0
VERTEX
8
OBJECT__6
10
16.165001
20
74.288002
30
28.846001
70
192
0
VERTEX
8
OBJECT__6
10
15.427000
20
74.654999
30
28.662001
70
192
0
VERTEX
8
OBJECT__6
10
14.541000
20
75.098000
30
28.441999
70
192
0
VERTEX
8
OBJECT__6
10
18.000000
20
74.000000
30
29.000000
70
192
0
VERTEX
8
OBJECT__6
10
18.000000
20
59.500000
30
7.000000
70
192
0
VERTEX
8
OBJECT__6
10
16.165001
20
74.288002
30
7.154000
70
192
0
VERTEX
8
OBJECT__6
10
14.541000
20
75.098000
30
7.558000
70
192
0
VERTEX
8
OBJECT__6
10
15.427000
20
74.654999
30
7.338000
70
192
0
VERTEX
8
OBJECT__6
10
13.177000
20
76.431000
30
8.114000
70
192
0
VERTEX
8
OBJECT__6
10
11.603000
20
79.500000
30
9.172000
70
192
0
VERTEX
8
OBJECT__6
10
12.175000
20
78.668999
30
8.670000
70
192
0
VERTEX
8
OBJECT__6
10
12.238000
20
78.325996
30
8.630000
70
192
0
VERTEX
8
OBJECT__6
10
12.021000
20
79.500000
30
8.767000
70
192
0
VERTEX
8
OBJECT__6
10
23.530001
20
77.671997
30
8.491000
70
192
0
VERTEX
8
OBJECT__6
10
23.795000
20
78.679001
30
8.653000
70
192
0
VERTEX
8
OBJECT__6
10
23.959999
20
79.306000
30
8.754000
70
192
0
VERTEX
8
OBJECT__6
10
21.089001
20
74.856003
30
7.443000
70
192
0
VERTEX
8
OBJECT__6
10
22.618999
20
76.170998
30
8.017000
70
192
0
VERTEX
8
OBJECT__6
10
19.327999
20
74.149002
30
7.080000
70
192
0
VERTEX
8
OBJECT__6
10
20.580000
20
74.652000
30
7.338000
70
192
0
VERTEX
8
OBJECT__6
10
18.000000
20
74.000000
30
7.000000
70
192
0
VERTEX
8
OBJECT__6
10
19.103001
20
74.101997
30
7.055000
70
192
0
VERTEX
8
OBJECT__6
10
23.979000
20
79.500000
30
8.767000
70
192
0
VERTEX
8
OBJECT__6
10
12.021000
20
79.500000
30
27.233000
70
192
0
VERTEX
8
OBJECT__6
10
0
20
0
30
0
70
128
71
1
72
2
73
3
0
VERTEX
8
OBJECT__6
10
0
20
0
30
0
70
128
71
2
72
4
73
3
0
VERTEX
8
OBJECT__6
10
0
20
0
30
0
70
128
71
5
72
6
73
7
0
VERTEX
8
OBJECT__6
10
0
20
0
30
0
70
128
71
8
72
9
73
5
0
VERTEX
8
OBJECT__6
10
0
20
0
30
0
70
128
71
2
72
7
73
6
0
VERTEX
8
OBJECT__6
10
0
20
0
30
0
70
128
71
6
72
4
73
2
0
VERTEX
8
OBJECT__6
10
0
20
0
30
0
70
128
71
10
72
11
73
12
0
VERTEX
8
OBJECT__6
10
0
20
0
30
0
70
128
71
12
72
8
73
10
0
VERTEX
8
OBJECT__6
10
0
20
0
30
0
70
128
71
13
72
14
73
15
0
VERTEX
8
OBJECT__6
10
0
20
0
30
0
70
128
71
14
72
16
73
15
0
VERTEX
8
OBJECT__6
10
0
20
0
30
0
70
128
71
17
72
18
73
19
0
VERTEX
8
OBJECT__6
10
0
20
0
30
0
70
128
71
19
72
14
73
17
0
VERTEX
8
OBJECT__6
10
0
20
0
30
0
70
128
71
17
72
20
73
18
0
VERTEX
8
OBJECT__6
10
0
20
0
30
0
70
128
71
21
72
22
73
23
0
VERTEX
8
OBJECT__6
10
0
20
0
30
0
70
128
71
23
72
17
73
21
0
VERTEX
8
OBJECT__6
10
0
20
0
30
0
70
128
71
24
72
13
73
25
0
VERTEX
8
OBJECT__6
10
0
20
0
30
0
70
128
71
13
72
26
73
25
0
VERTEX
8
OBJECT__6
10
0
20
0
30
0
70
128
71
13
72
27
73
28
0
VERTEX
8
OBJECT__6
10
0
20
0
30
0
70
128
71
28
72
26
73
13
0
VERTEX
8
OBJECT__6
10
0
20
0
30
0
70
128
71
13
72
29
73
30
0
VERTEX
8
OBJECT__6
10
0
20
0
30
0
70
128
71
30
72
27
73
13
0
VERTEX
8
OBJECT__6
10
0
20
0
30
0
70
128
71
31
72
32
73
29
0
VERTEX
8
OBJECT__6
10
0
20
0
30
0
70
128
71
31
72
33
73
32
0
VERTEX
8
OBJECT__6
10
0
20
0
30
0
70
128
71
31
72
34
73
33
0
VERTEX
8
OBJECT__6
10
0
20
0
30
0
70
128
71
29
72
13
73
31
0
VERTEX
8
OBJECT__6
10
0
20
0
30
0
70
128
71
11
72
10
73
35
0
VERTEX
8
OBJECT__6
10
0
20
0
30
0
70
128
71
35
72
36
73
11
0
VERTEX
8
OBJECT__6
10
0
20
0
30
0
70
128
71
10
72
37
73
35
0
VERTEX
8
OBJECT__6
10
0
20
0
30
0
70
128
71
10
72
38
73
39
0
VERTEX
8
OBJECT__6
10
0
20
0
30
0
70
128
71
39
72
40
73
10
0
VERTEX
8
OBJECT__6
10
0
20
0
30
0
70
128
71
24
72
41
73
38
0
VERTEX
8
OBJECT__6
10
0
20
0
30
0
70
128
71
38
72
10
73
24
0
VERTEX
8
OBJECT__6
10
0
20
0
30
0
70
128
71
40
72
37
73
10
0
VERTEX
8
OBJECT__6
10
0
20
0
30
0
70
128
71
42
72
1
73
43
0
VERTEX
8
OBJECT__6
10
0
20
0
30
0
70
128
71
1
72
44
73
45
0
VERTEX
8
OBJECT__6
10
0
20
0
30
0
70
128
71
1
72
46
73
44
0
VERTEX
8
OBJECT__6
10
0
20
0
30
0
70
128
71
45
72
43
73
1
0
VERTEX
8
OBJECT__6
10
0
20
0
30
0
70
128
71
47
72
48
73
49
0
VERTEX
8
OBJECT__6
10
0
20
0
30
0
70
128
71
47
72
50
73
48
0
VERTEX
8
OBJECT__6
10
0
20
0
30
0
70
128
71
49
72
1
73
47
0
VERTEX
8
OBJECT__6
10
0
20
0
30
0
70
128
71
49
72
46
73
1
0
VERTEX
8
OBJECT__6
10
0
20
0
30
0
70
128
71
22
72
21
73
51
0
VERTEX
8
OBJECT__6
10
0
20
0
30
0
70
128
71
51
72
52
73
22
0
VERTEX
8
OBJECT__6
10
0
20
0
30
0
70
128
71
52
72
53
73
22
0
VERTEX
8
OBJECT__6
10
0
20
0
30
0
70
128
71
21
72
54
73
55
0
VERTEX
8
OBJECT__6
10
0
20
0
30
0
70
128
71
21
72
56
73
57
0
VERTEX
8
OBJECT__6
10
0
20
0
30
0
70
128
71
42
72
58
73
59
0
VERTEX
8
OBJECT__6
10
0
20
0
30
0
70
128
71
59
72
21
73
42
0
VERTEX
8
OBJECT__6
10
0
20
0
30
0
70
128
71
59
72
56
73
21
0
VERTEX
8
OBJECT__6
10
0
20
0
30
0
70
128
71
57
72
54
73
21
0
VERTEX
8
OBJECT__6
10
0
20
0
30
0
70
128
71
55
72
51
73
21
0
VERTEX
8
OBJECT__6
10
0
20
0
30
0
70
128
71
53
72
60
73
22
0
VERTEX
8
OBJECT__6
10
0
20
0
30
0
70
128
71
43
72
58
73
42
0
VERTEX
8
OBJECT__6
10
0
20
0
30
0
70
128
71
36
72
61
73
11
0
VERTEX
8
OBJECT__6
10
0
20
0
30
0
70
128
71
25
72
41
73
24
0
VERTEX
8
OBJECT__6
10
0
20
0
30
0
70
128
71
23
72
20
73
17
0
VERTEX
8
OBJECT__6
10
0
20
0
30
0
70
128
71
19
72
16
73
14
0
VERTEX
8
OBJECT__6
10
0
20
0
30
0
70
128
71
15
72
31
73
13
0
VERTEX
8
OBJECT__6
10
0
20
0
30
0
70
128
71
12
72
9
73
8
0
VERTEX
8
OBJECT__6
10
0
20
0
30
0
70
128
71
7
72
8
73
5
0
VERTEX
8
OBJECT__6
10
0
20
0
30
0
70
128
71
3
72
47
73
1
0
SEQEND
8
OBJECT__6
0
POLYLINE
8
OBJECT__7
66
1
70
64
71
6
72
4
62
253
0
VERTEX
8
OBJECT__7
10
9.363000
20
80.000000
30
12.029000
70
192
0
VERTEX
8
OBJECT__7
10
7.713000
20
80.000000
30
15.897000
70
192
0
VERTEX
8
OBJECT__7
10
7.713000
20
80.000000
30
20.103001
70
192
0
VERTEX
8
OBJECT__7
10
9.363000
20
80.000000
30
23.971001
70
192
0
VERTEX
8
OBJECT__7
10
12.000000
20
80.000000
30
9.383000
70
192
0
VERTEX
8
OBJECT__7
10
12.000000
20
80.000000
30
26.617001
70
192
0
VERTEX
8
OBJECT__7
10
0
20
0
30
0
70
128
71
1
72
2
73
3
0
VERTEX
8
OBJECT__7
10
0
20
0
30
0
70
128
71
4
72
5
73
1
0
VERTEX
8
OBJECT__7
10
0
20
0
30
0
70
128
71
3
72
4
73
1
0
VERTEX
8
OBJECT__7
10
0
20
0
30
0
70
128
71
4
72
6
73
5
0
SEQEND
8
OBJECT__7
0
POLYLINE
8
OBJECT__8
66
1
70
64
71
6
72
4
62
253
0
VERTEX
8
OBJECT__8
10
26.636999
20
80.000000
30
12.029000
70
192
0
VERTEX
8
OBJECT__8
10
26.636999
20
80.000000
30
23.971001
70
192
0
VERTEX
8
OBJECT__8
10
28.287001
20
80.000000
30
20.103001
70
192
0
VERTEX
8
OBJECT__8
10
24.000000
20
80.000000
30
26.617001
70
192
0
VERTEX
8
OBJECT__8
10
28.287001
20
80.000000
30
15.897000
70
192
0
VERTEX
8
OBJECT__8
10
24.000000
20
80.000000
30
9.383000
70
192
0
VERTEX
8
OBJECT__8
10
0
20
0
30
0
70
128
71
1
72
2
73
3
0
VERTEX
8
OBJECT__8
10
0
20
0
30
0
70
128
71
1
72
4
73
2
0
VERTEX
8
OBJECT__8
10
0
20
0
30
0
70
128
71
3
72
5
73
1
0
VERTEX
8
OBJECT__8
10
0
20
0
30
0
70
128
71
1
72
6
73
4
0
SEQEND
8
OBJECT__8
0
POLYLINE
8
OBJECT__9
66
1
70
64
71
26
72
26
62
253
0
VERTEX
8
OBJECT__9
10
18.000000
20
74.500000
30
2.000000
70
192
0
VERTEX
8
OBJECT__9
10
18.000000
20
74.000000
30
2.500000
70
192
0
VERTEX
8
OBJECT__9
10
15.471000
20
74.821999
30
2.500000
70
192
0
VERTEX
8
OBJECT__9
10
14.767000
20
75.550003
30
2.000000
70
192
0
VERTEX
8
OBJECT__9
10
14.473000
20
75.146004
30
2.500000
70
192
0
VERTEX
8
OBJECT__9
10
12.294000
20
78.146004
30
2.500000
70
192
0
VERTEX
8
OBJECT__9
10
12.769000
20
78.300003
30
2.000000
70
192
0
VERTEX
8
OBJECT__9
10
12.769000
20
81.699997
30
2.000000
70
192
0
VERTEX
8
OBJECT__9
10
12.294000
20
78.665001
30
2.500000
70
192
0
VERTEX
8
OBJECT__9
10
12.294000
20
81.853996
30
2.500000
70
192
0
VERTEX
8
OBJECT__9
10
13.542000
20
83.571999
30
2.500000
70
192
0
VERTEX
8
OBJECT__9
10
14.767000
20
84.449997
30
2.000000
70
192
0
VERTEX
8
OBJECT__9
10
18.000000
20
86.000000
30
2.500000
70
192
0
VERTEX
8
OBJECT__9
10
18.000000
20
85.500000
30
2.000000
70
192
0
VERTEX
8
OBJECT__9
10
21.527000
20
84.853996
30
2.500000
70
192
0
VERTEX
8
OBJECT__9
10
21.233000
20
84.449997
30
2.000000
70
192
0
VERTEX
8
OBJECT__9
10
23.231001
20
81.699997
30
2.000000
70
192
0
VERTEX
8
OBJECT__9
10
22.458000
20
83.571999
30
2.500000
70
192
0
VERTEX
8
OBJECT__9
10
23.705999
20
81.853996
30
2.500000
70
192
0
VERTEX
8
OBJECT__9
10
23.705999
20
78.665001
30
2.500000
70
192
0
VERTEX
8
OBJECT__9
10
23.231001
20
78.300003
30
2.000000
70
192
0
VERTEX
8
OBJECT__9
10
21.527000
20
75.146004
30
2.500000
70
192
0
VERTEX
8
OBJECT__9
10
21.233000
20
75.550003
30
2.000000
70
192
0
VERTEX
8
OBJECT__9
10
20.528999
20
74.821999
30
2.500000
70
192
0
VERTEX
8
OBJECT__9
10
23.705999
20
78.146004
30
2.500000
70
192
0
VERTEX
8
OBJECT__9
10
14.473000
20
84.853996
30
2.500000
70
192
0
VERTEX
8
OBJECT__9
10
0
20
0
30
0
70
128
71
1
72
2
73
3
0
VERTEX
8
OBJECT__9
10
0
20
0
30
0
70
128
71
3
72
4
73
1
0
VERTEX
8
OBJECT__9
10
0
20
0
30
0
70
128
71
5
72
6
73
7
0
VERTEX
8
OBJECT__9
10
0
20
0
30
0
70
128
71
8
72
7
73
9
0
VERTEX
8
OBJECT__9
10
0
20
0
30
0
70
128
71
7
72
6
73
9
0
VERTEX
8
OBJECT__9
10
0
20
0
30
0
70
128
71
8
72
10
73
11
0
VERTEX
8
OBJECT__9
10
0
20
0
30
0
70
128
71
11
72
12
73
8
0
VERTEX
8
OBJECT__9
10
0
20
0
30
0
70
128
71
13
72
14
73
12
0
VERTEX
8
OBJECT__9
10
0
20
0
30
0
70
128
71
13
72
15
73
16
0
VERTEX
8
OBJECT__9
10
0
20
0
30
0
70
128
71
17
72
16
73
18
0
VERTEX
8
OBJECT__9
10
0
20
0
30
0
70
128
71
16
72
15
73
18
0
VERTEX
8
OBJECT__9
10
0
20
0
30
0
70
128
71
17
72
19
73
20
0
VERTEX
8
OBJECT__9
10
0
20
0
30
0
70
128
71
20
72
21
73
17
0
VERTEX
8
OBJECT__9
10
0
20
0
30
0
70
128
71
22
72
23
73
21
0
VERTEX
8
OBJECT__9
10
0
20
0
30
0
70
128
71
1
72
23
73
24
0
VERTEX
8
OBJECT__9
10
0
20
0
30
0
70
128
71
23
72
22
73
24
0
VERTEX
8
OBJECT__9
10
0
20
0
30
0
70
128
71
24
72
2
73
1
0
VERTEX
8
OBJECT__9
10
0
20
0
30
0
70
128
71
21
72
25
73
22
0
VERTEX
8
OBJECT__9
10
0
20
0
30
0
70
128
71
20
72
25
73
21
0
VERTEX
8
OBJECT__9
10
0
20
0
30
0
70
128
71
18
72
19
73
17
0
VERTEX
8
OBJECT__9
10
0
20
0
30
0
70
128
71
16
72
14
73
13
0
VERTEX
8
OBJECT__9
10
0
20
0
30
0
70
128
71
12
72
26
73
13
0
VERTEX
8
OBJECT__9
10
0
20
0
30
0
70
128
71
11
72
26
73
12
0
VERTEX
8
OBJECT__9
10
0
20
0
30
0
70
128
71
9
72
10
73
8
0
VERTEX
8
OBJECT__9
10
0
20
0
30
0
70
128
71
7
72
4
73
5
0
VERTEX
8
OBJECT__9
10
0
20
0
30
0
70
128
71
3
72
5
73
4
0
SEQEND
8
OBJECT__9
0
POLYLINE
8
OBJECT__10
66
1
70
64
71
10
72
8
62
253
0
VERTEX
8
OBJECT__10
10
18.000000
20
85.500000
30
2.000000
70
192
0
VERTEX
8
OBJECT__10
10
12.769000
20
78.300003
30
2.000000
70
192
0
VERTEX
8
OBJECT__10
10
12.769000
20
81.699997
30
2.000000
70
192
0
VERTEX
8
OBJECT__10
10
18.000000
20
74.500000
30
2.000000
70
192
0
VERTEX
8
OBJECT__10
10
14.767000
20
75.550003
30
2.000000
70
192
0
VERTEX
8
OBJECT__10
10
23.231001
20
81.699997
30
2.000000
70
192
0
VERTEX
8
OBJECT__10
10
23.231001
20
78.300003
30
2.000000
70
192
0
VERTEX
8
OBJECT__10
10
21.233000
20
84.449997
30
2.000000
70
192
0
VERTEX
8
OBJECT__10
10
21.233000
20
75.550003
30
2.000000
70
192
0
VERTEX
8
OBJECT__10
10
14.767000
20
84.449997
30
2.000000
70
192
0
VERTEX
8
OBJECT__10
10
0
20
0
30
0
70
128
71
1
72
2
73
3
0
VERTEX
8
OBJECT__10
10
0
20
0
30
0
70
128
71
1
72
4
73
5
0
VERTEX
8
OBJECT__10
10
0
20
0
30
0
70
128
71
4
72
6
73
7
0
VERTEX
8
OBJECT__10
10
0
20
0
30
0
70
128
71
4
72
1
73
8
0
VERTEX
8
OBJECT__10
10
0
20
0
30
0
70
128
71
5
72
2
73
1
0
VERTEX
8
OBJECT__10
10
0
20
0
30
0
70
128
71
8
72
6
73
4
0
VERTEX
8
OBJECT__10
10
0
20
0
30
0
70
128
71
7
72
9
73
4
0
VERTEX
8
OBJECT__10
10
0
20
0
30
0
70
128
71
3
72
10
73
1
0
SEQEND
8
OBJECT__10
0
POLYLINE
8
OBJECT__11
66
1
70
64
71
16
72
16
62
253
0
VERTEX
8
OBJECT__11
10
-10.607000
20
10.607000
30
46.000000
70
192
0
VERTEX
8
OBJECT__11
10
-10.607000
20
10.607000
30
53.000000
70
192
0
VERTEX
8
OBJECT__11
10
0.000000
20
15.000000
30
53.000000
70
192
0
VERTEX
8
OBJECT__11
10
-15.000000
20
0.000000
30
46.000000
70
192
0
VERTEX
8
OBJECT__11
10
-15.000000
20
0.000000
30
53.000000
70
192
0
VERTEX
8
OBJECT__11
10
-10.607000
20
-10.607000
30
46.000000
70
192
0
VERTEX
8
OBJECT__11
10
-10.607000
20
-10.607000
30
53.000000
70
192
0
VERTEX
8
OBJECT__11
10
0.000000
20
-15.000000
30
46.000000
70
192
0
VERTEX
8
OBJECT__11
10
0.000000
20
-15.000000
30
53.000000
70
192
0
VERTEX
8
OBJECT__11
10
10.607000
20
-10.607000
30
46.000000
70
192
0
VERTEX
8
OBJECT__11
10
10.607000
20
-10.607000
30
53.000000
70
192
0
VERTEX
8
OBJECT__11
10
15.000000
20
0.000000
30
46.000000
70
192
0
VERTEX
8
OBJECT__11
10
15.000000
20
0.000000
30
53.000000
70
192
0
VERTEX
8
OBJECT__11
10
10.607000
20
10.607000
30
46.000000
70
192
0
VERTEX
8
OBJECT__11
10
10.607000
20
10.607000
30
53.000000
70
192
0
VERTEX
8
OBJECT__11
10
0.000000
20
15.000000
30
46.000000
70
192
0
VERTEX
8
OBJECT__11
10
0
20
0
30
0
70
128
71
1
72
2
73
3
0
VERTEX
8
OBJECT__11
10
0
20
0
30
0
70
128
71
4
72
5
73
2
0
VERTEX
8
OBJECT__11
10
0
20
0
30
0
70
128
71
6
72
7
73
5
0
VERTEX
8
OBJECT__11
10
0
20
0
30
0
70
128
71
8
72
9
73
7
0
VERTEX
8
OBJECT__11
10
0
20
0
30
0
70
128
71
10
72
11
73
9
0
VERTEX
8
OBJECT__11
10
0
20
0
30
0
70
128
71
12
72
13
73
11
0
VERTEX
8
OBJECT__11
10
0
20
0
30
0
70
128
71
14
72
15
73
13
0
VERTEX
8
OBJECT__11
10
0
20
0
30
0
70
128
71
16
72
3
73
15
0
VERTEX
8
OBJECT__11
10
0
20
0
30
0
70
128
71
15
72
14
73
16
0
VERTEX
8
OBJECT__11
10
0
20
0
30
0
70
128
71
13
72
12
73
14
0
VERTEX
8
OBJECT__11
10
0
20
0
30
0
70
128
71
11
72
10
73
12
0
VERTEX
8
OBJECT__11
10
0
20
0
30
0
70
128
71
9
72
8
73
10
0
VERTEX
8
OBJECT__11
10
0
20
0
30
0
70
128
71
7
72
6
73
8
0
VERTEX
8
OBJECT__11
10
0
20
0
30
0
70
128
71
5
72
4
73
6
0
VERTEX
8
OBJECT__11
10
0
20
0
30
0
70
128
71
2
72
1
73
4
0
VERTEX
8
OBJECT__11
10
0
20
0
30
0
70
128
71
3
72
16
73
1
0
SEQEND
8
OBJECT__11
0
POLYLINE
8
OBJECT__12
66
1
70
64
71
15
72
15
62
253
0
VERTEX
8
OBJECT__12
10
-10.607000
20
10.607000
30
53.000000
70
192
0
VERTEX
8
OBJECT__12
10
-8.991000
20
7.170000
30
53.000000
70
192
0
VERTEX
8
OBJECT__12
10
0.000000
20
11.500000
30
53.000000
70
192
0
VERTEX
8
OBJECT__12
10
-15.000000
20
0.000000
30
53.000000
70
192
0
VERTEX
8
OBJECT__12
10
-11.212000
20
-2.559000
30
53.000000
70
192
0
VERTEX
8
OBJECT__12
10
0.000000
20
-15.000000
30
53.000000
70
192
0
VERTEX
8
OBJECT__12
10
10.607000
20
-10.607000
30
53.000000
70
192
0
VERTEX
8
OBJECT__12
10
4.990000
20
-10.361000
30
53.000000
70
192
0
VERTEX
8
OBJECT__12
10
-10.607000
20
-10.607000
30
53.000000
70
192
0
VERTEX
8
OBJECT__12
10
-4.990000
20
-10.361000
30
53.000000
70
192
0
VERTEX
8
OBJECT__12
10
15.000000
20
0.000000
30
53.000000
70
192
0
VERTEX
8
OBJECT__12
10
11.212000
20
-2.559000
30
53.000000
70
192
0
VERTEX
8
OBJECT__12
10
10.607000
20
10.607000
30
53.000000
70
192
0
VERTEX
8
OBJECT__12
10
8.991000
20
7.170000
30
53.000000
70
192
0
VERTEX
8
OBJECT__12
10
0.000000
20
15.000000
30
53.000000
70
192
0
VERTEX
8
OBJECT__12
10
0
20
0
30
0
70
128
71
1
72
2
73
3
0
VERTEX
8
OBJECT__12
10
0
20
0
30
0
70
128
71
4
72
5
73
2
0
VERTEX
8
OBJECT__12
10
0
20
0
30
0
70
128
71
6
72
7
73
8
0
VERTEX
8
OBJECT__12
10
0
20
0
30
0
70
128
71
2
72
1
73
4
0
VERTEX
8
OBJECT__12
10
0
20
0
30
0
70
128
71
9
72
10
73
5
0
VERTEX
8
OBJECT__12
10
0
20
0
30
0
70
128
71
8
72
10
73
6
0
VERTEX
8
OBJECT__12
10
0
20
0
30
0
70
128
71
7
72
11
73
12
0
VERTEX
8
OBJECT__12
10
0
20
0
30
0
70
128
71
11
72
13
73
14
0
VERTEX
8
OBJECT__12
10
0
20
0
30
0
70
128
71
13
72
15
73
3
0
VERTEX
8
OBJECT__12
10
0
20
0
30
0
70
128
71
5
72
4
73
9
0
VERTEX
8
OBJECT__12
10
0
20
0
30
0
70
128
71
12
72
8
73
7
0
VERTEX
8
OBJECT__12
10
0
20
0
30
0
70
128
71
3
72
14
73
13
0
VERTEX
8
OBJECT__12
10
0
20
0
30
0
70
128
71
10
72
9
73
6
0
VERTEX
8
OBJECT__12
10
0
20
0
30
0
70
128
71
3
72
15
73
1
0
VERTEX
8
OBJECT__12
10
0
20
0
30
0
70
128
71
14
72
12
73
11
0
SEQEND
8
OBJECT__12
0
POLYLINE
8
OBJECT__14
66
1
70
64
71
21
72
21
62
253
0
VERTEX
8
OBJECT__14
10
-8.991000
20
7.170000
30
53.000000
70
192
0
VERTEX
8
OBJECT__14
10
-8.991000
20
7.170000
30
54.000000
70
192
0
VERTEX
8
OBJECT__14
10
-4.496000
20
9.335000
30
54.000000
70
192
0
VERTEX
8
OBJECT__14
10
0.000000
20
11.500000
30
53.000000
70
192
0
VERTEX
8
OBJECT__14
10
-11.212000
20
-2.559000
30
53.000000
70
192
0
VERTEX
8
OBJECT__14
10
-11.212000
20
-2.559000
30
54.000000
70
192
0
VERTEX
8
OBJECT__14
10
-10.101000
20
2.306000
30
54.000000
70
192
0
VERTEX
8
OBJECT__14
10
-4.990000
20
-10.361000
30
53.000000
70
192
0
VERTEX
8
OBJECT__14
10
-4.990000
20
-10.361000
30
54.000000
70
192
0
VERTEX
8
OBJECT__14
10
-8.101000
20
-6.460000
30
54.000000
70
192
0
VERTEX
8
OBJECT__14
10
4.990000
20
-10.361000
30
53.000000
70
192
0
VERTEX
8
OBJECT__14
10
0.000000
20
-10.361000
30
54.000000
70
192
0
VERTEX
8
OBJECT__14
10
4.990000
20
-10.361000
30
54.000000
70
192
0
VERTEX
8
OBJECT__14
10
11.212000
20
-2.559000
30
53.000000
70
192
0
VERTEX
8
OBJECT__14
10
8.101000
20
-6.460000
30
54.000000
70
192
0
VERTEX
8
OBJECT__14
10
11.212000
20
-2.559000
30
54.000000
70
192
0
VERTEX
8
OBJECT__14
10
8.991000
20
7.170000
30
53.000000
70
192
0
VERTEX
8
OBJECT__14
10
8.991000
20
7.170000
30
54.000000
70
192
0
VERTEX
8
OBJECT__14
10
10.101000
20
2.306000
30
54.000000
70
192
0
VERTEX
8
OBJECT__14
10
0.000000
20
11.500000
30
54.000000
70
192
0
VERTEX
8
OBJECT__14
10
4.496000
20
9.335000
30
54.000000
70
192
0
VERTEX
8
OBJECT__14
10
0
20
0
30
0
70
128
71
1
72
2
73
3
0
VERTEX
8
OBJECT__14
10
0
20
0
30
0
70
128
71
3
72
4
73
1
0
VERTEX
8
OBJECT__14
10
0
20
0
30
0
70
128
71
5
72
6
73
7
0
VERTEX
8
OBJECT__14
10
0
20
0
30
0
70
128
71
7
72
1
73
5
0
VERTEX
8
OBJECT__14
10
0
20
0
30
0
70
128
71
8
72
9
73
10
0
VERTEX
8
OBJECT__14
10
0
20
0
30
0
70
128
71
10
72
5
73
8
0
VERTEX
8
OBJECT__14
10
0
20
0
30
0
70
128
71
8
72
11
73
12
0
VERTEX
8
OBJECT__14
10
0
20
0
30
0
70
128
71
11
72
13
73
12
0
VERTEX
8
OBJECT__14
10
0
20
0
30
0
70
128
71
11
72
14
73
15
0
VERTEX
8
OBJECT__14
10
0
20
0
30
0
70
128
71
14
72
16
73
15
0
VERTEX
8
OBJECT__14
10
0
20
0
30
0
70
128
71
17
72
18
73
19
0
VERTEX
8
OBJECT__14
10
0
20
0
30
0
70
128
71
19
72
14
73
17
0
VERTEX
8
OBJECT__14
10
0
20
0
30
0
70
128
71
4
72
20
73
21
0
VERTEX
8
OBJECT__14
10
0
20
0
30
0
70
128
71
21
72
17
73
4
0
VERTEX
8
OBJECT__14
10
0
20
0
30
0
70
128
71
21
72
18
73
17
0
VERTEX
8
OBJECT__14
10
0
20
0
30
0
70
128
71
19
72
16
73
14
0
VERTEX
8
OBJECT__14
10
0
20
0
30
0
70
128
71
15
72
13
73
11
0
VERTEX
8
OBJECT__14
10
0
20
0
30
0
70
128
71
12
72
9
73
8
0
VERTEX
8
OBJECT__14
10
0
20
0
30
0
70
128
71
10
72
6
73
5
0
VERTEX
8
OBJECT__14
10
0
20
0
30
0
70
128
71
7
72
2
73
1
0
VERTEX
8
OBJECT__14
10
0
20
0
30
0
70
128
71
3
72
20
73
4
0
SEQEND
8
OBJECT__14
0
POLYLINE
8
OBJECT__15
66
1
70
64
71
31
72
31
62
253
0
VERTEX
8
OBJECT__15
10
8.904000
20
-7.050000
30
150.000000
70
192
0
VERTEX
8
OBJECT__15
10
3.554000
20
-10.937000
30
150.000000
70
192
0
VERTEX
8
OBJECT__15
10
4.990000
20
-10.361000
30
54.000000
70
192
0
VERTEX
8
OBJECT__15
10
0.000000
20
-10.361000
30
54.000000
70
192
0
VERTEX
8
OBJECT__15
10
0.000000
20
-11.500000
30
150.000000
70
192
0
VERTEX
8
OBJECT__15
10
10.101000
20
2.306000
30
54.000000
70
192
0
VERTEX
8
OBJECT__15
10
10.720000
20
2.399000
30
150.000000
70
192
0
VERTEX
8
OBJECT__15
10
11.500000
20
0.000000
30
150.000000
70
192
0
VERTEX
8
OBJECT__15
10
9.304000
20
-6.760000
30
150.000000
70
192
0
VERTEX
8
OBJECT__15
10
8.101000
20
-6.460000
30
54.000000
70
192
0
VERTEX
8
OBJECT__15
10
11.212000
20
-2.559000
30
54.000000
70
192
0
VERTEX
8
OBJECT__15
10
4.767000
20
10.055000
30
150.000000
70
192
0
VERTEX
8
OBJECT__15
10
9.304000
20
6.760000
30
150.000000
70
192
0
VERTEX
8
OBJECT__15
10
8.991000
20
7.170000
30
54.000000
70
192
0
VERTEX
8
OBJECT__15
10
-3.554000
20
10.937000
30
150.000000
70
192
0
VERTEX
8
OBJECT__15
10
3.554000
20
10.937000
30
150.000000
70
192
0
VERTEX
8
OBJECT__15
10
0.000000
20
11.500000
30
54.000000
70
192
0
VERTEX
8
OBJECT__15
10
-4.496000
20
9.335000
30
54.000000
70
192
0
VERTEX
8
OBJECT__15
10
-4.767000
20
10.055000
30
150.000000
70
192
0
VERTEX
8
OBJECT__15
10
4.496000
20
9.335000
30
54.000000
70
192
0
VERTEX
8
OBJECT__15
10
-10.101000
20
2.306000
30
54.000000
70
192
0
VERTEX
8
OBJECT__15
10
-10.720000
20
2.399000
30
150.000000
70
192
0
VERTEX
8
OBJECT__15
10
-9.304000
20
6.760000
30
150.000000
70
192
0
VERTEX
8
OBJECT__15
10
-8.991000
20
7.170000
30
54.000000
70
192
0
VERTEX
8
OBJECT__15
10
-8.101000
20
-6.460000
30
54.000000
70
192
0
VERTEX
8
OBJECT__15
10
-8.904000
20
-7.050000
30
150.000000
70
192
0
VERTEX
8
OBJECT__15
10
-9.304000
20
-6.760000
30
150.000000
70
192
0
VERTEX
8
OBJECT__15
10
-11.212000
20
-2.559000
30
54.000000
70
192
0
VERTEX
8
OBJECT__15
10
-11.500000
20
0.000000
30
150.000000
70
192
0
VERTEX
8
OBJECT__15
10
-3.554000
20
-10.937000
30
150.000000
70
192
0
VERTEX
8
OBJECT__15
10
-4.990000
20
-10.361000
30
54.000000
70
192
0
VERTEX
8
OBJECT__15
10
0
20
0
30
0
70
128
71
1
72
2
73
3
0
VERTEX
8
OBJECT__15
10
0
20
0
30
0
70
128
71
4
72
3
73
2
0
VERTEX
8
OBJECT__15
10
0
20
0
30
0
70
128
71
2
72
5
73
4
0
VERTEX
8
OBJECT__15
10
0
20
0
30
0
70
128
71
6
72
7
73
8
0
VERTEX
8
OBJECT__15
10
0
20
0
30
0
70
128
71
9
72
10
73
11
0
VERTEX
8
OBJECT__15
10
0
20
0
30
0
70
128
71
11
72
8
73
9
0
VERTEX
8
OBJECT__15
10
0
20
0
30
0
70
128
71
9
72
1
73
10
0
VERTEX
8
OBJECT__15
10
0
20
0
30
0
70
128
71
12
72
13
73
14
0
VERTEX
8
OBJECT__15
10
0
20
0
30
0
70
128
71
6
72
14
73
13
0
VERTEX
8
OBJECT__15
10
0
20
0
30
0
70
128
71
13
72
7
73
6
0
VERTEX
8
OBJECT__15
10
0
20
0
30
0
70
128
71
15
72
16
73
17
0
VERTEX
8
OBJECT__15
10
0
20
0
30
0
70
128
71
18
72
19
73
15
0
VERTEX
8
OBJECT__15
10
0
20
0
30
0
70
128
71
20
72
17
73
16
0
VERTEX
8
OBJECT__15
10
0
20
0
30
0
70
128
71
16
72
12
73
20
0
VERTEX
8
OBJECT__15
10
0
20
0
30
0
70
128
71
21
72
22
73
23
0
VERTEX
8
OBJECT__15
10
0
20
0
30
0
70
128
71
19
72
18
73
24
0
VERTEX
8
OBJECT__15
10
0
20
0
30
0
70
128
71
24
72
23
73
19
0
VERTEX
8
OBJECT__15
10
0
20
0
30
0
70
128
71
25
72
26
73
27
0
VERTEX
8
OBJECT__15
10
0
20
0
30
0
70
128
71
27
72
28
73
25
0
VERTEX
8
OBJECT__15
10
0
20
0
30
0
70
128
71
27
72
29
73
28
0
VERTEX
8
OBJECT__15
10
0
20
0
30
0
70
128
71
21
72
28
73
29
0
VERTEX
8
OBJECT__15
10
0
20
0
30
0
70
128
71
29
72
22
73
21
0
VERTEX
8
OBJECT__15
10
0
20
0
30
0
70
128
71
4
72
5
73
30
0
VERTEX
8
OBJECT__15
10
0
20
0
30
0
70
128
71
26
72
25
73
31
0
VERTEX
8
OBJECT__15
10
0
20
0
30
0
70
128
71
31
72
30
73
26
0
VERTEX
8
OBJECT__15
10
0
20
0
30
0
70
128
71
30
72
31
73
4
0
VERTEX
8
OBJECT__15
10
0
20
0
30
0
70
128
71
23
72
24
73
21
0
VERTEX
8
OBJECT__15
10
0
20
0
30
0
70
128
71
17
72
18
73
15
0
VERTEX
8
OBJECT__15
10
0
20
0
30
0
70
128
71
14
72
20
73
12
0
VERTEX
8
OBJECT__15
10
0
20
0
30
0
70
128
71
8
72
11
73
6
0
VERTEX
8
OBJECT__15
10
0
20
0
30
0
70
128
71
3
72
10
73
1
0
SEQEND
8
OBJECT__15
0
POLYLINE
8
OBJECT__16
66
1
70
64
71
154
72
274
62
253
0
VERTEX
8
OBJECT__16
10
9.304000
20
-6.760000
30
150.000000
70
192
0
VERTEX
8
OBJECT__16
10
11.500000
20
0.000000
30
150.000000
70
192
0
VERTEX
8
OBJECT__16
10
13.147000
20
0.000000
30
164.367004
70
192
0
VERTEX
8
OBJECT__16
10
18.002001
20
0.000000
30
177.990005
70
192
0
VERTEX
8
OBJECT__16
10
16.030001
20
-6.760000
30
178.957993
70
192
0
VERTEX
8
OBJECT__16
10
25.813000
20
0.000000
30
190.160004
70
192
0
VERTEX
8
OBJECT__16
10
24.111000
20
-6.760000
30
191.548996
70
192
0
VERTEX
8
OBJECT__16
10
36.174999
20
0.000000
30
200.248001
70
192
0
VERTEX
8
OBJECT__16
10
34.832001
20
-6.760000
30
201.985992
70
192
0
VERTEX
8
OBJECT__16
10
48.550999
20
0.000000
30
207.729004
70
192
0
VERTEX
8
OBJECT__16
10
47.636002
20
-6.760000
30
209.725998
70
192
0
VERTEX
8
OBJECT__16
10
62.298000
20
0.000000
30
212.216995
70
192
0
VERTEX
8
OBJECT__16
10
61.859001
20
-6.760000
30
214.369003
70
192
0
VERTEX
8
OBJECT__16
10
76.705002
20
0.000000
30
213.477005
70
192
0
VERTEX
8
OBJECT__16
10
76.764000
20
-6.760000
30
215.673004
70
192
0
VERTEX
8
OBJECT__16
10
91.023003
20
0.000000
30
211.445007
70
192
0
VERTEX
8
OBJECT__16
10
91.577003
20
-6.760000
30
213.570007
70
192
0
VERTEX
8
OBJECT__16
10
104.510002
20
0.000000
30
206.225998
70
192
0
VERTEX
8
OBJECT__16
10
105.530998
20
-6.760000
30
208.171005
70
192
0
VERTEX
8
OBJECT__16
10
116.466003
20
0.000000
30
198.091003
70
192
0
VERTEX
8
OBJECT__16
10
117.901001
20
-6.760000
30
199.755005
70
192
0
VERTEX
8
OBJECT__16
10
126.272003
20
0.000000
30
187.462006
70
192
0
VERTEX
8
OBJECT__16
10
128.046005
20
-6.760000
30
188.757996
70
192
0
VERTEX
8
OBJECT__16
10
133.419006
20
0.000000
30
174.889999
70
192
0
VERTEX
8
OBJECT__16
10
135.438995
20
-6.760000
30
175.751007
70
192
0
VERTEX
8
OBJECT__16
10
137.535004
20
0.000000
30
161.026993
70
192
0
VERTEX
8
OBJECT__16
10
139.087006
20
-4.848000
30
161.300003
70
192
0
VERTEX
8
OBJECT__16
10
5.406000
20
-10.937000
30
166.164993
70
192
0
VERTEX
8
OBJECT__16
10
3.554000
20
-10.937000
30
150.000000
70
192
0
VERTEX
8
OBJECT__16
10
8.904000
20
-7.050000
30
150.000000
70
192
0
VERTEX
8
OBJECT__16
10
11.007000
20
-6.760000
30
164.863998
70
192
0
VERTEX
8
OBJECT__16
10
10.869000
20
-10.937000
30
181.492004
70
192
0
VERTEX
8
OBJECT__16
10
19.657000
20
-10.937000
30
195.186005
70
192
0
VERTEX
8
OBJECT__16
10
31.316000
20
-10.937000
30
206.535995
70
192
0
VERTEX
8
OBJECT__16
10
45.241001
20
-10.937000
30
214.953995
70
192
0
VERTEX
8
OBJECT__16
10
60.709000
20
-10.937000
30
220.001999
70
192
0
VERTEX
8
OBJECT__16
10
76.917999
20
-10.937000
30
221.421005
70
192
0
VERTEX
8
OBJECT__16
10
93.028000
20
-10.937000
30
219.134003
70
192
0
VERTEX
8
OBJECT__16
10
108.203003
20
-10.937000
30
213.263000
70
192
0
VERTEX
8
OBJECT__16
10
121.654999
20
-10.937000
30
204.110001
70
192
0
VERTEX
8
OBJECT__16
10
132.688004
20
-10.937000
30
192.149994
70
192
0
VERTEX
8
OBJECT__16
10
140.729004
20
-10.937000
30
178.005005
70
192
0
VERTEX
8
OBJECT__16
10
139.697998
20
-6.760000
30
161.408005
70
192
0
VERTEX
8
OBJECT__16
10
0.000000
20
-11.500000
30
150.000000
70
192
0
VERTEX
8
OBJECT__16
10
-1.517000
20
-10.937000
30
167.772995
70
192
0
VERTEX
8
OBJECT__16
10
-3.554000
20
-10.937000
30
150.000000
70
192
0
VERTEX
8
OBJECT__16
10
4.489000
20
-10.937000
30
184.625000
70
192
0
VERTEX
8
OBJECT__16
10
14.152000
20
-10.937000
30
199.681000
70
192
0
VERTEX
8
OBJECT__16
10
26.971001
20
-10.937000
30
212.160004
70
192
0
VERTEX
8
OBJECT__16
10
42.279999
20
-10.937000
30
221.414993
70
192
0
VERTEX
8
OBJECT__16
10
59.286999
20
-10.937000
30
226.966003
70
192
0
VERTEX
8
OBJECT__16
10
77.109001
20
-10.937000
30
228.524994
70
192
0
VERTEX
8
OBJECT__16
10
94.820999
20
-10.937000
30
226.011993
70
192
0
VERTEX
8
OBJECT__16
10
111.505997
20
-10.937000
30
219.556000
70
192
0
VERTEX
8
OBJECT__16
10
126.296997
20
-10.937000
30
209.492004
70
192
0
VERTEX
8
OBJECT__16
10
138.427002
20
-10.937000
30
196.343002
70
192
0
VERTEX
8
OBJECT__16
10
147.268005
20
-10.937000
30
180.789993
70
192
0
VERTEX
8
OBJECT__16
10
146.358002
20
-11.098000
30
162.582001
70
192
0
VERTEX
8
OBJECT__16
10
148.860992
20
-11.500000
30
163.024002
70
192
0
VERTEX
8
OBJECT__16
10
145.360992
20
-10.937000
30
162.406998
70
192
0
VERTEX
8
OBJECT__16
10
-8.904000
20
-7.050000
30
150.000000
70
192
0
VERTEX
8
OBJECT__16
10
-7.117000
20
-6.760000
30
169.074005
70
192
0
VERTEX
8
OBJECT__16
10
-9.304000
20
-6.760000
30
150.000000
70
192
0
VERTEX
8
OBJECT__16
10
-0.672000
20
-6.760000
30
187.160004
70
192
0
VERTEX
8
OBJECT__16
10
9.698000
20
-6.760000
30
203.317001
70
192
0
VERTEX
8
OBJECT__16
10
23.455000
20
-6.760000
30
216.710007
70
192
0
VERTEX
8
OBJECT__16
10
39.884998
20
-6.760000
30
226.643005
70
192
0
VERTEX
8
OBJECT__16
10
58.137001
20
-6.760000
30
232.600006
70
192
0
VERTEX
8
OBJECT__16
10
77.263000
20
-6.760000
30
234.272995
70
192
0
VERTEX
8
OBJECT__16
10
96.272003
20
-6.760000
30
231.576004
70
192
0
VERTEX
8
OBJECT__16
10
114.178001
20
-6.760000
30
224.647003
70
192
0
VERTEX
8
OBJECT__16
10
130.050995
20
-6.760000
30
213.847000
70
192
0
VERTEX
8
OBJECT__16
10
143.070007
20
-6.760000
30
199.735001
70
192
0
VERTEX
8
OBJECT__16
10
152.557999
20
-6.760000
30
183.044006
70
192
0
VERTEX
8
OBJECT__16
10
155.602997
20
-8.545000
30
164.212006
70
192
0
VERTEX
8
OBJECT__16
10
152.360001
20
-10.937000
30
163.641006
70
192
0
VERTEX
8
OBJECT__16
10
-9.257000
20
0.000000
30
169.570999
70
192
0
VERTEX
8
OBJECT__16
10
-11.500000
20
0.000000
30
150.000000
70
192
0
VERTEX
8
OBJECT__16
10
-2.644000
20
0.000000
30
188.128006
70
192
0
VERTEX
8
OBJECT__16
10
7.997000
20
0.000000
30
204.707001
70
192
0
VERTEX
8
OBJECT__16
10
22.112000
20
0.000000
30
218.447998
70
192
0
VERTEX
8
OBJECT__16
10
38.971001
20
0.000000
30
228.639008
70
192
0
VERTEX
8
OBJECT__16
10
57.698002
20
0.000000
30
234.751999
70
192
0
VERTEX
8
OBJECT__16
10
77.321999
20
0.000000
30
236.468994
70
192
0
VERTEX
8
OBJECT__16
10
96.825996
20
0.000000
30
233.701004
70
192
0
VERTEX
8
OBJECT__16
10
115.198997
20
0.000000
30
226.591995
70
192
0
VERTEX
8
OBJECT__16
10
131.485992
20
0.000000
30
215.509995
70
192
0
VERTEX
8
OBJECT__16
10
144.843002
20
0.000000
30
201.031006
70
192
0
VERTEX
8
OBJECT__16
10
154.578003
20
0.000000
30
183.904999
70
192
0
VERTEX
8
OBJECT__16
10
160.186005
20
0.000000
30
165.020996
70
192
0
VERTEX
8
OBJECT__16
10
-7.117000
20
6.760000
30
169.074005
70
192
0
VERTEX
8
OBJECT__16
10
-9.304000
20
6.760000
30
150.000000
70
192
0
VERTEX
8
OBJECT__16
10
-10.720000
20
2.399000
30
150.000000
70
192
0
VERTEX
8
OBJECT__16
10
-0.672000
20
6.760000
30
187.160004
70
192
0
VERTEX
8
OBJECT__16
10
9.698000
20
6.760000
30
203.317001
70
192
0
VERTEX
8
OBJECT__16
10
23.455000
20
6.760000
30
216.710007
70
192
0
VERTEX
8
OBJECT__16
10
39.884998
20
6.760000
30
226.643005
70
192
0
VERTEX
8
OBJECT__16
10
58.137001
20
6.760000
30
232.600006
70
192
0
VERTEX
8
OBJECT__16
10
77.263000
20
6.760000
30
234.272995
70
192
0
VERTEX
8
OBJECT__16
10
96.272003
20
6.760000
30
231.576004
70
192
0
VERTEX
8
OBJECT__16
10
114.178001
20
6.760000
30
224.647003
70
192
0
VERTEX
8
OBJECT__16
10
130.050995
20
6.760000
30
213.847000
70
192
0
VERTEX
8
OBJECT__16
10
143.070007
20
6.760000
30
199.735001
70
192
0
VERTEX
8
OBJECT__16
10
152.557999
20
6.760000
30
183.044006
70
192
0
VERTEX
8
OBJECT__16
10
158.022995
20
6.760000
30
164.639008
70
192
0
VERTEX
8
OBJECT__16
10
-1.517000
20
10.937000
30
167.772995
70
192
0
VERTEX
8
OBJECT__16
10
-4.767000
20
10.055000
30
150.000000
70
192
0
VERTEX
8
OBJECT__16
10
-3.554000
20
10.937000
30
150.000000
70
192
0
VERTEX
8
OBJECT__16
10
4.489000
20
10.937000
30
184.625000
70
192
0
VERTEX
8
OBJECT__16
10
14.152000
20
10.937000
30
199.681000
70
192
0
VERTEX
8
OBJECT__16
10
26.971001
20
10.937000
30
212.160004
70
192
0
VERTEX
8
OBJECT__16
10
42.279999
20
10.937000
30
221.414993
70
192
0
VERTEX
8
OBJECT__16
10
59.286999
20
10.937000
30
226.966003
70
192
0
VERTEX
8
OBJECT__16
10
77.109001
20
10.937000
30
228.524994
70
192
0
VERTEX
8
OBJECT__16
10
94.820999
20
10.937000
30
226.011993
70
192
0
VERTEX
8
OBJECT__16
10
111.505997
20
10.937000
30
219.556000
70
192
0
VERTEX
8
OBJECT__16
10
126.296997
20
10.937000
30
209.492004
70
192
0
VERTEX
8
OBJECT__16
10
138.427002
20
10.937000
30
196.343002
70
192
0
VERTEX
8
OBJECT__16
10
147.268005
20
10.937000
30
180.789993
70
192
0
VERTEX
8
OBJECT__16
10
155.602997
20
8.545000
30
164.212006
70
192
0
VERTEX
8
OBJECT__16
10
152.360001
20
10.937000
30
163.641006
70
192
0
VERTEX
8
OBJECT__16
10
5.406000
20
10.937000
30
166.164993
70
192
0
VERTEX
8
OBJECT__16
10
10.869000
20
10.937000
30
181.492004
70
192
0
VERTEX
8
OBJECT__16
10
19.657000
20
10.937000
30
195.186005
70
192
0
VERTEX
8
OBJECT__16
10
31.316000
20
10.937000
30
206.535995
70
192
0
VERTEX
8
OBJECT__16
10
45.241001
20
10.937000
30
214.953995
70
192
0
VERTEX
8
OBJECT__16
10
60.709000
20
10.937000
30
220.001999
70
192
0
VERTEX
8
OBJECT__16
10
76.917999
20
10.937000
30
221.421005
70
192
0
VERTEX
8
OBJECT__16
10
93.028000
20
10.937000
30
219.134003
70
192
0
VERTEX
8
OBJECT__16
10
108.203003
20
10.937000
30
213.263000
70
192
0
VERTEX
8
OBJECT__16
10
121.654999
20
10.937000
30
204.110001
70
192
0
VERTEX
8
OBJECT__16
10
132.688004
20
10.937000
30
192.149994
70
192
0
VERTEX
8
OBJECT__16
10
140.729004
20
10.937000
30
178.005005
70
192
0
VERTEX
8
OBJECT__16
10
146.339996
20
10.937000
30
162.578995
70
192
0
VERTEX
8
OBJECT__16
10
4.767000
20
10.055000
30
150.000000
70
192
0
VERTEX
8
OBJECT__16
10
11.007000
20
6.760000
30
164.863998
70
192
0
VERTEX
8
OBJECT__16
10
9.304000
20
6.760000
30
150.000000
70
192
0
VERTEX
8
OBJECT__16
10
16.030001
20
6.760000
30
178.957993
70
192
0
VERTEX
8
OBJECT__16
10
24.111000
20
6.760000
30
191.548996
70
192
0
VERTEX
8
OBJECT__16
10
34.832001
20
6.760000
30
201.985992
70
192
0
VERTEX
8
OBJECT__16
10
47.636002
20
6.760000
30
209.725998
70
192
0
VERTEX
8
OBJECT__16
10
61.859001
20
6.760000
30
214.369003
70
192
0
VERTEX
8
OBJECT__16
10
76.764000
20
6.760000
30
215.673004
70
192
0
VERTEX
8
OBJECT__16
10
91.577003
20
6.760000
30
213.570007
70
192
0
VERTEX
8
OBJECT__16
10
105.530998
20
6.760000
30
208.171005
70
192
0
VERTEX
8
OBJECT__16
10
117.901001
20
6.760000
30
199.755005
70
192
0
VERTEX
8
OBJECT__16
10
128.046005
20
6.760000
30
188.757996
70
192
0
VERTEX
8
OBJECT__16
10
135.438995
20
6.760000
30
175.751007
70
192
0
VERTEX
8
OBJECT__16
10
145.360992
20
10.937000
30
162.406998
70
192
0
VERTEX
8
OBJECT__16
10
139.697998
20
6.760000
30
161.408005
70
192
0
VERTEX
8
OBJECT__16
10
10.720000
20
2.399000
30
150.000000
70
192
0
VERTEX
8
OBJECT__16
10
139.087006
20
4.848000
30
161.300003
70
192
0
VERTEX
8
OBJECT__16
10
3.554000
20
10.937000
30
150.000000
70
192
0
VERTEX
8
OBJECT__16
10
158.022995
20
-6.760000
30
164.639008
70
192
0
VERTEX
8
OBJECT__16
10
0
20
0
30
0
70
128
71
1
72
2
73
3
0
VERTEX
8
OBJECT__16
10
0
20
0
30
0
70
128
71
3
72
4
73
5
0
VERTEX
8
OBJECT__16
10
0
20
0
30
0
70
128
71
4
72
6
73
7
0
VERTEX
8
OBJECT__16
10
0
20
0
30
0
70
128
71
6
72
8
73
9
0
VERTEX
8
OBJECT__16
10
0
20
0
30
0
70
128
71
8
72
10
73
11
0
VERTEX
8
OBJECT__16
10
0
20
0
30
0
70
128
71
10
72
12
73
13
0
VERTEX
8
OBJECT__16
10
0
20
0
30
0
70
128
71
12
72
14
73
15
0
VERTEX
8
OBJECT__16
10
0
20
0
30
0
70
128
71
14
72
16
73
17
0
VERTEX
8
OBJECT__16
10
0
20
0
30
0
70
128
71
16
72
18
73
19
0
VERTEX
8
OBJECT__16
10
0
20
0
30
0
70
128
71
18
72
20
73
21
0
VERTEX
8
OBJECT__16
10
0
20
0
30
0
70
128
71
20
72
22
73
23
0
VERTEX
8
OBJECT__16
10
0
20
0
30
0
70
128
71
22
72
24
73
25
0
VERTEX
8
OBJECT__16
10
0
20
0
30
0
70
128
71
24
72
26
73
27
0
VERTEX
8
OBJECT__16
10
0
20
0
30
0
70
128
71
27
72
25
73
24
0
VERTEX
8
OBJECT__16
10
0
20
0
30
0
70
128
71
28
72
29
73
30
0
VERTEX
8
OBJECT__16
10
0
20
0
30
0
70
128
71
30
72
31
73
28
0
VERTEX
8
OBJECT__16
10
0
20
0
30
0
70
128
71
31
72
5
73
32
0
VERTEX
8
OBJECT__16
10
0
20
0
30
0
70
128
71
5
72
7
73
33
0
VERTEX
8
OBJECT__16
10
0
20
0
30
0
70
128
71
7
72
9
73
34
0
VERTEX
8
OBJECT__16
10
0
20
0
30
0
70
128
71
9
72
11
73
35
0
VERTEX
8
OBJECT__16
10
0
20
0
30
0
70
128
71
11
72
13
73
36
0
VERTEX
8
OBJECT__16
10
0
20
0
30
0
70
128
71
13
72
15
73
37
0
VERTEX
8
OBJECT__16
10
0
20
0
30
0
70
128
71
15
72
17
73
38
0
VERTEX
8
OBJECT__16
10
0
20
0
30
0
70
128
71
17
72
19
73
39
0
VERTEX
8
OBJECT__16
10
0
20
0
30
0
70
128
71
19
72
21
73
40
0
VERTEX
8
OBJECT__16
10
0
20
0
30
0
70
128
71
21
72
23
73
41
0
VERTEX
8
OBJECT__16
10
0
20
0
30
0
70
128
71
23
72
25
73
42
0
VERTEX
8
OBJECT__16
10
0
20
0
30
0
70
128
71
42
72
25
73
43
0
VERTEX
8
OBJECT__16
10
0
20
0
30
0
70
128
71
44
72
29
73
28
0
VERTEX
8
OBJECT__16
10
0
20
0
30
0
70
128
71
45
72
46
73
44
0
VERTEX
8
OBJECT__16
10
0
20
0
30
0
70
128
71
28
72
32
73
47
0
VERTEX
8
OBJECT__16
10
0
20
0
30
0
70
128
71
32
72
33
73
48
0
VERTEX
8
OBJECT__16
10
0
20
0
30
0
70
128
71
33
72
34
73
49
0
VERTEX
8
OBJECT__16
10
0
20
0
30
0
70
128
71
34
72
35
73
50
0
VERTEX
8
OBJECT__16
10
0
20
0
30
0
70
128
71
35
72
36
73
51
0
VERTEX
8
OBJECT__16
10
0
20
0
30
0
70
128
71
36
72
37
73
52
0
VERTEX
8
OBJECT__16
10
0
20
0
30
0
70
128
71
37
72
38
73
53
0
VERTEX
8
OBJECT__16
10
0
20
0
30
0
70
128
71
38
72
39
73
54
0
VERTEX
8
OBJECT__16
10
0
20
0
30
0
70
128
71
39
72
40
73
55
0
VERTEX
8
OBJECT__16
10
0
20
0
30
0
70
128
71
40
72
41
73
56
0
VERTEX
8
OBJECT__16
10
0
20
0
30
0
70
128
71
41
72
42
73
57
0
VERTEX
8
OBJECT__16
10
0
20
0
30
0
70
128
71
57
72
42
73
58
0
VERTEX
8
OBJECT__16
10
0
20
0
30
0
70
128
71
58
72
59
73
57
0
VERTEX
8
OBJECT__16
10
0
20
0
30
0
70
128
71
42
72
60
73
58
0
VERTEX
8
OBJECT__16
10
0
20
0
30
0
70
128
71
61
72
46
73
45
0
VERTEX
8
OBJECT__16
10
0
20
0
30
0
70
128
71
62
72
63
73
61
0
VERTEX
8
OBJECT__16
10
0
20
0
30
0
70
128
71
45
72
47
73
64
0
VERTEX
8
OBJECT__16
10
0
20
0
30
0
70
128
71
47
72
48
73
65
0
VERTEX
8
OBJECT__16
10
0
20
0
30
0
70
128
71
48
72
49
73
66
0
VERTEX
8
OBJECT__16
10
0
20
0
30
0
70
128
71
49
72
50
73
67
0
VERTEX
8
OBJECT__16
10
0
20
0
30
0
70
128
71
50
72
51
73
68
0
VERTEX
8
OBJECT__16
10
0
20
0
30
0
70
128
71
51
72
52
73
69
0
VERTEX
8
OBJECT__16
10
0
20
0
30
0
70
128
71
52
72
53
73
70
0
VERTEX
8
OBJECT__16
10
0
20
0
30
0
70
128
71
53
72
54
73
71
0
VERTEX
8
OBJECT__16
10
0
20
0
30
0
70
128
71
54
72
55
73
72
0
VERTEX
8
OBJECT__16
10
0
20
0
30
0
70
128
71
55
72
56
73
73
0
VERTEX
8
OBJECT__16
10
0
20
0
30
0
70
128
71
56
72
57
73
74
0
VERTEX
8
OBJECT__16
10
0
20
0
30
0
70
128
71
75
72
74
73
57
0
VERTEX
8
OBJECT__16
10
0
20
0
30
0
70
128
71
57
72
76
73
75
0
VERTEX
8
OBJECT__16
10
0
20
0
30
0
70
128
71
77
72
78
73
63
0
VERTEX
8
OBJECT__16
10
0
20
0
30
0
70
128
71
62
72
64
73
79
0
VERTEX
8
OBJECT__16
10
0
20
0
30
0
70
128
71
64
72
65
73
80
0
VERTEX
8
OBJECT__16
10
0
20
0
30
0
70
128
71
65
72
66
73
81
0
VERTEX
8
OBJECT__16
10
0
20
0
30
0
70
128
71
66
72
67
73
82
0
VERTEX
8
OBJECT__16
10
0
20
0
30
0
70
128
71
67
72
68
73
83
0
VERTEX
8
OBJECT__16
10
0
20
0
30
0
70
128
71
68
72
69
73
84
0
VERTEX
8
OBJECT__16
10
0
20
0
30
0
70
128
71
69
72
70
73
85
0
VERTEX
8
OBJECT__16
10
0
20
0
30
0
70
128
71
70
72
71
73
86
0
VERTEX
8
OBJECT__16
10
0
20
0
30
0
70
128
71
71
72
72
73
87
0
VERTEX
8
OBJECT__16
10
0
20
0
30
0
70
128
71
72
72
73
73
88
0
VERTEX
8
OBJECT__16
10
0
20
0
30
0
70
128
71
73
72
74
73
89
0
VERTEX
8
OBJECT__16
10
0
20
0
30
0
70
128
71
90
72
89
73
74
0
VERTEX
8
OBJECT__16
10
0
20
0
30
0
70
128
71
91
72
92
73
93
0
VERTEX
8
OBJECT__16
10
0
20
0
30
0
70
128
71
93
72
77
73
91
0
VERTEX
8
OBJECT__16
10
0
20
0
30
0
70
128
71
77
72
79
73
94
0
VERTEX
8
OBJECT__16
10
0
20
0
30
0
70
128
71
79
72
80
73
95
0
VERTEX
8
OBJECT__16
10
0
20
0
30
0
70
128
71
80
72
81
73
96
0
VERTEX
8
OBJECT__16
10
0
20
0
30
0
70
128
71
81
72
82
73
97
0
VERTEX
8
OBJECT__16
10
0
20
0
30
0
70
128
71
82
72
83
73
98
0
VERTEX
8
OBJECT__16
10
0
20
0
30
0
70
128
71
83
72
84
73
99
0
VERTEX
8
OBJECT__16
10
0
20
0
30
0
70
128
71
84
72
85
73
100
0
VERTEX
8
OBJECT__16
10
0
20
0
30
0
70
128
71
85
72
86
73
101
0
VERTEX
8
OBJECT__16
10
0
20
0
30
0
70
128
71
86
72
87
73
102
0
VERTEX
8
OBJECT__16
10
0
20
0
30
0
70
128
71
87
72
88
73
103
0
VERTEX
8
OBJECT__16
10
0
20
0
30
0
70
128
71
88
72
89
73
104
0
VERTEX
8
OBJECT__16
10
0
20
0
30
0
70
128
71
90
72
105
73
104
0
VERTEX
8
OBJECT__16
10
0
20
0
30
0
70
128
71
91
72
106
73
107
0
VERTEX
8
OBJECT__16
10
0
20
0
30
0
70
128
71
106
72
108
73
107
0
VERTEX
8
OBJECT__16
10
0
20
0
30
0
70
128
71
91
72
94
73
109
0
VERTEX
8
OBJECT__16
10
0
20
0
30
0
70
128
71
94
72
95
73
110
0
VERTEX
8
OBJECT__16
10
0
20
0
30
0
70
128
71
95
72
96
73
111
0
VERTEX
8
OBJECT__16
10
0
20
0
30
0
70
128
71
96
72
97
73
112
0
VERTEX
8
OBJECT__16
10
0
20
0
30
0
70
128
71
97
72
98
73
113
0
VERTEX
8
OBJECT__16
10
0
20
0
30
0
70
128
71
98
72
99
73
114
0
VERTEX
8
OBJECT__16
10
0
20
0
30
0
70
128
71
99
72
100
73
115
0
VERTEX
8
OBJECT__16
10
0
20
0
30
0
70
128
71
100
72
101
73
116
0
VERTEX
8
OBJECT__16
10
0
20
0
30
0
70
128
71
101
72
102
73
117
0
VERTEX
8
OBJECT__16
10
0
20
0
30
0
70
128
71
102
72
103
73
118
0
VERTEX
8
OBJECT__16
10
0
20
0
30
0
70
128
71
103
72
104
73
119
0
VERTEX
8
OBJECT__16
10
0
20
0
30
0
70
128
71
120
72
121
73
119
0
VERTEX
8
OBJECT__16
10
0
20
0
30
0
70
128
71
104
72
105
73
120
0
VERTEX
8
OBJECT__16
10
0
20
0
30
0
70
128
71
108
72
106
73
122
0
VERTEX
8
OBJECT__16
10
0
20
0
30
0
70
128
71
106
72
109
73
123
0
VERTEX
8
OBJECT__16
10
0
20
0
30
0
70
128
71
109
72
110
73
124
0
VERTEX
8
OBJECT__16
10
0
20
0
30
0
70
128
71
110
72
111
73
125
0
VERTEX
8
OBJECT__16
10
0
20
0
30
0
70
128
71
111
72
112
73
126
0
VERTEX
8
OBJECT__16
10
0
20
0
30
0
70
128
71
112
72
113
73
127
0
VERTEX
8
OBJECT__16
10
0
20
0
30
0
70
128
71
113
72
114
73
128
0
VERTEX
8
OBJECT__16
10
0
20
0
30
0
70
128
71
114
72
115
73
129
0
VERTEX
8
OBJECT__16
10
0
20
0
30
0
70
128
71
115
72
116
73
130
0
VERTEX
8
OBJECT__16
10
0
20
0
30
0
70
128
71
116
72
117
73
131
0
VERTEX
8
OBJECT__16
10
0
20
0
30
0
70
128
71
117
72
118
73
132
0
VERTEX
8
OBJECT__16
10
0
20
0
30
0
70
128
71
118
72
119
73
133
0
VERTEX
8
OBJECT__16
10
0
20
0
30
0
70
128
71
119
72
121
73
134
0
VERTEX
8
OBJECT__16
10
0
20
0
30
0
70
128
71
134
72
133
73
119
0
VERTEX
8
OBJECT__16
10
0
20
0
30
0
70
128
71
135
72
122
73
136
0
VERTEX
8
OBJECT__16
10
0
20
0
30
0
70
128
71
136
72
137
73
135
0
VERTEX
8
OBJECT__16
10
0
20
0
30
0
70
128
71
122
72
123
73
138
0
VERTEX
8
OBJECT__16
10
0
20
0
30
0
70
128
71
123
72
124
73
139
0
VERTEX
8
OBJECT__16
10
0
20
0
30
0
70
128
71
124
72
125
73
140
0
VERTEX
8
OBJECT__16
10
0
20
0
30
0
70
128
71
125
72
126
73
141
0
VERTEX
8
OBJECT__16
10
0
20
0
30
0
70
128
71
126
72
127
73
142
0
VERTEX
8
OBJECT__16
10
0
20
0
30
0
70
128
71
127
72
128
73
143
0
VERTEX
8
OBJECT__16
10
0
20
0
30
0
70
128
71
128
72
129
73
144
0
VERTEX
8
OBJECT__16
10
0
20
0
30
0
70
128
71
129
72
130
73
145
0
VERTEX
8
OBJECT__16
10
0
20
0
30
0
70
128
71
130
72
131
73
146
0
VERTEX
8
OBJECT__16
10
0
20
0
30
0
70
128
71
131
72
132
73
147
0
VERTEX
8
OBJECT__16
10
0
20
0
30
0
70
128
71
132
72
133
73
148
0
VERTEX
8
OBJECT__16
10
0
20
0
30
0
70
128
71
133
72
149
73
150
0
VERTEX
8
OBJECT__16
10
0
20
0
30
0
70
128
71
136
72
3
73
151
0
VERTEX
8
OBJECT__16
10
0
20
0
30
0
70
128
71
3
72
2
73
151
0
VERTEX
8
OBJECT__16
10
0
20
0
30
0
70
128
71
136
72
138
73
4
0
VERTEX
8
OBJECT__16
10
0
20
0
30
0
70
128
71
138
72
139
73
6
0
VERTEX
8
OBJECT__16
10
0
20
0
30
0
70
128
71
139
72
140
73
8
0
VERTEX
8
OBJECT__16
10
0
20
0
30
0
70
128
71
140
72
141
73
10
0
VERTEX
8
OBJECT__16
10
0
20
0
30
0
70
128
71
141
72
142
73
12
0
VERTEX
8
OBJECT__16
10
0
20
0
30
0
70
128
71
142
72
143
73
14
0
VERTEX
8
OBJECT__16
10
0
20
0
30
0
70
128
71
143
72
144
73
16
0
VERTEX
8
OBJECT__16
10
0
20
0
30
0
70
128
71
144
72
145
73
18
0
VERTEX
8
OBJECT__16
10
0
20
0
30
0
70
128
71
145
72
146
73
20
0
VERTEX
8
OBJECT__16
10
0
20
0
30
0
70
128
71
146
72
147
73
22
0
VERTEX
8
OBJECT__16
10
0
20
0
30
0
70
128
71
147
72
148
73
24
0
VERTEX
8
OBJECT__16
10
0
20
0
30
0
70
128
71
24
72
148
73
152
0
VERTEX
8
OBJECT__16
10
0
20
0
30
0
70
128
71
148
72
150
73
152
0
VERTEX
8
OBJECT__16
10
0
20
0
30
0
70
128
71
152
72
26
73
24
0
VERTEX
8
OBJECT__16
10
0
20
0
30
0
70
128
71
24
72
22
73
147
0
VERTEX
8
OBJECT__16
10
0
20
0
30
0
70
128
71
22
72
20
73
146
0
VERTEX
8
OBJECT__16
10
0
20
0
30
0
70
128
71
20
72
18
73
145
0
VERTEX
8
OBJECT__16
10
0
20
0
30
0
70
128
71
18
72
16
73
144
0
VERTEX
8
OBJECT__16
10
0
20
0
30
0
70
128
71
16
72
14
73
143
0
VERTEX
8
OBJECT__16
10
0
20
0
30
0
70
128
71
14
72
12
73
142
0
VERTEX
8
OBJECT__16
10
0
20
0
30
0
70
128
71
12
72
10
73
141
0
VERTEX
8
OBJECT__16
10
0
20
0
30
0
70
128
71
10
72
8
73
140
0
VERTEX
8
OBJECT__16
10
0
20
0
30
0
70
128
71
8
72
6
73
139
0
VERTEX
8
OBJECT__16
10
0
20
0
30
0
70
128
71
6
72
4
73
138
0
VERTEX
8
OBJECT__16
10
0
20
0
30
0
70
128
71
4
72
3
73
136
0
VERTEX
8
OBJECT__16
10
0
20
0
30
0
70
128
71
151
72
137
73
136
0
VERTEX
8
OBJECT__16
10
0
20
0
30
0
70
128
71
150
72
148
73
133
0
VERTEX
8
OBJECT__16
10
0
20
0
30
0
70
128
71
148
72
147
73
132
0
VERTEX
8
OBJECT__16
10
0
20
0
30
0
70
128
71
147
72
146
73
131
0
VERTEX
8
OBJECT__16
10
0
20
0
30
0
70
128
71
146
72
145
73
130
0
VERTEX
8
OBJECT__16
10
0
20
0
30
0
70
128
71
145
72
144
73
129
0
VERTEX
8
OBJECT__16
10
0
20
0
30
0
70
128
71
144
72
143
73
128
0
VERTEX
8
OBJECT__16
10
0
20
0
30
0
70
128
71
143
72
142
73
127
0
VERTEX
8
OBJECT__16
10
0
20
0
30
0
70
128
71
142
72
141
73
126
0
VERTEX
8
OBJECT__16
10
0
20
0
30
0
70
128
71
141
72
140
73
125
0
VERTEX
8
OBJECT__16
10
0
20
0
30
0
70
128
71
140
72
139
73
124
0
VERTEX
8
OBJECT__16
10
0
20
0
30
0
70
128
71
139
72
138
73
123
0
VERTEX
8
OBJECT__16
10
0
20
0
30
0
70
128
71
138
72
136
73
122
0
VERTEX
8
OBJECT__16
10
0
20
0
30
0
70
128
71
135
72
153
73
122
0
VERTEX
8
OBJECT__16
10
0
20
0
30
0
70
128
71
134
72
149
73
133
0
VERTEX
8
OBJECT__16
10
0
20
0
30
0
70
128
71
133
72
132
73
118
0
VERTEX
8
OBJECT__16
10
0
20
0
30
0
70
128
71
132
72
131
73
117
0
VERTEX
8
OBJECT__16
10
0
20
0
30
0
70
128
71
131
72
130
73
116
0
VERTEX
8
OBJECT__16
10
0
20
0
30
0
70
128
71
130
72
129
73
115
0
VERTEX
8
OBJECT__16
10
0
20
0
30
0
70
128
71
129
72
128
73
114
0
VERTEX
8
OBJECT__16
10
0
20
0
30
0
70
128
71
128
72
127
73
113
0
VERTEX
8
OBJECT__16
10
0
20
0
30
0
70
128
71
127
72
126
73
112
0
VERTEX
8
OBJECT__16
10
0
20
0
30
0
70
128
71
126
72
125
73
111
0
VERTEX
8
OBJECT__16
10
0
20
0
30
0
70
128
71
125
72
124
73
110
0
VERTEX
8
OBJECT__16
10
0
20
0
30
0
70
128
71
124
72
123
73
109
0
VERTEX
8
OBJECT__16
10
0
20
0
30
0
70
128
71
123
72
122
73
106
0
VERTEX
8
OBJECT__16
10
0
20
0
30
0
70
128
71
122
72
153
73
108
0
VERTEX
8
OBJECT__16
10
0
20
0
30
0
70
128
71
119
72
104
73
120
0
VERTEX
8
OBJECT__16
10
0
20
0
30
0
70
128
71
119
72
118
73
103
0
VERTEX
8
OBJECT__16
10
0
20
0
30
0
70
128
71
118
72
117
73
102
0
VERTEX
8
OBJECT__16
10
0
20
0
30
0
70
128
71
117
72
116
73
101
0
VERTEX
8
OBJECT__16
10
0
20
0
30
0
70
128
71
116
72
115
73
100
0
VERTEX
8
OBJECT__16
10
0
20
0
30
0
70
128
71
115
72
114
73
99
0
VERTEX
8
OBJECT__16
10
0
20
0
30
0
70
128
71
114
72
113
73
98
0
VERTEX
8
OBJECT__16
10
0
20
0
30
0
70
128
71
113
72
112
73
97
0
VERTEX
8
OBJECT__16
10
0
20
0
30
0
70
128
71
112
72
111
73
96
0
VERTEX
8
OBJECT__16
10
0
20
0
30
0
70
128
71
111
72
110
73
95
0
VERTEX
8
OBJECT__16
10
0
20
0
30
0
70
128
71
110
72
109
73
94
0
VERTEX
8
OBJECT__16
10
0
20
0
30
0
70
128
71
109
72
106
73
91
0
VERTEX
8
OBJECT__16
10
0
20
0
30
0
70
128
71
107
72
92
73
91
0
VERTEX
8
OBJECT__16
10
0
20
0
30
0
70
128
71
104
72
89
73
90
0
VERTEX
8
OBJECT__16
10
0
20
0
30
0
70
128
71
104
72
103
73
88
0
VERTEX
8
OBJECT__16
10
0
20
0
30
0
70
128
71
103
72
102
73
87
0
VERTEX
8
OBJECT__16
10
0
20
0
30
0
70
128
71
102
72
101
73
86
0
VERTEX
8
OBJECT__16
10
0
20
0
30
0
70
128
71
101
72
100
73
85
0
VERTEX
8
OBJECT__16
10
0
20
0
30
0
70
128
71
100
72
99
73
84
0
VERTEX
8
OBJECT__16
10
0
20
0
30
0
70
128
71
99
72
98
73
83
0
VERTEX
8
OBJECT__16
10
0
20
0
30
0
70
128
71
98
72
97
73
82
0
VERTEX
8
OBJECT__16
10
0
20
0
30
0
70
128
71
97
72
96
73
81
0
VERTEX
8
OBJECT__16
10
0
20
0
30
0
70
128
71
96
72
95
73
80
0
VERTEX
8
OBJECT__16
10
0
20
0
30
0
70
128
71
95
72
94
73
79
0
VERTEX
8
OBJECT__16
10
0
20
0
30
0
70
128
71
94
72
91
73
77
0
VERTEX
8
OBJECT__16
10
0
20
0
30
0
70
128
71
93
72
78
73
77
0
VERTEX
8
OBJECT__16
10
0
20
0
30
0
70
128
71
74
72
154
73
90
0
VERTEX
8
OBJECT__16
10
0
20
0
30
0
70
128
71
89
72
88
73
73
0
VERTEX
8
OBJECT__16
10
0
20
0
30
0
70
128
71
88
72
87
73
72
0
VERTEX
8
OBJECT__16
10
0
20
0
30
0
70
128
71
87
72
86
73
71
0
VERTEX
8
OBJECT__16
10
0
20
0
30
0
70
128
71
86
72
85
73
70
0
VERTEX
8
OBJECT__16
10
0
20
0
30
0
70
128
71
85
72
84
73
69
0
VERTEX
8
OBJECT__16
10
0
20
0
30
0
70
128
71
84
72
83
73
68
0
VERTEX
8
OBJECT__16
10
0
20
0
30
0
70
128
71
83
72
82
73
67
0
VERTEX
8
OBJECT__16
10
0
20
0
30
0
70
128
71
82
72
81
73
66
0
VERTEX
8
OBJECT__16
10
0
20
0
30
0
70
128
71
81
72
80
73
65
0
VERTEX
8
OBJECT__16
10
0
20
0
30
0
70
128
71
80
72
79
73
64
0
VERTEX
8
OBJECT__16
10
0
20
0
30
0
70
128
71
79
72
77
73
62
0
VERTEX
8
OBJECT__16
10
0
20
0
30
0
70
128
71
63
72
62
73
77
0
VERTEX
8
OBJECT__16
10
0
20
0
30
0
70
128
71
75
72
154
73
74
0
VERTEX
8
OBJECT__16
10
0
20
0
30
0
70
128
71
74
72
73
73
56
0
VERTEX
8
OBJECT__16
10
0
20
0
30
0
70
128
71
73
72
72
73
55
0
VERTEX
8
OBJECT__16
10
0
20
0
30
0
70
128
71
72
72
71
73
54
0
VERTEX
8
OBJECT__16
10
0
20
0
30
0
70
128
71
71
72
70
73
53
0
VERTEX
8
OBJECT__16
10
0
20
0
30
0
70
128
71
70
72
69
73
52
0
VERTEX
8
OBJECT__16
10
0
20
0
30
0
70
128
71
69
72
68
73
51
0
VERTEX
8
OBJECT__16
10
0
20
0
30
0
70
128
71
68
72
67
73
50
0
VERTEX
8
OBJECT__16
10
0
20
0
30
0
70
128
71
67
72
66
73
49
0
VERTEX
8
OBJECT__16
10
0
20
0
30
0
70
128
71
66
72
65
73
48
0
VERTEX
8
OBJECT__16
10
0
20
0
30
0
70
128
71
65
72
64
73
47
0
VERTEX
8
OBJECT__16
10
0
20
0
30
0
70
128
71
64
72
62
73
45
0
VERTEX
8
OBJECT__16
10
0
20
0
30
0
70
128
71
45
72
62
73
61
0
VERTEX
8
OBJECT__16
10
0
20
0
30
0
70
128
71
59
72
76
73
57
0
VERTEX
8
OBJECT__16
10
0
20
0
30
0
70
128
71
57
72
56
73
41
0
VERTEX
8
OBJECT__16
10
0
20
0
30
0
70
128
71
56
72
55
73
40
0
VERTEX
8
OBJECT__16
10
0
20
0
30
0
70
128
71
55
72
54
73
39
0
VERTEX
8
OBJECT__16
10
0
20
0
30
0
70
128
71
54
72
53
73
38
0
VERTEX
8
OBJECT__16
10
0
20
0
30
0
70
128
71
53
72
52
73
37
0
VERTEX
8
OBJECT__16
10
0
20
0
30
0
70
128
71
52
72
51
73
36
0
VERTEX
8
OBJECT__16
10
0
20
0
30
0
70
128
71
51
72
50
73
35
0
VERTEX
8
OBJECT__16
10
0
20
0
30
0
70
128
71
50
72
49
73
34
0
VERTEX
8
OBJECT__16
10
0
20
0
30
0
70
128
71
49
72
48
73
33
0
VERTEX
8
OBJECT__16
10
0
20
0
30
0
70
128
71
48
72
47
73
32
0
VERTEX
8
OBJECT__16
10
0
20
0
30
0
70
128
71
47
72
45
73
28
0
VERTEX
8
OBJECT__16
10
0
20
0
30
0
70
128
71
28
72
45
73
44
0
VERTEX
8
OBJECT__16
10
0
20
0
30
0
70
128
71
43
72
60
73
42
0
VERTEX
8
OBJECT__16
10
0
20
0
30
0
70
128
71
42
72
41
73
23
0
VERTEX
8
OBJECT__16
10
0
20
0
30
0
70
128
71
41
72
40
73
21
0
VERTEX
8
OBJECT__16
10
0
20
0
30
0
70
128
71
40
72
39
73
19
0
VERTEX
8
OBJECT__16
10
0
20
0
30
0
70
128
71
39
72
38
73
17
0
VERTEX
8
OBJECT__16
10
0
20
0
30
0
70
128
71
38
72
37
73
15
0
VERTEX
8
OBJECT__16
10
0
20
0
30
0
70
128
71
37
72
36
73
13
0
VERTEX
8
OBJECT__16
10
0
20
0
30
0
70
128
71
36
72
35
73
11
0
VERTEX
8
OBJECT__16
10
0
20
0
30
0
70
128
71
35
72
34
73
9
0
VERTEX
8
OBJECT__16
10
0
20
0
30
0
70
128
71
34
72
33
73
7
0
VERTEX
8
OBJECT__16
10
0
20
0
30
0
70
128
71
33
72
32
73
5
0
VERTEX
8
OBJECT__16
10
0
20
0
30
0
70
128
71
32
72
28
73
31
0
VERTEX
8
OBJECT__16
10
0
20
0
30
0
70
128
71
30
72
1
73
31
0
VERTEX
8
OBJECT__16
10
0
20
0
30
0
70
128
71
27
72
43
73
25
0
VERTEX
8
OBJECT__16
10
0
20
0
30
0
70
128
71
25
72
23
73
22
0
VERTEX
8
OBJECT__16
10
0
20
0
30
0
70
128
71
23
72
21
73
20
0
VERTEX
8
OBJECT__16
10
0
20
0
30
0
70
128
71
21
72
19
73
18
0
VERTEX
8
OBJECT__16
10
0
20
0
30
0
70
128
71
19
72
17
73
16
0
VERTEX
8
OBJECT__16
10
0
20
0
30
0
70
128
71
17
72
15
73
14
0
VERTEX
8
OBJECT__16
10
0
20
0
30
0
70
128
71
15
72
13
73
12
0
VERTEX
8
OBJECT__16
10
0
20
0
30
0
70
128
71
13
72
11
73
10
0
VERTEX
8
OBJECT__16
10
0
20
0
30
0
70
128
71
11
72
9
73
8
0
VERTEX
8
OBJECT__16
10
0
20
0
30
0
70
128
71
9
72
7
73
6
0
VERTEX
8
OBJECT__16
10
0
20
0
30
0
70
128
71
7
72
5
73
4
0
VERTEX
8
OBJECT__16
10
0
20
0
30
0
70
128
71
5
72
31
73
3
0
VERTEX
8
OBJECT__16
10
0
20
0
30
0
70
128
71
3
72
31
73
1
0
SEQEND
8
OBJECT__16
0
POLYLINE
8
OBJECT__17
66
1
70
64
71
25
72
25
62
253
0
VERTEX
8
OBJECT__17
10
161.835999
20
0.000000
30
155.664993
70
192
0
VERTEX
8
OBJECT__17
10
160.186005
20
0.000000
30
165.020996
70
192
0
VERTEX
8
OBJECT__17
10
158.022995
20
-6.760000
30
164.639008
70
192
0
VERTEX
8
OBJECT__17
10
157.570999
20
-8.991000
30
154.912994
70
192
0
VERTEX
8
OBJECT__17
10
150.509995
20
-11.500000
30
153.667999
70
192
0
VERTEX
8
OBJECT__17
10
148.860992
20
-11.500000
30
163.024002
70
192
0
VERTEX
8
OBJECT__17
10
146.358002
20
-11.098000
30
162.582001
70
192
0
VERTEX
8
OBJECT__17
10
155.602997
20
-8.545000
30
164.212006
70
192
0
VERTEX
8
OBJECT__17
10
152.360001
20
-10.937000
30
163.641006
70
192
0
VERTEX
8
OBJECT__17
10
147.990005
20
-11.212000
30
153.223999
70
192
0
VERTEX
8
OBJECT__17
10
145.360992
20
-10.937000
30
162.406998
70
192
0
VERTEX
8
OBJECT__17
10
139.697998
20
-6.760000
30
161.408005
70
192
0
VERTEX
8
OBJECT__17
10
140.307007
20
-4.990000
30
151.869003
70
192
0
VERTEX
8
OBJECT__17
10
139.087006
20
-4.848000
30
161.300003
70
192
0
VERTEX
8
OBJECT__17
10
137.535004
20
0.000000
30
161.026993
70
192
0
VERTEX
8
OBJECT__17
10
140.307007
20
4.990000
30
151.869003
70
192
0
VERTEX
8
OBJECT__17
10
147.990005
20
11.212000
30
153.223999
70
192
0
VERTEX
8
OBJECT__17
10
139.697998
20
6.760000
30
161.408005
70
192
0
VERTEX
8
OBJECT__17
10
139.087006
20
4.848000
30
161.300003
70
192
0
VERTEX
8
OBJECT__17
10
145.360992
20
10.937000
30
162.406998
70
192
0
VERTEX
8
OBJECT__17
10
146.339996
20
10.937000
30
162.578995
70
192
0
VERTEX
8
OBJECT__17
10
152.360001
20
10.937000
30
163.641006
70
192
0
VERTEX
8
OBJECT__17
10
157.570999
20
8.991000
30
154.912994
70
192
0
VERTEX
8
OBJECT__17
10
158.022995
20
6.760000
30
164.639008
70
192
0
VERTEX
8
OBJECT__17
10
155.602997
20
8.545000
30
164.212006
70
192
0
VERTEX
8
OBJECT__17
10
0
20
0
30
0
70
128
71
1
72
2
73
3
0
VERTEX
8
OBJECT__17
10
0
20
0
30
0
70
128
71
3
72
4
73
1
0
VERTEX
8
OBJECT__17
10
0
20
0
30
0
70
128
71
5
72
6
73
7
0
VERTEX
8
OBJECT__17
10
0
20
0
30
0
70
128
71
4
72
8
73
9
0
VERTEX
8
OBJECT__17
10
0
20
0
30
0
70
128
71
9
72
5
73
4
0
VERTEX
8
OBJECT__17
10
0
20
0
30
0
70
128
71
9
72
6
73
5
0
VERTEX
8
OBJECT__17
10
0
20
0
30
0
70
128
71
10
72
11
73
12
0
VERTEX
8
OBJECT__17
10
0
20
0
30
0
70
128
71
10
72
7
73
11
0
VERTEX
8
OBJECT__17
10
0
20
0
30
0
70
128
71
12
72
13
73
10
0
VERTEX
8
OBJECT__17
10
0
20
0
30
0
70
128
71
13
72
14
73
15
0
VERTEX
8
OBJECT__17
10
0
20
0
30
0
70
128
71
15
72
16
73
13
0
VERTEX
8
OBJECT__17
10
0
20
0
30
0
70
128
71
17
72
16
73
18
0
VERTEX
8
OBJECT__17
10
0
20
0
30
0
70
128
71
16
72
19
73
18
0
VERTEX
8
OBJECT__17
10
0
20
0
30
0
70
128
71
18
72
20
73
17
0
VERTEX
8
OBJECT__17
10
0
20
0
30
0
70
128
71
17
72
21
73
22
0
VERTEX
8
OBJECT__17
10
0
20
0
30
0
70
128
71
22
72
23
73
17
0
VERTEX
8
OBJECT__17
10
0
20
0
30
0
70
128
71
1
72
23
73
24
0
VERTEX
8
OBJECT__17
10
0
20
0
30
0
70
128
71
23
72
25
73
24
0
VERTEX
8
OBJECT__17
10
0
20
0
30
0
70
128
71
24
72
2
73
1
0
VERTEX
8
OBJECT__17
10
0
20
0
30
0
70
128
71
22
72
25
73
23
0
VERTEX
8
OBJECT__17
10
0
20
0
30
0
70
128
71
20
72
21
73
17
0
VERTEX
8
OBJECT__17
10
0
20
0
30
0
70
128
71
15
72
19
73
16
0
VERTEX
8
OBJECT__17
10
0
20
0
30
0
70
128
71
12
72
14
73
13
0
VERTEX
8
OBJECT__17
10
0
20
0
30
0
70
128
71
7
72
10
73
5
0
VERTEX
8
OBJECT__17
10
0
20
0
30
0
70
128
71
3
72
8
73
4
0
SEQEND
8
OBJECT__17
0
POLYLINE
8
OBJECT__18
66
1
70
64
71
8
72
6
62
253
0
VERTEX
8
OBJECT__18
10
147.990005
20
-11.212000
30
153.223999
70
192
0
VERTEX
8
OBJECT__18
10
140.307007
20
-4.990000
30
151.869003
70
192
0
VERTEX
8
OBJECT__18
10
140.307007
20
4.990000
30
151.869003
70
192
0
VERTEX
8
OBJECT__18
10
157.570999
20
-8.991000
30
154.912994
70
192
0
VERTEX
8
OBJECT__18
10
147.990005
20
11.212000
30
153.223999
70
192
0
VERTEX
8
OBJECT__18
10
157.570999
20
8.991000
30
154.912994
70
192
0
VERTEX
8
OBJECT__18
10
150.509995
20
-11.500000
30
153.667999
70
192
0
VERTEX
8
OBJECT__18
10
161.835999
20
0.000000
30
155.664993
70
192
0
VERTEX
8
OBJECT__18
10
0
20
0
30
0
70
128
71
1
72
2
73
3
0
VERTEX
8
OBJECT__18
10
0
20
0
30
0
70
128
71
4
72
5
73
6
0
VERTEX
8
OBJECT__18
10
0
20
0
30
0
70
128
71
5
72
7
73
1
0
VERTEX
8
OBJECT__18
10
0
20
0
30
0
70
128
71
6
72
8
73
4
0
VERTEX
8
OBJECT__18
10
0
20
0
30
0
70
128
71
4
72
7
73
5
0
VERTEX
8
OBJECT__18
10
0
20
0
30
0
70
128
71
3
72
5
73
1
0
SEQEND
8
OBJECT__18
0
POLYLINE
8
OBJECT__19
66
1
70
64
71
7
72
5
62
253
0
VERTEX
8
OBJECT__19
10
12.638000
20
-81.223999
30
78.000000
70
192
0
VERTEX
8
OBJECT__19
10
20.386000
20
-84.955002
30
78.000000
70
192
0
VERTEX
8
OBJECT__19
10
23.362000
20
-81.223999
30
78.000000
70
192
0
VERTEX
8
OBJECT__19
10
22.299999
20
-76.570999
30
78.000000
70
192
0
VERTEX
8
OBJECT__19
10
18.000000
20
-74.500000
30
78.000000
70
192
0
VERTEX
8
OBJECT__19
10
13.700000
20
-76.570999
30
78.000000
70
192
0
VERTEX
8
OBJECT__19
10
15.614000
20
-84.955002
30
78.000000
70
192
0
VERTEX
8
OBJECT__19
10
0
20
0
30
0
70
128
71
1
72
2
73
3
0
VERTEX
8
OBJECT__19
10
0
20
0
30
0
70
128
71
4
72
5
73
6
0
VERTEX
8
OBJECT__19
10
0
20
0
30
0
70
128
71
1
72
7
73
2
0
VERTEX
8
OBJECT__19
10
0
20
0
30
0
70
128
71
3
72
4
73
1
0
VERTEX
8
OBJECT__19
10
0
20
0
30
0
70
128
71
6
72
1
73
4
0
SEQEND
8
OBJECT__19
0
POLYLINE
8
OBJECT__20
66
1
70
64
71
19
72
19
62
253
0
VERTEX
8
OBJECT__20
10
18.000000
20
-74.500000
30
78.000000
70
192
0
VERTEX
8
OBJECT__20
10
22.299999
20
-76.570999
30
78.000000
70
192
0
VERTEX
8
OBJECT__20
10
21.311001
20
-75.594002
30
77.500000
70
192
0
VERTEX
8
OBJECT__20
10
22.691000
20
-76.259003
30
77.500000
70
192
0
VERTEX
8
OBJECT__20
10
23.850000
20
-81.334999
30
77.500000
70
192
0
VERTEX
8
OBJECT__20
10
20.386000
20
-84.955002
30
78.000000
70
192
0
VERTEX
8
OBJECT__20
10
20.603001
20
-85.405998
30
77.500000
70
192
0
VERTEX
8
OBJECT__20
10
23.541000
20
-81.722000
30
77.500000
70
192
0
VERTEX
8
OBJECT__20
10
23.362000
20
-81.223999
30
78.000000
70
192
0
VERTEX
8
OBJECT__20
10
15.614000
20
-84.955002
30
78.000000
70
192
0
VERTEX
8
OBJECT__20
10
15.397000
20
-85.405998
30
77.500000
70
192
0
VERTEX
8
OBJECT__20
10
18.000000
20
-85.405998
30
77.500000
70
192
0
VERTEX
8
OBJECT__20
10
12.638000
20
-81.223999
30
78.000000
70
192
0
VERTEX
8
OBJECT__20
10
12.459000
20
-81.722000
30
77.500000
70
192
0
VERTEX
8
OBJECT__20
10
12.150000
20
-81.334999
30
77.500000
70
192
0
VERTEX
8
OBJECT__20
10
13.700000
20
-76.570999
30
78.000000
70
192
0
VERTEX
8
OBJECT__20
10
18.000000
20
-74.000000
30
77.500000
70
192
0
VERTEX
8
OBJECT__20
10
14.689000
20
-75.594002
30
77.500000
70
192
0
VERTEX
8
OBJECT__20
10
13.309000
20
-76.259003
30
77.500000
70
192
0
VERTEX
8
OBJECT__20
10
0
20
0
30
0
70
128
71
1
72
2
73
3
0
VERTEX
8
OBJECT__20
10
0
20
0
30
0
70
128
71
2
72
4
73
3
0
VERTEX
8
OBJECT__20
10
0
20
0
30
0
70
128
71
5
72
4
73
2
0
VERTEX
8
OBJECT__20
10
0
20
0
30
0
70
128
71
6
72
7
73
8
0
VERTEX
8
OBJECT__20
10
0
20
0
30
0
70
128
71
8
72
9
73
6
0
VERTEX
8
OBJECT__20
10
0
20
0
30
0
70
128
71
10
72
11
73
12
0
VERTEX
8
OBJECT__20
10
0
20
0
30
0
70
128
71
12
72
6
73
10
0
VERTEX
8
OBJECT__20
10
0
20
0
30
0
70
128
71
10
72
13
73
14
0
VERTEX
8
OBJECT__20
10
0
20
0
30
0
70
128
71
13
72
15
73
14
0
VERTEX
8
OBJECT__20
10
0
20
0
30
0
70
128
71
15
72
13
73
16
0
VERTEX
8
OBJECT__20
10
0
20
0
30
0
70
128
71
1
72
17
73
18
0
VERTEX
8
OBJECT__20
10
0
20
0
30
0
70
128
71
18
72
16
73
1
0
VERTEX
8
OBJECT__20
10
0
20
0
30
0
70
128
71
18
72
19
73
16
0
VERTEX
8
OBJECT__20
10
0
20
0
30
0
70
128
71
16
72
19
73
15
0
VERTEX
8
OBJECT__20
10
0
20
0
30
0
70
128
71
14
72
11
73
10
0
VERTEX
8
OBJECT__20
10
0
20
0
30
0
70
128
71
12
72
7
73
6
0
VERTEX
8
OBJECT__20
10
0
20
0
30
0
70
128
71
8
72
5
73
9
0
VERTEX
8
OBJECT__20
10
0
20
0
30
0
70
128
71
2
72
9
73
5
0
VERTEX
8
OBJECT__20
10
0
20
0
30
0
70
128
71
3
72
17
73
1
0
SEQEND
8
OBJECT__20
0
POLYLINE
8
OBJECT__22
66
1
70
64
71
79
72
82
62
253
0
VERTEX
8
OBJECT__22
10
23.541000
20
-81.722000
30
77.500000
70
192
0
VERTEX
8
OBJECT__22
10
20.603001
20
-85.405998
30
77.500000
70
192
0
VERTEX
8
OBJECT__22
10
20.603001
20
-85.405998
30
2.500000
70
192
0
VERTEX
8
OBJECT__22
10
18.000000
20
-85.405998
30
77.500000
70
192
0
VERTEX
8
OBJECT__22
10
18.000000
20
-85.405998
30
2.500000
70
192
0
VERTEX
8
OBJECT__22
10
12.459000
20
-81.722000
30
2.500000
70
192
0
VERTEX
8
OBJECT__22
10
15.397000
20
-85.405998
30
2.500000
70
192
0
VERTEX
8
OBJECT__22
10
15.397000
20
-85.405998
30
77.500000
70
192
0
VERTEX
8
OBJECT__22
10
21.311001
20
-75.594002
30
2.500000
70
192
0
VERTEX
8
OBJECT__22
10
19.834999
20
-74.288002
30
7.154000
70
192
0
VERTEX
8
OBJECT__22
10
21.459000
20
-75.098000
30
7.558000
70
192
0
VERTEX
8
OBJECT__22
10
18.000000
20
-74.000000
30
2.500000
70
192
0
VERTEX
8
OBJECT__22
10
18.000000
20
-74.000000
30
7.000000
70
192
0
VERTEX
8
OBJECT__22
10
14.689000
20
-75.594002
30
2.500000
70
192
0
VERTEX
8
OBJECT__22
10
16.896999
20
-74.101997
30
7.055000
70
192
0
VERTEX
8
OBJECT__22
10
14.911000
20
-74.856003
30
7.443000
70
192
0
VERTEX
8
OBJECT__22
10
14.516000
20
-75.195999
30
7.591000
70
192
0
VERTEX
8
OBJECT__22
10
21.311001
20
-75.594002
30
77.500000
70
192
0
VERTEX
8
OBJECT__22
10
23.979000
20
-79.500000
30
27.233000
70
192
0
VERTEX
8
OBJECT__22
10
23.761999
20
-78.325996
30
27.370001
70
192
0
VERTEX
8
OBJECT__22
10
22.823000
20
-76.431000
30
27.886000
70
192
0
VERTEX
8
OBJECT__22
10
23.981001
20
-79.526001
30
27.231001
70
192
0
VERTEX
8
OBJECT__22
10
22.771000
20
-76.379997
30
27.907000
70
192
0
VERTEX
8
OBJECT__22
10
23.997999
20
-79.830002
30
27.072001
70
192
0
VERTEX
8
OBJECT__22
10
23.992001
20
-79.692001
30
27.179001
70
192
0
VERTEX
8
OBJECT__22
10
21.518000
20
-75.154999
30
28.417999
70
192
0
VERTEX
8
OBJECT__22
10
23.850000
20
-81.334999
30
77.500000
70
192
0
VERTEX
8
OBJECT__22
10
24.000000
20
-79.956001
30
26.867001
70
192
0
VERTEX
8
OBJECT__22
10
23.997999
20
-79.848999
30
27.041000
70
192
0
VERTEX
8
OBJECT__22
10
22.691000
20
-76.259003
30
77.500000
70
192
0
VERTEX
8
OBJECT__22
10
23.541000
20
-81.722000
30
2.500000
70
192
0
VERTEX
8
OBJECT__22
10
24.000000
20
-80.000000
30
9.383000
70
192
0
VERTEX
8
OBJECT__22
10
24.000000
20
-80.000000
30
26.617001
70
192
0
VERTEX
8
OBJECT__22
10
24.000000
20
-79.974998
30
9.192000
70
192
0
VERTEX
8
OBJECT__22
10
23.999001
20
-79.898003
30
9.016000
70
192
0
VERTEX
8
OBJECT__22
10
23.996000
20
-79.788002
30
8.887000
70
192
0
VERTEX
8
OBJECT__22
10
23.997999
20
-79.849998
30
8.959000
70
192
0
VERTEX
8
OBJECT__22
10
23.990000
20
-79.653999
30
8.803000
70
192
0
VERTEX
8
OBJECT__22
10
23.850000
20
-81.334999
30
2.500000
70
192
0
VERTEX
8
OBJECT__22
10
22.691000
20
-76.259003
30
2.500000
70
192
0
VERTEX
8
OBJECT__22
10
21.518000
20
-75.154999
30
7.582000
70
192
0
VERTEX
8
OBJECT__22
10
22.823000
20
-76.431000
30
8.114000
70
192
0
VERTEX
8
OBJECT__22
10
23.761999
20
-78.325996
30
8.630000
70
192
0
VERTEX
8
OBJECT__22
10
23.979000
20
-79.500000
30
8.767000
70
192
0
VERTEX
8
OBJECT__22
10
14.689000
20
-75.594002
30
77.500000
70
192
0
VERTEX
8
OBJECT__22
10
18.000000
20
-74.000000
30
77.500000
70
192
0
VERTEX
8
OBJECT__22
10
18.000000
20
-74.000000
30
29.000000
70
192
0
VERTEX
8
OBJECT__22
10
19.834999
20
-74.288002
30
28.846001
70
192
0
VERTEX
8
OBJECT__22
10
16.896999
20
-74.101997
30
28.945000
70
192
0
VERTEX
8
OBJECT__22
10
21.459000
20
-75.098000
30
28.441999
70
192
0
VERTEX
8
OBJECT__22
10
14.911000
20
-74.856003
30
28.556999
70
192
0
VERTEX
8
OBJECT__22
10
12.040000
20
-79.306000
30
8.754000
70
192
0
VERTEX
8
OBJECT__22
10
12.470000
20
-77.671997
30
8.491000
70
192
0
VERTEX
8
OBJECT__22
10
12.173000
20
-78.568001
30
8.629000
70
192
0
VERTEX
8
OBJECT__22
10
12.021000
20
-79.500000
30
8.767000
70
192
0
VERTEX
8
OBJECT__22
10
13.309000
20
-76.259003
30
2.500000
70
192
0
VERTEX
8
OBJECT__22
10
12.150000
20
-81.334999
30
2.500000
70
192
0
VERTEX
8
OBJECT__22
10
13.381000
20
-76.170998
30
8.017000
70
192
0
VERTEX
8
OBJECT__22
10
12.019000
20
-79.526001
30
8.769000
70
192
0
VERTEX
8
OBJECT__22
10
12.008000
20
-79.692001
30
8.821000
70
192
0
VERTEX
8
OBJECT__22
10
12.002000
20
-79.830002
30
8.928000
70
192
0
VERTEX
8
OBJECT__22
10
12.000000
20
-79.956001
30
9.133000
70
192
0
VERTEX
8
OBJECT__22
10
12.002000
20
-79.848999
30
8.959000
70
192
0
VERTEX
8
OBJECT__22
10
12.459000
20
-81.722000
30
77.500000
70
192
0
VERTEX
8
OBJECT__22
10
12.000000
20
-79.974998
30
26.808001
70
192
0
VERTEX
8
OBJECT__22
10
12.000000
20
-80.000000
30
26.617001
70
192
0
VERTEX
8
OBJECT__22
10
12.000000
20
-80.000000
30
9.383000
70
192
0
VERTEX
8
OBJECT__22
10
12.010000
20
-79.653999
30
27.197001
70
192
0
VERTEX
8
OBJECT__22
10
12.004000
20
-79.788002
30
27.113001
70
192
0
VERTEX
8
OBJECT__22
10
12.002000
20
-79.849998
30
27.041000
70
192
0
VERTEX
8
OBJECT__22
10
12.001000
20
-79.898003
30
26.983999
70
192
0
VERTEX
8
OBJECT__22
10
14.516000
20
-75.195999
30
28.409000
70
192
0
VERTEX
8
OBJECT__22
10
12.150000
20
-81.334999
30
77.500000
70
192
0
VERTEX
8
OBJECT__22
10
13.309000
20
-76.259003
30
77.500000
70
192
0
VERTEX
8
OBJECT__22
10
13.230000
20
-76.418999
30
27.905001
70
192
0
VERTEX
8
OBJECT__22
10
12.470000
20
-77.671997
30
27.509001
70
192
0
VERTEX
8
OBJECT__22
10
12.040000
20
-79.306000
30
27.246000
70
192
0
VERTEX
8
OBJECT__22
10
13.381000
20
-76.170998
30
27.983000
70
192
0
VERTEX
8
OBJECT__22
10
12.021000
20
-79.500000
30
27.233000
70
192
0
VERTEX
8
OBJECT__22
10
0
20
0
30
0
70
128
71
1
72
2
73
3
0
VERTEX
8
OBJECT__22
10
0
20
0
30
0
70
128
71
3
72
2
73
4
0
VERTEX
8
OBJECT__22
10
0
20
0
30
0
70
128
71
4
72
5
73
3
0
VERTEX
8
OBJECT__22
10
0
20
0
30
0
70
128
71
6
72
7
73
8
0
VERTEX
8
OBJECT__22
10
0
20
0
30
0
70
128
71
8
72
7
73
5
0
VERTEX
8
OBJECT__22
10
0
20
0
30
0
70
128
71
5
72
4
73
8
0
VERTEX
8
OBJECT__22
10
0
20
0
30
0
70
128
71
9
72
10
73
11
0
VERTEX
8
OBJECT__22
10
0
20
0
30
0
70
128
71
12
72
13
73
10
0
VERTEX
8
OBJECT__22
10
0
20
0
30
0
70
128
71
12
72
14
73
15
0
VERTEX
8
OBJECT__22
10
0
20
0
30
0
70
128
71
15
72
13
73
12
0
VERTEX
8
OBJECT__22
10
0
20
0
30
0
70
128
71
14
72
16
73
15
0
VERTEX
8
OBJECT__22
10
0
20
0
30
0
70
128
71
10
72
9
73
12
0
VERTEX
8
OBJECT__22
10
0
20
0
30
0
70
128
71
14
72
17
73
16
0
VERTEX
8
OBJECT__22
10
0
20
0
30
0
70
128
71
18
72
19
73
20
0
VERTEX
8
OBJECT__22
10
0
20
0
30
0
70
128
71
20
72
21
73
18
0
VERTEX
8
OBJECT__22
10
0
20
0
30
0
70
128
71
18
72
22
73
19
0
VERTEX
8
OBJECT__22
10
0
20
0
30
0
70
128
71
21
72
23
73
18
0
VERTEX
8
OBJECT__22
10
0
20
0
30
0
70
128
71
18
72
24
73
25
0
VERTEX
8
OBJECT__22
10
0
20
0
30
0
70
128
71
25
72
22
73
18
0
VERTEX
8
OBJECT__22
10
0
20
0
30
0
70
128
71
23
72
26
73
18
0
VERTEX
8
OBJECT__22
10
0
20
0
30
0
70
128
71
27
72
28
73
29
0
VERTEX
8
OBJECT__22
10
0
20
0
30
0
70
128
71
29
72
30
73
27
0
VERTEX
8
OBJECT__22
10
0
20
0
30
0
70
128
71
29
72
24
73
30
0
VERTEX
8
OBJECT__22
10
0
20
0
30
0
70
128
71
24
72
18
73
30
0
VERTEX
8
OBJECT__22
10
0
20
0
30
0
70
128
71
27
72
1
73
28
0
VERTEX
8
OBJECT__22
10
0
20
0
30
0
70
128
71
31
72
32
73
33
0
VERTEX
8
OBJECT__22
10
0
20
0
30
0
70
128
71
31
72
34
73
32
0
VERTEX
8
OBJECT__22
10
0
20
0
30
0
70
128
71
33
72
1
73
31
0
VERTEX
8
OBJECT__22
10
0
20
0
30
0
70
128
71
31
72
35
73
34
0
VERTEX
8
OBJECT__22
10
0
20
0
30
0
70
128
71
31
72
36
73
37
0
VERTEX
8
OBJECT__22
10
0
20
0
30
0
70
128
71
37
72
35
73
31
0
VERTEX
8
OBJECT__22
10
0
20
0
30
0
70
128
71
31
72
38
73
36
0
VERTEX
8
OBJECT__22
10
0
20
0
30
0
70
128
71
38
72
31
73
39
0
VERTEX
8
OBJECT__22
10
0
20
0
30
0
70
128
71
40
72
9
73
41
0
VERTEX
8
OBJECT__22
10
0
20
0
30
0
70
128
71
39
72
40
73
42
0
VERTEX
8
OBJECT__22
10
0
20
0
30
0
70
128
71
42
72
43
73
39
0
VERTEX
8
OBJECT__22
10
0
20
0
30
0
70
128
71
43
72
44
73
39
0
VERTEX
8
OBJECT__22
10
0
20
0
30
0
70
128
71
41
72
42
73
40
0
VERTEX
8
OBJECT__22
10
0
20
0
30
0
70
128
71
39
72
44
73
38
0
VERTEX
8
OBJECT__22
10
0
20
0
30
0
70
128
71
33
72
28
73
1
0
VERTEX
8
OBJECT__22
10
0
20
0
30
0
70
128
71
45
72
46
73
47
0
VERTEX
8
OBJECT__22
10
0
20
0
30
0
70
128
71
18
72
48
73
47
0
VERTEX
8
OBJECT__22
10
0
20
0
30
0
70
128
71
47
72
46
73
18
0
VERTEX
8
OBJECT__22
10
0
20
0
30
0
70
128
71
47
72
49
73
45
0
VERTEX
8
OBJECT__22
10
0
20
0
30
0
70
128
71
18
72
26
73
50
0
VERTEX
8
OBJECT__22
10
0
20
0
30
0
70
128
71
50
72
48
73
18
0
VERTEX
8
OBJECT__22
10
0
20
0
30
0
70
128
71
49
72
51
73
45
0
VERTEX
8
OBJECT__22
10
0
20
0
30
0
70
128
71
52
72
53
73
54
0
VERTEX
8
OBJECT__22
10
0
20
0
30
0
70
128
71
54
72
55
73
52
0
VERTEX
8
OBJECT__22
10
0
20
0
30
0
70
128
71
56
72
57
73
53
0
VERTEX
8
OBJECT__22
10
0
20
0
30
0
70
128
71
57
72
54
73
53
0
VERTEX
8
OBJECT__22
10
0
20
0
30
0
70
128
71
56
72
58
73
17
0
VERTEX
8
OBJECT__22
10
0
20
0
30
0
70
128
71
17
72
14
73
56
0
VERTEX
8
OBJECT__22
10
0
20
0
30
0
70
128
71
57
72
59
73
55
0
VERTEX
8
OBJECT__22
10
0
20
0
30
0
70
128
71
55
72
54
73
57
0
VERTEX
8
OBJECT__22
10
0
20
0
30
0
70
128
71
53
72
58
73
56
0
VERTEX
8
OBJECT__22
10
0
20
0
30
0
70
128
71
60
72
59
73
57
0
VERTEX
8
OBJECT__22
10
0
20
0
30
0
70
128
71
57
72
6
73
60
0
VERTEX
8
OBJECT__22
10
0
20
0
30
0
70
128
71
6
72
61
73
60
0
VERTEX
8
OBJECT__22
10
0
20
0
30
0
70
128
71
6
72
62
73
63
0
VERTEX
8
OBJECT__22
10
0
20
0
30
0
70
128
71
63
72
61
73
6
0
VERTEX
8
OBJECT__22
10
0
20
0
30
0
70
128
71
64
72
65
73
66
0
VERTEX
8
OBJECT__22
10
0
20
0
30
0
70
128
71
66
72
6
73
64
0
VERTEX
8
OBJECT__22
10
0
20
0
30
0
70
128
71
66
72
67
73
6
0
VERTEX
8
OBJECT__22
10
0
20
0
30
0
70
128
71
64
72
68
73
69
0
VERTEX
8
OBJECT__22
10
0
20
0
30
0
70
128
71
70
72
71
73
64
0
VERTEX
8
OBJECT__22
10
0
20
0
30
0
70
128
71
69
72
70
73
64
0
VERTEX
8
OBJECT__22
10
0
20
0
30
0
70
128
71
71
72
65
73
64
0
VERTEX
8
OBJECT__22
10
0
20
0
30
0
70
128
71
67
72
62
73
6
0
VERTEX
8
OBJECT__22
10
0
20
0
30
0
70
128
71
72
72
73
73
74
0
VERTEX
8
OBJECT__22
10
0
20
0
30
0
70
128
71
64
72
75
73
76
0
VERTEX
8
OBJECT__22
10
0
20
0
30
0
70
128
71
76
72
77
73
64
0
VERTEX
8
OBJECT__22
10
0
20
0
30
0
70
128
71
64
72
73
73
72
0
VERTEX
8
OBJECT__22
10
0
20
0
30
0
70
128
71
72
72
78
73
64
0
VERTEX
8
OBJECT__22
10
0
20
0
30
0
70
128
71
78
72
75
73
64
0
VERTEX
8
OBJECT__22
10
0
20
0
30
0
70
128
71
77
72
79
73
64
0
VERTEX
8
OBJECT__22
10
0
20
0
30
0
70
128
71
74
72
45
73
72
0
VERTEX
8
OBJECT__22
10
0
20
0
30
0
70
128
71
79
72
68
73
64
0
VERTEX
8
OBJECT__22
10
0
20
0
30
0
70
128
71
51
72
72
73
45
0
VERTEX
8
OBJECT__22
10
0
20
0
30
0
70
128
71
11
72
41
73
9
0
VERTEX
8
OBJECT__22
10
0
20
0
30
0
70
128
71
8
72
64
73
6
0
VERTEX
8
OBJECT__22
10
0
20
0
30
0
70
128
71
3
72
31
73
1
0
SEQEND
8
OBJECT__22
0
POLYLINE
8
OBJECT__23
66
1
70
64
71
22
72
22
62
253
0
VERTEX
8
OBJECT__23
10
28.247000
20
-79.853996
30
14.421000
70
192
0
VERTEX
8
OBJECT__23
10
28.247000
20
-79.853996
30
21.579000
70
192
0
VERTEX
8
OBJECT__23
10
27.913000
20
-80.000000
30
21.462000
70
192
0
VERTEX
8
OBJECT__23
10
28.385000
20
-79.500000
30
14.373000
70
192
0
VERTEX
8
OBJECT__23
10
28.385000
20
-79.500000
30
20.448000
70
192
0
VERTEX
8
OBJECT__23
10
28.385000
20
-79.500000
30
21.627001
70
192
0
VERTEX
8
OBJECT__23
10
23.997999
20
-79.830002
30
27.072001
70
192
0
VERTEX
8
OBJECT__23
10
23.997999
20
-79.848999
30
27.041000
70
192
0
VERTEX
8
OBJECT__23
10
23.992001
20
-79.692001
30
27.179001
70
192
0
VERTEX
8
OBJECT__23
10
23.981001
20
-79.526001
30
27.231001
70
192
0
VERTEX
8
OBJECT__23
10
23.979000
20
-79.500000
30
27.233000
70
192
0
VERTEX
8
OBJECT__23
10
24.000000
20
-79.956001
30
26.867001
70
192
0
VERTEX
8
OBJECT__23
10
24.000000
20
-80.000000
30
26.617001
70
192
0
VERTEX
8
OBJECT__23
10
24.000000
20
-79.974998
30
9.192000
70
192
0
VERTEX
8
OBJECT__23
10
23.999001
20
-79.898003
30
9.016000
70
192
0
VERTEX
8
OBJECT__23
10
27.913000
20
-80.000000
30
14.538000
70
192
0
VERTEX
8
OBJECT__23
10
24.000000
20
-80.000000
30
9.383000
70
192
0
VERTEX
8
OBJECT__23
10
23.997999
20
-79.849998
30
8.959000
70
192
0
VERTEX
8
OBJECT__23
10
26.134001
20
-79.500000
30
11.508000
70
192
0
VERTEX
8
OBJECT__23
10
23.996000
20
-79.788002
30
8.887000
70
192
0
VERTEX
8
OBJECT__23
10
23.990000
20
-79.653999
30
8.803000
70
192
0
VERTEX
8
OBJECT__23
10
23.979000
20
-79.500000
30
8.767000
70
192
0
VERTEX
8
OBJECT__23
10
0
20
0
30
0
70
128
71
1
72
2
73
3
0
VERTEX
8
OBJECT__23
10
0
20
0
30
0
70
128
71
1
72
4
73
5
0
VERTEX
8
OBJECT__23
10
0
20
0
30
0
70
128
71
5
72
2
73
1
0
VERTEX
8
OBJECT__23
10
0
20
0
30
0
70
128
71
6
72
7
73
8
0
VERTEX
8
OBJECT__23
10
0
20
0
30
0
70
128
71
6
72
9
73
7
0
VERTEX
8
OBJECT__23
10
0
20
0
30
0
70
128
71
6
72
10
73
9
0
VERTEX
8
OBJECT__23
10
0
20
0
30
0
70
128
71
6
72
11
73
10
0
VERTEX
8
OBJECT__23
10
0
20
0
30
0
70
128
71
2
72
12
73
13
0
VERTEX
8
OBJECT__23
10
0
20
0
30
0
70
128
71
2
72
8
73
12
0
VERTEX
8
OBJECT__23
10
0
20
0
30
0
70
128
71
1
72
14
73
15
0
VERTEX
8
OBJECT__23
10
0
20
0
30
0
70
128
71
1
72
16
73
17
0
VERTEX
8
OBJECT__23
10
0
20
0
30
0
70
128
71
17
72
14
73
1
0
VERTEX
8
OBJECT__23
10
0
20
0
30
0
70
128
71
1
72
18
73
19
0
VERTEX
8
OBJECT__23
10
0
20
0
30
0
70
128
71
19
72
20
73
21
0
VERTEX
8
OBJECT__23
10
0
20
0
30
0
70
128
71
19
72
18
73
20
0
VERTEX
8
OBJECT__23
10
0
20
0
30
0
70
128
71
21
72
22
73
19
0
VERTEX
8
OBJECT__23
10
0
20
0
30
0
70
128
71
19
72
4
73
1
0
VERTEX
8
OBJECT__23
10
0
20
0
30
0
70
128
71
15
72
18
73
1
0
VERTEX
8
OBJECT__23
10
0
20
0
30
0
70
128
71
13
72
3
73
2
0
VERTEX
8
OBJECT__23
10
0
20
0
30
0
70
128
71
8
72
2
73
6
0
VERTEX
8
OBJECT__23
10
0
20
0
30
0
70
128
71
5
72
6
73
2
0
VERTEX
8
OBJECT__23
10
0
20
0
30
0
70
128
71
3
72
16
73
1
0
SEQEND
8
OBJECT__23
0
POLYLINE
8
OBJECT__24
66
1
70
64
71
22
72
22
62
253
0
VERTEX
8
OBJECT__24
10
7.753000
20
-79.853996
30
14.421000
70
192
0
VERTEX
8
OBJECT__24
10
8.087000
20
-80.000000
30
14.538000
70
192
0
VERTEX
8
OBJECT__24
10
8.087000
20
-80.000000
30
21.462000
70
192
0
VERTEX
8
OBJECT__24
10
7.753000
20
-79.853996
30
21.579000
70
192
0
VERTEX
8
OBJECT__24
10
7.615000
20
-79.500000
30
20.448000
70
192
0
VERTEX
8
OBJECT__24
10
7.615000
20
-79.500000
30
21.627001
70
192
0
VERTEX
8
OBJECT__24
10
9.866000
20
-79.500000
30
11.508000
70
192
0
VERTEX
8
OBJECT__24
10
12.008000
20
-79.692001
30
8.821000
70
192
0
VERTEX
8
OBJECT__24
10
12.002000
20
-79.830002
30
8.928000
70
192
0
VERTEX
8
OBJECT__24
10
12.019000
20
-79.526001
30
8.769000
70
192
0
VERTEX
8
OBJECT__24
10
12.021000
20
-79.500000
30
8.767000
70
192
0
VERTEX
8
OBJECT__24
10
7.615000
20
-79.500000
30
14.373000
70
192
0
VERTEX
8
OBJECT__24
10
12.002000
20
-79.848999
30
8.959000
70
192
0
VERTEX
8
OBJECT__24
10
12.000000
20
-79.956001
30
9.133000
70
192
0
VERTEX
8
OBJECT__24
10
12.000000
20
-80.000000
30
9.383000
70
192
0
VERTEX
8
OBJECT__24
10
12.000000
20
-79.974998
30
26.808001
70
192
0
VERTEX
8
OBJECT__24
10
12.001000
20
-79.898003
30
26.983999
70
192
0
VERTEX
8
OBJECT__24
10
12.000000
20
-80.000000
30
26.617001
70
192
0
VERTEX
8
OBJECT__24
10
12.004000
20
-79.788002
30
27.113001
70
192
0
VERTEX
8
OBJECT__24
10
12.010000
20
-79.653999
30
27.197001
70
192
0
VERTEX
8
OBJECT__24
10
12.002000
20
-79.849998
30
27.041000
70
192
0
VERTEX
8
OBJECT__24
10
12.021000
20
-79.500000
30
27.233000
70
192
0
VERTEX
8
OBJECT__24
10
0
20
0
30
0
70
128
71
1
72
2
73
3
0
VERTEX
8
OBJECT__24
10
0
20
0
30
0
70
128
71
1
72
4
73
5
0
VERTEX
8
OBJECT__24
10
0
20
0
30
0
70
128
71
4
72
6
73
5
0
VERTEX
8
OBJECT__24
10
0
20
0
30
0
70
128
71
7
72
8
73
9
0
VERTEX
8
OBJECT__24
10
0
20
0
30
0
70
128
71
7
72
10
73
8
0
VERTEX
8
OBJECT__24
10
0
20
0
30
0
70
128
71
7
72
11
73
10
0
VERTEX
8
OBJECT__24
10
0
20
0
30
0
70
128
71
1
72
12
73
7
0
VERTEX
8
OBJECT__24
10
0
20
0
30
0
70
128
71
7
72
13
73
1
0
VERTEX
8
OBJECT__24
10
0
20
0
30
0
70
128
71
1
72
14
73
15
0
VERTEX
8
OBJECT__24
10
0
20
0
30
0
70
128
71
1
72
13
73
14
0
VERTEX
8
OBJECT__24
10
0
20
0
30
0
70
128
71
4
72
16
73
17
0
VERTEX
8
OBJECT__24
10
0
20
0
30
0
70
128
71
4
72
3
73
18
0
VERTEX
8
OBJECT__24
10
0
20
0
30
0
70
128
71
18
72
16
73
4
0
VERTEX
8
OBJECT__24
10
0
20
0
30
0
70
128
71
6
72
19
73
20
0
VERTEX
8
OBJECT__24
10
0
20
0
30
0
70
128
71
6
72
4
73
21
0
VERTEX
8
OBJECT__24
10
0
20
0
30
0
70
128
71
21
72
19
73
6
0
VERTEX
8
OBJECT__24
10
0
20
0
30
0
70
128
71
20
72
22
73
6
0
VERTEX
8
OBJECT__24
10
0
20
0
30
0
70
128
71
17
72
21
73
4
0
VERTEX
8
OBJECT__24
10
0
20
0
30
0
70
128
71
15
72
2
73
1
0
VERTEX
8
OBJECT__24
10
0
20
0
30
0
70
128
71
9
72
13
73
7
0
VERTEX
8
OBJECT__24
10
0
20
0
30
0
70
128
71
5
72
12
73
1
0
VERTEX
8
OBJECT__24
10
0
20
0
30
0
70
128
71
3
72
4
73
1
0
SEQEND
8
OBJECT__24
0
POLYLINE
8
OBJECT__25
66
1
70
64
71
46
72
46
62
253
0
VERTEX
8
OBJECT__25
10
29.000000
20
-59.500000
30
18.000000
70
192
0
VERTEX
8
OBJECT__25
10
28.385000
20
-79.500000
30
20.448000
70
192
0
VERTEX
8
OBJECT__25
10
28.385000
20
-79.500000
30
14.373000
70
192
0
VERTEX
8
OBJECT__25
10
26.600000
20
-59.500000
30
11.142000
70
192
0
VERTEX
8
OBJECT__25
10
28.724001
20
-59.500000
30
20.448000
70
192
0
VERTEX
8
OBJECT__25
10
7.276000
20
-59.500000
30
20.448000
70
192
0
VERTEX
8
OBJECT__25
10
9.400000
20
-59.500000
30
11.142000
70
192
0
VERTEX
8
OBJECT__25
10
7.615000
20
-79.500000
30
14.373000
70
192
0
VERTEX
8
OBJECT__25
10
9.866000
20
-79.500000
30
11.508000
70
192
0
VERTEX
8
OBJECT__25
10
7.615000
20
-79.500000
30
20.448000
70
192
0
VERTEX
8
OBJECT__25
10
13.230000
20
-76.418999
30
27.905001
70
192
0
VERTEX
8
OBJECT__25
10
12.470000
20
-77.671997
30
27.509001
70
192
0
VERTEX
8
OBJECT__25
10
12.040000
20
-79.306000
30
27.246000
70
192
0
VERTEX
8
OBJECT__25
10
7.615000
20
-79.500000
30
21.627001
70
192
0
VERTEX
8
OBJECT__25
10
12.021000
20
-79.500000
30
27.233000
70
192
0
VERTEX
8
OBJECT__25
10
22.773001
20
-59.500000
30
27.910999
70
192
0
VERTEX
8
OBJECT__25
10
21.459000
20
-75.098000
30
28.441999
70
192
0
VERTEX
8
OBJECT__25
10
21.518000
20
-75.154999
30
28.417999
70
192
0
VERTEX
8
OBJECT__25
10
13.227000
20
-59.500000
30
27.910999
70
192
0
VERTEX
8
OBJECT__25
10
16.896999
20
-74.101997
30
28.945000
70
192
0
VERTEX
8
OBJECT__25
10
18.000000
20
-74.000000
30
29.000000
70
192
0
VERTEX
8
OBJECT__25
10
14.911000
20
-74.856003
30
28.556999
70
192
0
VERTEX
8
OBJECT__25
10
19.834999
20
-74.288002
30
28.846001
70
192
0
VERTEX
8
OBJECT__25
10
13.381000
20
-76.170998
30
27.983000
70
192
0
VERTEX
8
OBJECT__25
10
14.516000
20
-75.195999
30
28.409000
70
192
0
VERTEX
8
OBJECT__25
10
23.761999
20
-78.325996
30
27.370001
70
192
0
VERTEX
8
OBJECT__25
10
23.979000
20
-79.500000
30
27.233000
70
192
0
VERTEX
8
OBJECT__25
10
28.385000
20
-79.500000
30
21.627001
70
192
0
VERTEX
8
OBJECT__25
10
22.823000
20
-76.431000
30
27.886000
70
192
0
VERTEX
8
OBJECT__25
10
22.771000
20
-76.379997
30
27.907000
70
192
0
VERTEX
8
OBJECT__25
10
18.000000
20
-59.500000
30
7.000000
70
192
0
VERTEX
8
OBJECT__25
10
19.834999
20
-74.288002
30
7.154000
70
192
0
VERTEX
8
OBJECT__25
10
22.823000
20
-76.431000
30
8.114000
70
192
0
VERTEX
8
OBJECT__25
10
21.518000
20
-75.154999
30
7.582000
70
192
0
VERTEX
8
OBJECT__25
10
21.459000
20
-75.098000
30
7.558000
70
192
0
VERTEX
8
OBJECT__25
10
26.134001
20
-79.500000
30
11.508000
70
192
0
VERTEX
8
OBJECT__25
10
23.761999
20
-78.325996
30
8.630000
70
192
0
VERTEX
8
OBJECT__25
10
23.979000
20
-79.500000
30
8.767000
70
192
0
VERTEX
8
OBJECT__25
10
12.470000
20
-77.671997
30
8.491000
70
192
0
VERTEX
8
OBJECT__25
10
12.040000
20
-79.306000
30
8.754000
70
192
0
VERTEX
8
OBJECT__25
10
14.911000
20
-74.856003
30
7.443000
70
192
0
VERTEX
8
OBJECT__25
10
14.516000
20
-75.195999
30
7.591000
70
192
0
VERTEX
8
OBJECT__25
10
13.381000
20
-76.170998
30
8.017000
70
192
0
VERTEX
8
OBJECT__25
10
18.000000
20
-74.000000
30
7.000000
70
192
0
VERTEX
8
OBJECT__25
10
16.896999
20
-74.101997
30
7.055000
70
192
0
VERTEX
8
OBJECT__25
10
12.021000
20
-79.500000
30
8.767000
70
192
0
VERTEX
8
OBJECT__25
10
0
20
0
30
0
70
128
71
1
72
2
73
3
0
VERTEX
8
OBJECT__25
10
0
20
0
30
0
70
128
71
3
72
4
73
1
0
VERTEX
8
OBJECT__25
10
0
20
0
30
0
70
128
71
1
72
5
73
2
0
VERTEX
8
OBJECT__25
10
0
20
0
30
0
70
128
71
6
72
7
73
8
0
VERTEX
8
OBJECT__25
10
0
20
0
30
0
70
128
71
7
72
9
73
8
0
VERTEX
8
OBJECT__25
10
0
20
0
30
0
70
128
71
6
72
10
73
11
0
VERTEX
8
OBJECT__25
10
0
20
0
30
0
70
128
71
10
72
12
73
11
0
VERTEX
8
OBJECT__25
10
0
20
0
30
0
70
128
71
13
72
10
73
14
0
VERTEX
8
OBJECT__25
10
0
20
0
30
0
70
128
71
14
72
15
73
13
0
VERTEX
8
OBJECT__25
10
0
20
0
30
0
70
128
71
13
72
12
73
10
0
VERTEX
8
OBJECT__25
10
0
20
0
30
0
70
128
71
16
72
17
73
18
0
VERTEX
8
OBJECT__25
10
0
20
0
30
0
70
128
71
19
72
20
73
21
0
VERTEX
8
OBJECT__25
10
0
20
0
30
0
70
128
71
21
72
16
73
19
0
VERTEX
8
OBJECT__25
10
0
20
0
30
0
70
128
71
19
72
22
73
20
0
VERTEX
8
OBJECT__25
10
0
20
0
30
0
70
128
71
21
72
23
73
16
0
VERTEX
8
OBJECT__25
10
0
20
0
30
0
70
128
71
23
72
17
73
16
0
VERTEX
8
OBJECT__25
10
0
20
0
30
0
70
128
71
19
72
24
73
25
0
VERTEX
8
OBJECT__25
10
0
20
0
30
0
70
128
71
19
72
11
73
24
0
VERTEX
8
OBJECT__25
10
0
20
0
30
0
70
128
71
25
72
22
73
19
0
VERTEX
8
OBJECT__25
10
0
20
0
30
0
70
128
71
26
72
27
73
28
0
VERTEX
8
OBJECT__25
10
0
20
0
30
0
70
128
71
5
72
29
73
26
0
VERTEX
8
OBJECT__25
10
0
20
0
30
0
70
128
71
26
72
2
73
5
0
VERTEX
8
OBJECT__25
10
0
20
0
30
0
70
128
71
5
72
16
73
30
0
VERTEX
8
OBJECT__25
10
0
20
0
30
0
70
128
71
30
72
29
73
5
0
VERTEX
8
OBJECT__25
10
0
20
0
30
0
70
128
71
31
72
4
73
32
0
VERTEX
8
OBJECT__25
10
0
20
0
30
0
70
128
71
4
72
33
73
34
0
VERTEX
8
OBJECT__25
10
0
20
0
30
0
70
128
71
34
72
35
73
4
0
VERTEX
8
OBJECT__25
10
0
20
0
30
0
70
128
71
35
72
32
73
4
0
VERTEX
8
OBJECT__25
10
0
20
0
30
0
70
128
71
4
72
36
73
37
0
VERTEX
8
OBJECT__25
10
0
20
0
30
0
70
128
71
36
72
38
73
37
0
VERTEX
8
OBJECT__25
10
0
20
0
30
0
70
128
71
37
72
33
73
4
0
VERTEX
8
OBJECT__25
10
0
20
0
30
0
70
128
71
9
72
7
73
39
0
VERTEX
8
OBJECT__25
10
0
20
0
30
0
70
128
71
39
72
40
73
9
0
VERTEX
8
OBJECT__25
10
0
20
0
30
0
70
128
71
7
72
41
73
42
0
VERTEX
8
OBJECT__25
10
0
20
0
30
0
70
128
71
42
72
43
73
7
0
VERTEX
8
OBJECT__25
10
0
20
0
30
0
70
128
71
43
72
39
73
7
0
VERTEX
8
OBJECT__25
10
0
20
0
30
0
70
128
71
31
72
44
73
45
0
VERTEX
8
OBJECT__25
10
0
20
0
30
0
70
128
71
45
72
7
73
31
0
VERTEX
8
OBJECT__25
10
0
20
0
30
0
70
128
71
45
72
41
73
7
0
VERTEX
8
OBJECT__25
10
0
20
0
30
0
70
128
71
40
72
46
73
9
0
VERTEX
8
OBJECT__25
10
0
20
0
30
0
70
128
71
32
72
44
73
31
0
VERTEX
8
OBJECT__25
10
0
20
0
30
0
70
128
71
28
72
2
73
26
0
VERTEX
8
OBJECT__25
10
0
20
0
30
0
70
128
71
18
72
30
73
16
0
VERTEX
8
OBJECT__25
10
0
20
0
30
0
70
128
71
11
72
19
73
6
0
VERTEX
8
OBJECT__25
10
0
20
0
30
0
70
128
71
8
72
10
73
6
0
VERTEX
8
OBJECT__25
10
0
20
0
30
0
70
128
71
3
72
36
73
4
0
SEQEND
8
OBJECT__25
0
POLYLINE
8
OBJECT__26
66
1
70
64
71
4
72
2
62
253
0
VERTEX
8
OBJECT__26
10
24.000000
20
-80.000000
30
9.383000
70
192
0
VERTEX
8
OBJECT__26
10
27.913000
20
-80.000000
30
14.538000
70
192
0
VERTEX
8
OBJECT__26
10
27.913000
20
-80.000000
30
21.462000
70
192
0
VERTEX
8
OBJECT__26
10
24.000000
20
-80.000000
30
26.617001
70
192
0
VERTEX
8
OBJECT__26
10
0
20
0
30
0
70
128
71
1
72
2
73
3
0
VERTEX
8
OBJECT__26
10
0
20
0
30
0
70
128
71
3
72
4
73
1
0
SEQEND
8
OBJECT__26
0
POLYLINE
8
OBJECT__27
66
1
70
64
71
4
72
2
62
253
0
VERTEX
8
OBJECT__27
10
12.000000
20
-80.000000
30
26.617001
70
192
0
VERTEX
8
OBJECT__27
10
8.087000
20
-80.000000
30
21.462000
70
192
0
VERTEX
8
OBJECT__27
10
8.087000
20
-80.000000
30
14.538000
70
192
0
VERTEX
8
OBJECT__27
10
12.000000
20
-80.000000
30
9.383000
70
192
0
VERTEX
8
OBJECT__27
10
0
20
0
30
0
70
128
71
1
72
2
73
3
0
VERTEX
8
OBJECT__27
10
0
20
0
30
0
70
128
71
3
72
4
73
1
0
SEQEND
8
OBJECT__27
0
POLYLINE
8
OBJECT__28
66
1
70
64
71
19
72
19
62
253
0
VERTEX
8
OBJECT__28
10
18.000000
20
-74.500000
30
2.000000
70
192
0
VERTEX
8
OBJECT__28
10
18.000000
20
-74.000000
30
2.500000
70
192
0
VERTEX
8
OBJECT__28
10
21.311001
20
-75.594002
30
2.500000
70
192
0
VERTEX
8
OBJECT__28
10
22.299999
20
-76.570999
30
2.000000
70
192
0
VERTEX
8
OBJECT__28
10
23.850000
20
-81.334999
30
2.500000
70
192
0
VERTEX
8
OBJECT__28
10
23.362000
20
-81.223999
30
2.000000
70
192
0
VERTEX
8
OBJECT__28
10
20.386000
20
-84.955002
30
2.000000
70
192
0
VERTEX
8
OBJECT__28
10
23.541000
20
-81.722000
30
2.500000
70
192
0
VERTEX
8
OBJECT__28
10
20.603001
20
-85.405998
30
2.500000
70
192
0
VERTEX
8
OBJECT__28
10
18.000000
20
-85.405998
30
2.500000
70
192
0
VERTEX
8
OBJECT__28
10
15.614000
20
-84.955002
30
2.000000
70
192
0
VERTEX
8
OBJECT__28
10
15.397000
20
-85.405998
30
2.500000
70
192
0
VERTEX
8
OBJECT__28
10
12.459000
20
-81.722000
30
2.500000
70
192
0
VERTEX
8
OBJECT__28
10
12.638000
20
-81.223999
30
2.000000
70
192
0
VERTEX
8
OBJECT__28
10
12.150000
20
-81.334999
30
2.500000
70
192
0
VERTEX
8
OBJECT__28
10
13.309000
20
-76.259003
30
2.500000
70
192
0
VERTEX
8
OBJECT__28
10
13.700000
20
-76.570999
30
2.000000
70
192
0
VERTEX
8
OBJECT__28
10
14.689000
20
-75.594002
30
2.500000
70
192
0
VERTEX
8
OBJECT__28
10
22.691000
20
-76.259003
30
2.500000
70
192
0
VERTEX
8
OBJECT__28
10
0
20
0
30
0
70
128
71
1
72
2
73
3
0
VERTEX
8
OBJECT__28
10
0
20
0
30
0
70
128
71
3
72
4
73
1
0
VERTEX
8
OBJECT__28
10
0
20
0
30
0
70
128
71
5
72
6
73
4
0
VERTEX
8
OBJECT__28
10
0
20
0
30
0
70
128
71
7
72
6
73
8
0
VERTEX
8
OBJECT__28
10
0
20
0
30
0
70
128
71
6
72
5
73
8
0
VERTEX
8
OBJECT__28
10
0
20
0
30
0
70
128
71
7
72
9
73
10
0
VERTEX
8
OBJECT__28
10
0
20
0
30
0
70
128
71
10
72
11
73
7
0
VERTEX
8
OBJECT__28
10
0
20
0
30
0
70
128
71
11
72
12
73
13
0
VERTEX
8
OBJECT__28
10
0
20
0
30
0
70
128
71
13
72
14
73
11
0
VERTEX
8
OBJECT__28
10
0
20
0
30
0
70
128
71
15
72
16
73
17
0
VERTEX
8
OBJECT__28
10
0
20
0
30
0
70
128
71
1
72
17
73
18
0
VERTEX
8
OBJECT__28
10
0
20
0
30
0
70
128
71
17
72
16
73
18
0
VERTEX
8
OBJECT__28
10
0
20
0
30
0
70
128
71
18
72
2
73
1
0
VERTEX
8
OBJECT__28
10
0
20
0
30
0
70
128
71
17
72
14
73
15
0
VERTEX
8
OBJECT__28
10
0
20
0
30
0
70
128
71
13
72
15
73
14
0
VERTEX
8
OBJECT__28
10
0
20
0
30
0
70
128
71
10
72
12
73
11
0
VERTEX
8
OBJECT__28
10
0
20
0
30
0
70
128
71
8
72
9
73
7
0
VERTEX
8
OBJECT__28
10
0
20
0
30
0
70
128
71
4
72
19
73
5
0
VERTEX
8
OBJECT__28
10
0
20
0
30
0
70
128
71
3
72
19
73
4
0
SEQEND
8
OBJECT__28
0
POLYLINE
8
OBJECT__29
66
1
70
64
71
7
72
5
62
253
0
VERTEX
8
OBJECT__29
10
12.638000
20
-81.223999
30
2.000000
70
192
0
VERTEX
8
OBJECT__29
10
23.362000
20
-81.223999
30
2.000000
70
192
0
VERTEX
8
OBJECT__29
10
20.386000
20
-84.955002
30
2.000000
70
192
0
VERTEX
8
OBJECT__29
10
22.299999
20
-76.570999
30
2.000000
70
192
0
VERTEX
8
OBJECT__29
10
13.700000
20
-76.570999
30
2.000000
70
192
0
VERTEX
8
OBJECT__29
10
18.000000
20
-74.500000
30
2.000000
70
192
0
VERTEX
8
OBJECT__29
10
15.614000
20
-84.955002
30
2.000000
70
192
0
VERTEX
8
OBJECT__29
10
0
20
0
30
0
70
128
71
1
72
2
73
3
0
VERTEX
8
OBJECT__29
10
0
20
0
30
0
70
128
71
1
72
4
73
2
0
VERTEX
8
OBJECT__29
10
0
20
0
30
0
70
128
71
4
72
1
73
5
0
VERTEX
8
OBJECT__29
10
0
20
0
30
0
70
128
71
5
72
6
73
4
0
VERTEX
8
OBJECT__29
10
0
20
0
30
0
70
128
71
3
72
7
73
1
0
SEQEND
8
OBJECT__29
0
POLYLINE
8
OBJECT__30
66
1
70
64
71
4
72
2
62
253
0
VERTEX
8
OBJECT__30
10
-9.552000
20
-2.000000
30
-52.000000
70
192
0
VERTEX
8
OBJECT__30
10
-11.655000
20
0.000000
30
-52.000000
70
192
0
VERTEX
8
OBJECT__30
10
-9.552000
20
2.000000
30
-52.000000
70
192
0
VERTEX
8
OBJECT__30
10
-7.449000
20
0.000000
30
-52.000000
70
192
0
VERTEX
8
OBJECT__30
10
0
20
0
30
0
70
128
71
1
72
2
73
3
0
VERTEX
8
OBJECT__30
10
0
20
0
30
0
70
128
71
3
72
4
73
1
0
SEQEND
8
OBJECT__30
0
POLYLINE
8
OBJECT__31
66
1
70
64
71
8
72
8
62
253
0
VERTEX
8
OBJECT__31
10
-24.419001
20
-2.000000
30
-6.244000
70
192
0
VERTEX
8
OBJECT__31
10
-26.320999
20
0.000000
30
-6.862000
70
192
0
VERTEX
8
OBJECT__31
10
-11.655000
20
0.000000
30
-52.000000
70
192
0
VERTEX
8
OBJECT__31
10
-22.517000
20
0.000000
30
-5.626000
70
192
0
VERTEX
8
OBJECT__31
10
-9.552000
20
-2.000000
30
-52.000000
70
192
0
VERTEX
8
OBJECT__31
10
-7.449000
20
0.000000
30
-52.000000
70
192
0
VERTEX
8
OBJECT__31
10
-9.552000
20
2.000000
30
-52.000000
70
192
0
VERTEX
8
OBJECT__31
10
-24.419001
20
2.000000
30
-6.244000
70
192
0
VERTEX
8
OBJECT__31
10
0
20
0
30
0
70
128
71
1
72
2
73
3
0
VERTEX
8
OBJECT__31
10
0
20
0
30
0
70
128
71
4
72
1
73
5
0
VERTEX
8
OBJECT__31
10
0
20
0
30
0
70
128
71
4
72
6
73
7
0
VERTEX
8
OBJECT__31
10
0
20
0
30
0
70
128
71
8
72
7
73
3
0
VERTEX
8
OBJECT__31
10
0
20
0
30
0
70
128
71
3
72
2
73
8
0
VERTEX
8
OBJECT__31
10
0
20
0
30
0
70
128
71
7
72
8
73
4
0
VERTEX
8
OBJECT__31
10
0
20
0
30
0
70
128
71
5
72
6
73
4
0
VERTEX
8
OBJECT__31
10
0
20
0
30
0
70
128
71
3
72
5
73
1
0
SEQEND
8
OBJECT__31
0
POLYLINE
8
OBJECT__33
66
1
70
64
71
10
72
8
62
253
0
VERTEX
8
OBJECT__33
10
6.430000
20
-55.000000
30
31.789000
70
192
0
VERTEX
8
OBJECT__33
10
35.727001
20
-55.000000
30
21.125999
70
192
0
VERTEX
8
OBJECT__33
10
29.570000
20
-55.000000
30
31.789000
70
192
0
VERTEX
8
OBJECT__33
10
33.588001
20
-55.000000
30
9.000000
70
192
0
VERTEX
8
OBJECT__33
10
2.412000
20
-55.000000
30
9.000000
70
192
0
VERTEX
8
OBJECT__33
10
11.844000
20
-55.000000
30
1.086000
70
192
0
VERTEX
8
OBJECT__33
10
18.000000
20
-55.000000
30
36.000000
70
192
0
VERTEX
8
OBJECT__33
10
0.273000
20
-55.000000
30
21.125999
70
192
0
VERTEX
8
OBJECT__33
10
36.000000
20
-55.000000
30
18.000000
70
192
0
VERTEX
8
OBJECT__33
10
24.156000
20
-55.000000
30
1.086000
70
192
0
VERTEX
8
OBJECT__33
10
0
20
0
30
0
70
128
71
1
72
2
73
3
0
VERTEX
8
OBJECT__33
10
0
20
0
30
0
70
128
71
4
72
5
73
6
0
VERTEX
8
OBJECT__33
10
0
20
0
30
0
70
128
71
3
72
7
73
1
0
VERTEX
8
OBJECT__33
10
0
20
0
30
0
70
128
71
4
72
8
73
5
0
VERTEX
8
OBJECT__33
10
0
20
0
30
0
70
128
71
8
72
9
73
2
0
VERTEX
8
OBJECT__33
10
0
20
0
30
0
70
128
71
6
72
10
73
4
0
VERTEX
8
OBJECT__33
10
0
20
0
30
0
70
128
71
4
72
9
73
8
0
VERTEX
8
OBJECT__33
10
0
20
0
30
0
70
128
71
1
72
8
73
2
0
SEQEND
8
OBJECT__33
0
POLYLINE
8
OBJECT__34
66
1
70
64
71
20
72
20
62
253
0
VERTEX
8
OBJECT__34
10
29.570000
20
-55.000000
30
31.789000
70
192
0
VERTEX
8
OBJECT__34
10
29.570000
20
55.000000
30
31.789000
70
192
0
VERTEX
8
OBJECT__34
10
18.000000
20
55.000000
30
36.000000
70
192
0
VERTEX
8
OBJECT__34
10
35.727001
20
-55.000000
30
21.125999
70
192
0
VERTEX
8
OBJECT__34
10
35.727001
20
55.000000
30
21.125999
70
192
0
VERTEX
8
OBJECT__34
10
33.588001
20
-55.000000
30
9.000000
70
192
0
VERTEX
8
OBJECT__34
10
33.588001
20
55.000000
30
9.000000
70
192
0
VERTEX
8
OBJECT__34
10
36.000000
20
55.000000
30
18.000000
70
192
0
VERTEX
8
OBJECT__34
10
36.000000
20
-55.000000
30
18.000000
70
192
0
VERTEX
8
OBJECT__34
10
24.156000
20
-55.000000
30
1.086000
70
192
0
VERTEX
8
OBJECT__34
10
24.156000
20
55.000000
30
1.086000
70
192
0
VERTEX
8
OBJECT__34
10
11.844000
20
-55.000000
30
1.086000
70
192
0
VERTEX
8
OBJECT__34
10
11.844000
20
55.000000
30
1.086000
70
192
0
VERTEX
8
OBJECT__34
10
2.412000
20
-55.000000
30
9.000000
70
192
0
VERTEX
8
OBJECT__34
10
2.412000
20
55.000000
30
9.000000
70
192
0
VERTEX
8
OBJECT__34
10
0.273000
20
-55.000000
30
21.125999
70
192
0
VERTEX
8
OBJECT__34
10
0.273000
20
55.000000
30
21.125999
70
192
0
VERTEX
8
OBJECT__34
10
6.430000
20
-55.000000
30
31.789000
70
192
0
VERTEX
8
OBJECT__34
10
6.430000
20
55.000000
30
31.789000
70
192
0
VERTEX
8
OBJECT__34
10
18.000000
20
-55.000000
30
36.000000
70
192
0
VERTEX
8
OBJECT__34
10
0
20
0
30
0
70
128
71
1
72
2
73
3
0
VERTEX
8
OBJECT__34
10
0
20
0
30
0
70
128
71
4
72
5
73
2
0
VERTEX
8
OBJECT__34
10
0
20
0
30
0
70
128
71
6
72
7
73
8
0
VERTEX
8
OBJECT__34
10
0
20
0
30
0
70
128
71
5
72
4
73
9
0
VERTEX
8
OBJECT__34
10
0
20
0
30
0
70
128
71
9
72
8
73
5
0
VERTEX
8
OBJECT__34
10
0
20
0
30
0
70
128
71
10
72
11
73
7
0
VERTEX
8
OBJECT__34
10
0
20
0
30
0
70
128
71
12
72
13
73
11
0
VERTEX
8
OBJECT__34
10
0
20
0
30
0
70
128
71
14
72
15
73
13
0
VERTEX
8
OBJECT__34
10
0
20
0
30
0
70
128
71
16
72
17
73
15
0
VERTEX
8
OBJECT__34
10
0
20
0
30
0
70
128
71
18
72
19
73
17
0
VERTEX
8
OBJECT__34
10
0
20
0
30
0
70
128
71
20
72
3
73
19
0
VERTEX
8
OBJECT__34
10
0
20
0
30
0
70
128
71
19
72
18
73
20
0
VERTEX
8
OBJECT__34
10
0
20
0
30
0
70
128
71
17
72
16
73
18
0
VERTEX
8
OBJECT__34
10
0
20
0
30
0
70
128
71
15
72
14
73
16
0
VERTEX
8
OBJECT__34
10
0
20
0
30
0
70
128
71
13
72
12
73
14
0
VERTEX
8
OBJECT__34
10
0
20
0
30
0
70
128
71
11
72
10
73
12
0
VERTEX
8
OBJECT__34
10
0
20
0
30
0
70
128
71
7
72
6
73
10
0
VERTEX
8
OBJECT__34
10
0
20
0
30
0
70
128
71
8
72
9
73
6
0
VERTEX
8
OBJECT__34
10
0
20
0
30
0
70
128
71
2
72
1
73
4
0
VERTEX
8
OBJECT__34
10
0
20
0
30
0
70
128
71
3
72
20
73
1
0
SEQEND
8
OBJECT__34
0
POLYLINE
8
OBJECT__36
66
1
70
64
71
10
72
8
62
253
0
VERTEX
8
OBJECT__36
10
0.273000
20
55.000000
30
21.125999
70
192
0
VERTEX
8
OBJECT__36
10
24.156000
20
55.000000
30
1.086000
70
192
0
VERTEX
8
OBJECT__36
10
11.844000
20
55.000000
30
1.086000
70
192
0
VERTEX
8
OBJECT__36
10
35.727001
20
55.000000
30
21.125999
70
192
0
VERTEX
8
OBJECT__36
10
6.430000
20
55.000000
30
31.789000
70
192
0
VERTEX
8
OBJECT__36
10
18.000000
20
55.000000
30
36.000000
70
192
0
VERTEX
8
OBJECT__36
10
33.588001
20
55.000000
30
9.000000
70
192
0
VERTEX
8
OBJECT__36
10
36.000000
20
55.000000
30
18.000000
70
192
0
VERTEX
8
OBJECT__36
10
29.570000
20
55.000000
30
31.789000
70
192
0
VERTEX
8
OBJECT__36
10
2.412000
20
55.000000
30
9.000000
70
192
0
VERTEX
8
OBJECT__36
10
0
20
0
30
0
70
128
71
1
72
2
73
3
0
VERTEX
8
OBJECT__36
10
0
20
0
30
0
70
128
71
4
72
5
73
6
0
VERTEX
8
OBJECT__36
10
0
20
0
30
0
70
128
71
1
72
7
73
2
0
VERTEX
8
OBJECT__36
10
0
20
0
30
0
70
128
71
4
72
1
73
5
0
VERTEX
8
OBJECT__36
10
0
20
0
30
0
70
128
71
1
72
8
73
7
0
VERTEX
8
OBJECT__36
10
0
20
0
30
0
70
128
71
6
72
9
73
4
0
VERTEX
8
OBJECT__36
10
0
20
0
30
0
70
128
71
4
72
8
73
1
0
VERTEX
8
OBJECT__36
10
0
20
0
30
0
70
128
71
3
72
10
73
1
0
SEQEND
8
OBJECT__36
0
POLYLINE
8
OBJECT__37
66
1
70
64
71
16
72
16
62
253
0
VERTEX
8
OBJECT__37
10
156.703003
20
-8.913000
30
159.481995
70
192
0
VERTEX
8
OBJECT__37
10
159.654999
20
-8.913000
30
142.740005
70
192
0
VERTEX
8
OBJECT__37
10
163.882004
20
0.000000
30
143.485001
70
192
0
VERTEX
8
OBJECT__37
10
149.703003
20
-11.400000
30
158.246994
70
192
0
VERTEX
8
OBJECT__37
10
152.654999
20
-11.400000
30
141.505997
70
192
0
VERTEX
8
OBJECT__37
10
150.156998
20
-11.114000
30
141.065002
70
192
0
VERTEX
8
OBJECT__37
10
147.205002
20
-11.114000
30
157.807007
70
192
0
VERTEX
8
OBJECT__37
10
142.539993
20
-4.946000
30
139.722000
70
192
0
VERTEX
8
OBJECT__37
10
142.539993
20
4.946000
30
139.722000
70
192
0
VERTEX
8
OBJECT__37
10
139.587997
20
-4.946000
30
156.464005
70
192
0
VERTEX
8
OBJECT__37
10
147.205002
20
11.114000
30
157.807007
70
192
0
VERTEX
8
OBJECT__37
10
150.156998
20
11.114000
30
141.065002
70
192
0
VERTEX
8
OBJECT__37
10
159.654999
20
8.913000
30
142.740005
70
192
0
VERTEX
8
OBJECT__37
10
156.703003
20
8.913000
30
159.481995
70
192
0
VERTEX
8
OBJECT__37
10
160.929993
20
0.000000
30
160.227005
70
192
0
VERTEX
8
OBJECT__37
10
139.587997
20
4.946000
30
156.464005
70
192
0
VERTEX
8
OBJECT__37
10
0
20
0
30
0
70
128
71
1
72
2
73
3
0
VERTEX
8
OBJECT__37
10
0
20
0
30
0
70
128
71
1
72
4
73
5
0
VERTEX
8
OBJECT__37
10
0
20
0
30
0
70
128
71
6
72
5
73
4
0
VERTEX
8
OBJECT__37
10
0
20
0
30
0
70
128
71
4
72
7
73
6
0
VERTEX
8
OBJECT__37
10
0
20
0
30
0
70
128
71
8
72
6
73
7
0
VERTEX
8
OBJECT__37
10
0
20
0
30
0
70
128
71
9
72
8
73
10
0
VERTEX
8
OBJECT__37
10
0
20
0
30
0
70
128
71
11
72
12
73
9
0
VERTEX
8
OBJECT__37
10
0
20
0
30
0
70
128
71
13
72
12
73
11
0
VERTEX
8
OBJECT__37
10
0
20
0
30
0
70
128
71
13
72
14
73
15
0
VERTEX
8
OBJECT__37
10
0
20
0
30
0
70
128
71
15
72
3
73
13
0
VERTEX
8
OBJECT__37
10
0
20
0
30
0
70
128
71
11
72
14
73
13
0
VERTEX
8
OBJECT__37
10
0
20
0
30
0
70
128
71
9
72
16
73
11
0
VERTEX
8
OBJECT__37
10
0
20
0
30
0
70
128
71
10
72
16
73
9
0
VERTEX
8
OBJECT__37
10
0
20
0
30
0
70
128
71
7
72
10
73
8
0
VERTEX
8
OBJECT__37
10
0
20
0
30
0
70
128
71
5
72
2
73
1
0
VERTEX
8
OBJECT__37
10
0
20
0
30
0
70
128
71
3
72
15
73
1
0
SEQEND
8
OBJECT__37
0
POLYLINE
8
OBJECT__38
66
1
70
64
71
8
72
6
62
253
0
VERTEX
8
OBJECT__38
10
150.156998
20
11.114000
30
141.065002
70
192
0
VERTEX
8
OBJECT__38
10
150.156998
20
-11.114000
30
141.065002
70
192
0
VERTEX
8
OBJECT__38
10
142.539993
20
-4.946000
30
139.722000
70
192
0
VERTEX
8
OBJECT__38
10
159.654999
20
8.913000
30
142.740005
70
192
0
VERTEX
8
OBJECT__38
10
163.882004
20
0.000000
30
143.485001
70
192
0
VERTEX
8
OBJECT__38
10
152.654999
20
-11.400000
30
141.505997
70
192
0
VERTEX
8
OBJECT__38
10
159.654999
20
-8.913000
30
142.740005
70
192
0
VERTEX
8
OBJECT__38
10
142.539993
20
4.946000
30
139.722000
70
192
0
VERTEX
8
OBJECT__38
10
0
20
0
30
0
70
128
71
1
72
2
73
3
0
VERTEX
8
OBJECT__38
10
0
20
0
30
0
70
128
71
1
72
4
73
5
0
VERTEX
8
OBJECT__38
10
0
20
0
30
0
70
128
71
1
72
6
73
2
0
VERTEX
8
OBJECT__38
10
0
20
0
30
0
70
128
71
5
72
7
73
1
0
VERTEX
8
OBJECT__38
10
0
20
0
30
0
70
128
71
7
72
6
73
1
0
VERTEX
8
OBJECT__38
10
0
20
0
30
0
70
128
71
3
72
8
73
1
0
SEQEND
8
OBJECT__38
0
POLYLINE
8
OBJECT__40
66
1
70
64
71
12
72
12
62
253
0
VERTEX
8
OBJECT__40
10
24.068001
20
-59.000000
30
13.592000
70
192
0
VERTEX
8
OBJECT__40
10
24.068001
20
-74.000000
30
13.592000
70
192
0
VERTEX
8
OBJECT__40
10
17.216000
20
-74.000000
30
10.541000
70
192
0
VERTEX
8
OBJECT__40
10
24.851999
20
-59.000000
30
21.051001
70
192
0
VERTEX
8
OBJECT__40
10
24.851999
20
-74.000000
30
21.051001
70
192
0
VERTEX
8
OBJECT__40
10
18.784000
20
-59.000000
30
25.459000
70
192
0
VERTEX
8
OBJECT__40
10
18.784000
20
-74.000000
30
25.459000
70
192
0
VERTEX
8
OBJECT__40
10
11.932000
20
-59.000000
30
22.408001
70
192
0
VERTEX
8
OBJECT__40
10
11.932000
20
-74.000000
30
22.408001
70
192
0
VERTEX
8
OBJECT__40
10
11.148000
20
-59.000000
30
14.949000
70
192
0
VERTEX
8
OBJECT__40
10
11.148000
20
-74.000000
30
14.949000
70
192
0
VERTEX
8
OBJECT__40
10
17.216000
20
-59.000000
30
10.541000
70
192
0
VERTEX
8
OBJECT__40
10
0
20
0
30
0
70
128
71
1
72
2
73
3
0
VERTEX
8
OBJECT__40
10
0
20
0
30
0
70
128
71
4
72
5
73
2
0
VERTEX
8
OBJECT__40
10
0
20
0
30
0
70
128
71
6
72
7
73
5
0
VERTEX
8
OBJECT__40
10
0
20
0
30
0
70
128
71
8
72
9
73
7
0
VERTEX
8
OBJECT__40
10
0
20
0
30
0
70
128
71
10
72
11
73
9
0
VERTEX
8
OBJECT__40
10
0
20
0
30
0
70
128
71
12
72
3
73
11
0
VERTEX
8
OBJECT__40
10
0
20
0
30
0
70
128
71
11
72
10
73
12
0
VERTEX
8
OBJECT__40
10
0
20
0
30
0
70
128
71
9
72
8
73
10
0
VERTEX
8
OBJECT__40
10
0
20
0
30
0
70
128
71
7
72
6
73
8
0
VERTEX
8
OBJECT__40
10
0
20
0
30
0
70
128
71
5
72
4
73
6
0
VERTEX
8
OBJECT__40
10
0
20
0
30
0
70
128
71
2
72
1
73
4
0
VERTEX
8
OBJECT__40
10
0
20
0
30
0
70
128
71
3
72
12
73
1
0
SEQEND
8
OBJECT__40
0
POLYLINE
8
OBJECT__41
66
1
70
64
71
14
72
14
62
253
0
VERTEX
8
OBJECT__41
10
32.769001
20
-59.000000
30
16.448000
70
192
0
VERTEX
8
OBJECT__41
10
24.851999
20
-59.000000
30
21.051001
70
192
0
VERTEX
8
OBJECT__41
10
24.068001
20
-59.000000
30
13.592000
70
192
0
VERTEX
8
OBJECT__41
10
29.541000
20
-59.000000
30
27.344999
70
192
0
VERTEX
8
OBJECT__41
10
19.552000
20
-59.000000
30
32.769001
70
192
0
VERTEX
8
OBJECT__41
10
18.784000
20
-59.000000
30
25.459000
70
192
0
VERTEX
8
OBJECT__41
10
8.655000
20
-59.000000
30
29.541000
70
192
0
VERTEX
8
OBJECT__41
10
11.932000
20
-59.000000
30
22.408001
70
192
0
VERTEX
8
OBJECT__41
10
3.231000
20
-59.000000
30
19.552000
70
192
0
VERTEX
8
OBJECT__41
10
11.148000
20
-59.000000
30
14.949000
70
192
0
VERTEX
8
OBJECT__41
10
6.459000
20
-59.000000
30
8.655000
70
192
0
VERTEX
8
OBJECT__41
10
27.344999
20
-59.000000
30
6.459000
70
192
0
VERTEX
8
OBJECT__41
10
16.448000
20
-59.000000
30
3.231000
70
192
0
VERTEX
8
OBJECT__41
10
17.216000
20
-59.000000
30
10.541000
70
192
0
VERTEX
8
OBJECT__41
10
0
20
0
30
0
70
128
71
1
72
2
73
3
0
VERTEX
8
OBJECT__41
10
0
20
0
30
0
70
128
71
4
72
5
73
6
0
VERTEX
8
OBJECT__41
10
0
20
0
30
0
70
128
71
7
72
8
73
6
0
VERTEX
8
OBJECT__41
10
0
20
0
30
0
70
128
71
9
72
10
73
8
0
VERTEX
8
OBJECT__41
10
0
20
0
30
0
70
128
71
1
72
4
73
2
0
VERTEX
8
OBJECT__41
10
0
20
0
30
0
70
128
71
6
72
5
73
7
0
VERTEX
8
OBJECT__41
10
0
20
0
30
0
70
128
71
9
72
11
73
10
0
VERTEX
8
OBJECT__41
10
0
20
0
30
0
70
128
71
3
72
12
73
1
0
VERTEX
8
OBJECT__41
10
0
20
0
30
0
70
128
71
8
72
7
73
9
0
VERTEX
8
OBJECT__41
10
0
20
0
30
0
70
128
71
6
72
2
73
4
0
VERTEX
8
OBJECT__41
10
0
20
0
30
0
70
128
71
11
72
13
73
14
0
VERTEX
8
OBJECT__41
10
0
20
0
30
0
70
128
71
14
72
10
73
11
0
VERTEX
8
OBJECT__41
10
0
20
0
30
0
70
128
71
3
72
14
73
12
0
VERTEX
8
OBJECT__41
10
0
20
0
30
0
70
128
71
14
72
13
73
12
0
SEQEND
8
OBJECT__41
0
POLYLINE
8
OBJECT__43
66
1
70
64
71
16
72
16
62
253
0
VERTEX
8
OBJECT__43
10
29.541000
20
-59.000000
30
27.344999
70
192
0
VERTEX
8
OBJECT__43
10
29.541000
20
-37.000000
30
27.344999
70
192
0
VERTEX
8
OBJECT__43
10
19.552000
20
-37.000000
30
32.769001
70
192
0
VERTEX
8
OBJECT__43
10
32.769001
20
-59.000000
30
16.448000
70
192
0
VERTEX
8
OBJECT__43
10
32.769001
20
-37.000000
30
16.448000
70
192
0
VERTEX
8
OBJECT__43
10
27.344999
20
-59.000000
30
6.459000
70
192
0
VERTEX
8
OBJECT__43
10
27.344999
20
-37.000000
30
6.459000
70
192
0
VERTEX
8
OBJECT__43
10
16.448000
20
-59.000000
30
3.231000
70
192
0
VERTEX
8
OBJECT__43
10
16.448000
20
-37.000000
30
3.231000
70
192
0
VERTEX
8
OBJECT__43
10
6.459000
20
-59.000000
30
8.655000
70
192
0
VERTEX
8
OBJECT__43
10
6.459000
20
-37.000000
30
8.655000
70
192
0
VERTEX
8
OBJECT__43
10
3.231000
20
-59.000000
30
19.552000
70
192
0
VERTEX
8
OBJECT__43
10
3.231000
20
-37.000000
30
19.552000
70
192
0
VERTEX
8
OBJECT__43
10
8.655000
20
-59.000000
30
29.541000
70
192
0
VERTEX
8
OBJECT__43
10
8.655000
20
-37.000000
30
29.541000
70
192
0
VERTEX
8
OBJECT__43
10
19.552000
20
-59.000000
30
32.769001
70
192
0
VERTEX
8
OBJECT__43
10
0
20
0
30
0
70
128
71
1
72
2
73
3
0
VERTEX
8
OBJECT__43
10
0
20
0
30
0
70
128
71
4
72
5
73
2
0
VERTEX
8
OBJECT__43
10
0
20
0
30
0
70
128
71
6
72
7
73
5
0
VERTEX
8
OBJECT__43
10
0
20
0
30
0
70
128
71
8
72
9
73
7
0
VERTEX
8
OBJECT__43
10
0
20
0
30
0
70
128
71
10
72
11
73
9
0
VERTEX
8
OBJECT__43
10
0
20
0
30
0
70
128
71
12
72
13
73
11
0
VERTEX
8
OBJECT__43
10
0
20
0
30
0
70
128
71
14
72
15
73
13
0
VERTEX
8
OBJECT__43
10
0
20
0
30
0
70
128
71
16
72
3
73
15
0
VERTEX
8
OBJECT__43
10
0
20
0
30
0
70
128
71
15
72
14
73
16
0
VERTEX
8
OBJECT__43
10
0
20
0
30
0
70
128
71
13
72
12
73
14
0
VERTEX
8
OBJECT__43
10
0
20
0
30
0
70
128
71
11
72
10
73
12
0
VERTEX
8
OBJECT__43
10
0
20
0
30
0
70
128
71
9
72
8
73
10
0
VERTEX
8
OBJECT__43
10
0
20
0
30
0
70
128
71
7
72
6
73
8
0
VERTEX
8
OBJECT__43
10
0
20
0
30
0
70
128
71
5
72
4
73
6
0
VERTEX
8
OBJECT__43
10
0
20
0
30
0
70
128
71
2
72
1
73
4
0
VERTEX
8
OBJECT__43
10
0
20
0
30
0
70
128
71
3
72
16
73
1
0
SEQEND
8
OBJECT__43
0
POLYLINE
8
OBJECT__44
66
1
70
64
71
11
72
9
62
253
0
VERTEX
8
OBJECT__44
10
-11.424000
20
-25.014999
30
-52.000000
70
192
0
VERTEX
8
OBJECT__44
10
26.386000
20
-7.748000
30
-52.000000
70
192
0
VERTEX
8
OBJECT__44
10
18.009001
20
-20.783001
30
-52.000000
70
192
0
VERTEX
8
OBJECT__44
10
3.914000
20
-27.219999
30
-52.000000
70
192
0
VERTEX
8
OBJECT__44
10
-23.134001
20
-14.868000
30
-52.000000
70
192
0
VERTEX
8
OBJECT__44
10
18.009001
20
20.783001
30
-52.000000
70
192
0
VERTEX
8
OBJECT__44
10
26.386000
20
7.748000
30
-52.000000
70
192
0
VERTEX
8
OBJECT__44
10
-23.134001
20
14.868000
30
-52.000000
70
192
0
VERTEX
8
OBJECT__44
10
-11.424000
20
25.014999
30
-52.000000
70
192
0
VERTEX
8
OBJECT__44
10
-27.500000
20
0.000000
30
-52.000000
70
192
0
VERTEX
8
OBJECT__44
10
3.914000
20
27.219999
30
-52.000000
70
192
0
VERTEX
8
OBJECT__44
10
0
20
0
30
0
70
128
71
1
72
2
73
3
0
VERTEX
8
OBJECT__44
10
0
20
0
30
0
70
128
71
3
72
4
73
1
0
VERTEX
8
OBJECT__44
10
0
20
0
30
0
70
128
71
5
72
6
73
7
0
VERTEX
8
OBJECT__44
10
0
20
0
30
0
70
128
71
6
72
8
73
9
0
VERTEX
8
OBJECT__44
10
0
20
0
30
0
70
128
71
6
72
5
73
10
0
VERTEX
8
OBJECT__44
10
0
20
0
30
0
70
128
71
7
72
2
73
5
0
VERTEX
8
OBJECT__44
10
0
20
0
30
0
70
128
71
10
72
8
73
6
0
VERTEX
8
OBJECT__44
10
0
20
0
30
0
70
128
71
9
72
11
73
6
0
VERTEX
8
OBJECT__44
10
0
20
0
30
0
70
128
71
1
72
5
73
2
0
SEQEND
8
OBJECT__44
0
POLYLINE
8
OBJECT__45
66
1
70
64
71
36
72
36
62
253
0
VERTEX
8
OBJECT__45
10
-27.500000
20
0.000000
30
-52.000000
70
192
0
VERTEX
8
OBJECT__45
10
-27.500000
20
0.000000
30
-46.500000
70
192
0
VERTEX
8
OBJECT__45
10
-25.122999
20
11.185000
30
-46.500000
70
192
0
VERTEX
8
OBJECT__45
10
-23.134001
20
14.868000
30
-52.000000
70
192
0
VERTEX
8
OBJECT__45
10
-11.424000
20
25.014999
30
-52.000000
70
192
0
VERTEX
8
OBJECT__45
10
-18.400999
20
20.436001
30
-46.500000
70
192
0
VERTEX
8
OBJECT__45
10
-22.684999
20
14.541000
30
-46.500000
70
192
0
VERTEX
8
OBJECT__45
10
3.914000
20
27.219999
30
-52.000000
70
192
0
VERTEX
8
OBJECT__45
10
-8.498000
20
26.153999
30
-46.500000
70
192
0
VERTEX
8
OBJECT__45
10
2.875000
20
27.349001
30
-46.500000
70
192
0
VERTEX
8
OBJECT__45
10
-11.186000
20
24.601999
30
-46.500000
70
192
0
VERTEX
8
OBJECT__45
10
3.852000
20
27.032000
30
-46.500000
70
192
0
VERTEX
8
OBJECT__45
10
13.750000
20
23.816000
30
-46.500000
70
192
0
VERTEX
8
OBJECT__45
10
18.009001
20
20.783001
30
-52.000000
70
192
0
VERTEX
8
OBJECT__45
10
26.386000
20
7.748000
30
-52.000000
70
192
0
VERTEX
8
OBJECT__45
10
22.247999
20
16.164000
30
-46.500000
70
192
0
VERTEX
8
OBJECT__45
10
17.610001
20
20.340000
30
-46.500000
70
192
0
VERTEX
8
OBJECT__45
10
26.386000
20
-7.748000
30
-52.000000
70
192
0
VERTEX
8
OBJECT__45
10
26.899000
20
5.718000
30
-46.500000
70
192
0
VERTEX
8
OBJECT__45
10
26.899000
20
-5.718000
30
-46.500000
70
192
0
VERTEX
8
OBJECT__45
10
26.059999
20
7.602000
30
-46.500000
70
192
0
VERTEX
8
OBJECT__45
10
26.059999
20
-7.602000
30
-46.500000
70
192
0
VERTEX
8
OBJECT__45
10
22.247999
20
-16.164000
30
-46.500000
70
192
0
VERTEX
8
OBJECT__45
10
18.009001
20
-20.783001
30
-52.000000
70
192
0
VERTEX
8
OBJECT__45
10
3.914000
20
-27.219999
30
-52.000000
70
192
0
VERTEX
8
OBJECT__45
10
13.750000
20
-23.816000
30
-46.500000
70
192
0
VERTEX
8
OBJECT__45
10
17.610001
20
-20.340000
30
-46.500000
70
192
0
VERTEX
8
OBJECT__45
10
2.875000
20
-27.349001
30
-46.500000
70
192
0
VERTEX
8
OBJECT__45
10
-8.498000
20
-26.153999
30
-46.500000
70
192
0
VERTEX
8
OBJECT__45
10
-11.424000
20
-25.014999
30
-52.000000
70
192
0
VERTEX
8
OBJECT__45
10
3.852000
20
-27.032000
30
-46.500000
70
192
0
VERTEX
8
OBJECT__45
10
-11.186000
20
-24.601999
30
-46.500000
70
192
0
VERTEX
8
OBJECT__45
10
-18.400999
20
-20.436001
30
-46.500000
70
192
0
VERTEX
8
OBJECT__45
10
-23.134001
20
-14.868000
30
-52.000000
70
192
0
VERTEX
8
OBJECT__45
10
-25.122999
20
-11.185000
30
-46.500000
70
192
0
VERTEX
8
OBJECT__45
10
-22.684999
20
-14.541000
30
-46.500000
70
192
0
VERTEX
8
OBJECT__45
10
0
20
0
30
0
70
128
71
1
72
2
73
3
0
VERTEX
8
OBJECT__45
10
0
20
0
30
0
70
128
71
3
72
4
73
1
0
VERTEX
8
OBJECT__45
10
0
20
0
30
0
70
128
71
5
72
4
73
6
0
VERTEX
8
OBJECT__45
10
0
20
0
30
0
70
128
71
4
72
7
73
6
0
VERTEX
8
OBJECT__45
10
0
20
0
30
0
70
128
71
8
72
5
73
9
0
VERTEX
8
OBJECT__45
10
0
20
0
30
0
70
128
71
9
72
10
73
8
0
VERTEX
8
OBJECT__45
10
0
20
0
30
0
70
128
71
5
72
11
73
9
0
VERTEX
8
OBJECT__45
10
0
20
0
30
0
70
128
71
8
72
12
73
13
0
VERTEX
8
OBJECT__45
10
0
20
0
30
0
70
128
71
13
72
14
73
8
0
VERTEX
8
OBJECT__45
10
0
20
0
30
0
70
128
71
15
72
14
73
16
0
VERTEX
8
OBJECT__45
10
0
20
0
30
0
70
128
71
14
72
17
73
16
0
VERTEX
8
OBJECT__45
10
0
20
0
30
0
70
128
71
18
72
15
73
19
0
VERTEX
8
OBJECT__45
10
0
20
0
30
0
70
128
71
19
72
20
73
18
0
VERTEX
8
OBJECT__45
10
0
20
0
30
0
70
128
71
15
72
21
73
19
0
VERTEX
8
OBJECT__45
10
0
20
0
30
0
70
128
71
18
72
22
73
23
0
VERTEX
8
OBJECT__45
10
0
20
0
30
0
70
128
71
23
72
24
73
18
0
VERTEX
8
OBJECT__45
10
0
20
0
30
0
70
128
71
25
72
24
73
26
0
VERTEX
8
OBJECT__45
10
0
20
0
30
0
70
128
71
24
72
27
73
26
0
VERTEX
8
OBJECT__45
10
0
20
0
30
0
70
128
71
25
72
28
73
29
0
VERTEX
8
OBJECT__45
10
0
20
0
30
0
70
128
71
29
72
30
73
25
0
VERTEX
8
OBJECT__45
10
0
20
0
30
0
70
128
71
25
72
31
73
28
0
VERTEX
8
OBJECT__45
10
0
20
0
30
0
70
128
71
30
72
32
73
33
0
VERTEX
8
OBJECT__45
10
0
20
0
30
0
70
128
71
33
72
34
73
30
0
VERTEX
8
OBJECT__45
10
0
20
0
30
0
70
128
71
1
72
34
73
35
0
VERTEX
8
OBJECT__45
10
0
20
0
30
0
70
128
71
34
72
36
73
35
0
VERTEX
8
OBJECT__45
10
0
20
0
30
0
70
128
71
35
72
2
73
1
0
VERTEX
8
OBJECT__45
10
0
20
0
30
0
70
128
71
33
72
36
73
34
0
VERTEX
8
OBJECT__45
10
0
20
0
30
0
70
128
71
29
72
32
73
30
0
VERTEX
8
OBJECT__45
10
0
20
0
30
0
70
128
71
26
72
31
73
25
0
VERTEX
8
OBJECT__45
10
0
20
0
30
0
70
128
71
23
72
27
73
24
0
VERTEX
8
OBJECT__45
10
0
20
0
30
0
70
128
71
20
72
22
73
18
0
VERTEX
8
OBJECT__45
10
0
20
0
30
0
70
128
71
16
72
21
73
15
0
VERTEX
8
OBJECT__45
10
0
20
0
30
0
70
128
71
13
72
17
73
14
0
VERTEX
8
OBJECT__45
10
0
20
0
30
0
70
128
71
10
72
12
73
8
0
VERTEX
8
OBJECT__45
10
0
20
0
30
0
70
128
71
6
72
11
73
5
0
VERTEX
8
OBJECT__45
10
0
20
0
30
0
70
128
71
3
72
7
73
4
0
SEQEND
8
OBJECT__45
0
POLYLINE
8
OBJECT__47
66
1
70
64
71
40
72
40
62
253
0
VERTEX
8
OBJECT__47
10
-25.122999
20
11.185000
30
-46.500000
70
192
0
VERTEX
8
OBJECT__47
10
-27.500000
20
0.000000
30
-46.500000
70
192
0
VERTEX
8
OBJECT__47
10
-27.000000
20
0.000000
30
-46.000000
70
192
0
VERTEX
8
OBJECT__47
10
-18.066999
20
20.065001
30
-46.000000
70
192
0
VERTEX
8
OBJECT__47
10
-18.400999
20
20.436001
30
-46.500000
70
192
0
VERTEX
8
OBJECT__47
10
-22.684999
20
14.541000
30
-46.500000
70
192
0
VERTEX
8
OBJECT__47
10
-24.666000
20
10.982000
30
-46.000000
70
192
0
VERTEX
8
OBJECT__47
10
-8.343000
20
25.679001
30
-46.000000
70
192
0
VERTEX
8
OBJECT__47
10
-11.186000
20
24.601999
30
-46.500000
70
192
0
VERTEX
8
OBJECT__47
10
-8.498000
20
26.153999
30
-46.500000
70
192
0
VERTEX
8
OBJECT__47
10
2.822000
20
26.851999
30
-46.000000
70
192
0
VERTEX
8
OBJECT__47
10
13.500000
20
23.382999
30
-46.000000
70
192
0
VERTEX
8
OBJECT__47
10
13.750000
20
23.816000
30
-46.500000
70
192
0
VERTEX
8
OBJECT__47
10
3.852000
20
27.032000
30
-46.500000
70
192
0
VERTEX
8
OBJECT__47
10
21.843000
20
15.870000
30
-46.000000
70
192
0
VERTEX
8
OBJECT__47
10
22.247999
20
16.164000
30
-46.500000
70
192
0
VERTEX
8
OBJECT__47
10
17.610001
20
20.340000
30
-46.500000
70
192
0
VERTEX
8
OBJECT__47
10
26.410000
20
5.614000
30
-46.000000
70
192
0
VERTEX
8
OBJECT__47
10
26.059999
20
7.602000
30
-46.500000
70
192
0
VERTEX
8
OBJECT__47
10
26.899000
20
5.718000
30
-46.500000
70
192
0
VERTEX
8
OBJECT__47
10
26.899000
20
-5.718000
30
-46.500000
70
192
0
VERTEX
8
OBJECT__47
10
21.843000
20
-15.870000
30
-46.000000
70
192
0
VERTEX
8
OBJECT__47
10
22.247999
20
-16.164000
30
-46.500000
70
192
0
VERTEX
8
OBJECT__47
10
26.059999
20
-7.602000
30
-46.500000
70
192
0
VERTEX
8
OBJECT__47
10
26.410000
20
-5.614000
30
-46.000000
70
192
0
VERTEX
8
OBJECT__47
10
13.500000
20
-23.382999
30
-46.000000
70
192
0
VERTEX
8
OBJECT__47
10
17.610001
20
-20.340000
30
-46.500000
70
192
0
VERTEX
8
OBJECT__47
10
13.750000
20
-23.816000
30
-46.500000
70
192
0
VERTEX
8
OBJECT__47
10
2.822000
20
-26.851999
30
-46.000000
70
192
0
VERTEX
8
OBJECT__47
10
3.852000
20
-27.032000
30
-46.500000
70
192
0
VERTEX
8
OBJECT__47
10
2.875000
20
-27.349001
30
-46.500000
70
192
0
VERTEX
8
OBJECT__47
10
-8.498000
20
-26.153999
30
-46.500000
70
192
0
VERTEX
8
OBJECT__47
10
-18.066999
20
-20.065001
30
-46.000000
70
192
0
VERTEX
8
OBJECT__47
10
-18.400999
20
-20.436001
30
-46.500000
70
192
0
VERTEX
8
OBJECT__47
10
-11.186000
20
-24.601999
30
-46.500000
70
192
0
VERTEX
8
OBJECT__47
10
-8.343000
20
-25.679001
30
-46.000000
70
192
0
VERTEX
8
OBJECT__47
10
-24.666000
20
-10.982000
30
-46.000000
70
192
0
VERTEX
8
OBJECT__47
10
-22.684999
20
-14.541000
30
-46.500000
70
192
0
VERTEX
8
OBJECT__47
10
-25.122999
20
-11.185000
30
-46.500000
70
192
0
VERTEX
8
OBJECT__47
10
2.875000
20
27.349001
30
-46.500000
70
192
0
VERTEX
8
OBJECT__47
10
0
20
0
30
0
70
128
71
1
72
2
73
3
0
VERTEX
8
OBJECT__47
10
0
20
0
30
0
70
128
71
4
72
5
73
6
0
VERTEX
8
OBJECT__47
10
0
20
0
30
0
70
128
71
6
72
7
73
4
0
VERTEX
8
OBJECT__47
10
0
20
0
30
0
70
128
71
4
72
8
73
9
0
VERTEX
8
OBJECT__47
10
0
20
0
30
0
70
128
71
8
72
10
73
9
0
VERTEX
8
OBJECT__47
10
0
20
0
30
0
70
128
71
10
72
8
73
11
0
VERTEX
8
OBJECT__47
10
0
20
0
30
0
70
128
71
12
72
13
73
14
0
VERTEX
8
OBJECT__47
10
0
20
0
30
0
70
128
71
14
72
11
73
12
0
VERTEX
8
OBJECT__47
10
0
20
0
30
0
70
128
71
15
72
16
73
17
0
VERTEX
8
OBJECT__47
10
0
20
0
30
0
70
128
71
17
72
12
73
15
0
VERTEX
8
OBJECT__47
10
0
20
0
30
0
70
128
71
15
72
18
73
19
0
VERTEX
8
OBJECT__47
10
0
20
0
30
0
70
128
71
18
72
20
73
19
0
VERTEX
8
OBJECT__47
10
0
20
0
30
0
70
128
71
21
72
20
73
18
0
VERTEX
8
OBJECT__47
10
0
20
0
30
0
70
128
71
22
72
23
73
24
0
VERTEX
8
OBJECT__47
10
0
20
0
30
0
70
128
71
24
72
25
73
22
0
VERTEX
8
OBJECT__47
10
0
20
0
30
0
70
128
71
22
72
26
73
27
0
VERTEX
8
OBJECT__47
10
0
20
0
30
0
70
128
71
26
72
28
73
27
0
VERTEX
8
OBJECT__47
10
0
20
0
30
0
70
128
71
26
72
29
73
30
0
VERTEX
8
OBJECT__47
10
0
20
0
30
0
70
128
71
29
72
31
73
30
0
VERTEX
8
OBJECT__47
10
0
20
0
30
0
70
128
71
32
72
31
73
29
0
VERTEX
8
OBJECT__47
10
0
20
0
30
0
70
128
71
33
72
34
73
35
0
VERTEX
8
OBJECT__47
10
0
20
0
30
0
70
128
71
35
72
36
73
33
0
VERTEX
8
OBJECT__47
10
0
20
0
30
0
70
128
71
33
72
37
73
38
0
VERTEX
8
OBJECT__47
10
0
20
0
30
0
70
128
71
37
72
39
73
38
0
VERTEX
8
OBJECT__47
10
0
20
0
30
0
70
128
71
39
72
37
73
3
0
VERTEX
8
OBJECT__47
10
0
20
0
30
0
70
128
71
3
72
2
73
39
0
VERTEX
8
OBJECT__47
10
0
20
0
30
0
70
128
71
38
72
34
73
33
0
VERTEX
8
OBJECT__47
10
0
20
0
30
0
70
128
71
35
72
32
73
36
0
VERTEX
8
OBJECT__47
10
0
20
0
30
0
70
128
71
29
72
36
73
32
0
VERTEX
8
OBJECT__47
10
0
20
0
30
0
70
128
71
30
72
28
73
26
0
VERTEX
8
OBJECT__47
10
0
20
0
30
0
70
128
71
27
72
23
73
22
0
VERTEX
8
OBJECT__47
10
0
20
0
30
0
70
128
71
24
72
21
73
25
0
VERTEX
8
OBJECT__47
10
0
20
0
30
0
70
128
71
18
72
25
73
21
0
VERTEX
8
OBJECT__47
10
0
20
0
30
0
70
128
71
19
72
16
73
15
0
VERTEX
8
OBJECT__47
10
0
20
0
30
0
70
128
71
17
72
13
73
12
0
VERTEX
8
OBJECT__47
10
0
20
0
30
0
70
128
71
14
72
40
73
11
0
VERTEX
8
OBJECT__47
10
0
20
0
30
0
70
128
71
11
72
40
73
10
0
VERTEX
8
OBJECT__47
10
0
20
0
30
0
70
128
71
9
72
5
73
4
0
VERTEX
8
OBJECT__47
10
0
20
0
30
0
70
128
71
6
72
1
73
7
0
VERTEX
8
OBJECT__47
10
0
20
0
30
0
70
128
71
3
72
7
73
1
0
SEQEND
8
OBJECT__47
0
POLYLINE
8
OBJECT__48
66
1
70
64
71
29
72
29
62
253
0
VERTEX
8
OBJECT__48
10
-24.666000
20
-10.982000
30
-46.000000
70
192
0
VERTEX
8
OBJECT__48
10
-20.722000
20
-9.979000
30
-46.000000
70
192
0
VERTEX
8
OBJECT__48
10
-23.000000
20
0.000000
30
-46.000000
70
192
0
VERTEX
8
OBJECT__48
10
-18.066999
20
-20.065001
30
-46.000000
70
192
0
VERTEX
8
OBJECT__48
10
-14.340000
20
-17.982000
30
-46.000000
70
192
0
VERTEX
8
OBJECT__48
10
-24.666000
20
10.982000
30
-46.000000
70
192
0
VERTEX
8
OBJECT__48
10
-27.000000
20
0.000000
30
-46.000000
70
192
0
VERTEX
8
OBJECT__48
10
-8.343000
20
-25.679001
30
-46.000000
70
192
0
VERTEX
8
OBJECT__48
10
-5.118000
20
-22.423000
30
-46.000000
70
192
0
VERTEX
8
OBJECT__48
10
2.822000
20
-26.851999
30
-46.000000
70
192
0
VERTEX
8
OBJECT__48
10
5.118000
20
-22.423000
30
-46.000000
70
192
0
VERTEX
8
OBJECT__48
10
26.410000
20
5.614000
30
-46.000000
70
192
0
VERTEX
8
OBJECT__48
10
21.843000
20
15.870000
30
-46.000000
70
192
0
VERTEX
8
OBJECT__48
10
20.722000
20
9.979000
30
-46.000000
70
192
0
VERTEX
8
OBJECT__48
10
13.500000
20
23.382999
30
-46.000000
70
192
0
VERTEX
8
OBJECT__48
10
14.340000
20
17.982000
30
-46.000000
70
192
0
VERTEX
8
OBJECT__48
10
2.822000
20
26.851999
30
-46.000000
70
192
0
VERTEX
8
OBJECT__48
10
5.118000
20
22.423000
30
-46.000000
70
192
0
VERTEX
8
OBJECT__48
10
-8.343000
20
25.679001
30
-46.000000
70
192
0
VERTEX
8
OBJECT__48
10
-5.118000
20
22.423000
30
-46.000000
70
192
0
VERTEX
8
OBJECT__48
10
26.410000
20
-5.614000
30
-46.000000
70
192
0
VERTEX
8
OBJECT__48
10
23.000000
20
0.000000
30
-46.000000
70
192
0
VERTEX
8
OBJECT__48
10
20.722000
20
-9.979000
30
-46.000000
70
192
0
VERTEX
8
OBJECT__48
10
-18.066999
20
20.065001
30
-46.000000
70
192
0
VERTEX
8
OBJECT__48
10
-14.340000
20
17.982000
30
-46.000000
70
192
0
VERTEX
8
OBJECT__48
10
-20.722000
20
9.979000
30
-46.000000
70
192
0
VERTEX
8
OBJECT__48
10
13.500000
20
-23.382999
30
-46.000000
70
192
0
VERTEX
8
OBJECT__48
10
14.340000
20
-17.982000
30
-46.000000
70
192
0
VERTEX
8
OBJECT__48
10
21.843000
20
-15.870000
30
-46.000000
70
192
0
VERTEX
8
OBJECT__48
10
0
20
0
30
0
70
128
71
1
72
2
73
3
0
VERTEX
8
OBJECT__48
10
0
20
0
30
0
70
128
71
4
72
5
73
2
0
VERTEX
8
OBJECT__48
10
0
20
0
30
0
70
128
71
6
72
7
73
3
0
VERTEX
8
OBJECT__48
10
0
20
0
30
0
70
128
71
2
72
1
73
4
0
VERTEX
8
OBJECT__48
10
0
20
0
30
0
70
128
71
8
72
9
73
5
0
VERTEX
8
OBJECT__48
10
0
20
0
30
0
70
128
71
10
72
11
73
9
0
VERTEX
8
OBJECT__48
10
0
20
0
30
0
70
128
71
12
72
13
73
14
0
VERTEX
8
OBJECT__48
10
0
20
0
30
0
70
128
71
13
72
15
73
16
0
VERTEX
8
OBJECT__48
10
0
20
0
30
0
70
128
71
15
72
17
73
18
0
VERTEX
8
OBJECT__48
10
0
20
0
30
0
70
128
71
17
72
19
73
20
0
VERTEX
8
OBJECT__48
10
0
20
0
30
0
70
128
71
3
72
7
73
1
0
VERTEX
8
OBJECT__48
10
0
20
0
30
0
70
128
71
9
72
8
73
10
0
VERTEX
8
OBJECT__48
10
0
20
0
30
0
70
128
71
21
72
22
73
23
0
VERTEX
8
OBJECT__48
10
0
20
0
30
0
70
128
71
16
72
14
73
13
0
VERTEX
8
OBJECT__48
10
0
20
0
30
0
70
128
71
20
72
18
73
17
0
VERTEX
8
OBJECT__48
10
0
20
0
30
0
70
128
71
19
72
24
73
25
0
VERTEX
8
OBJECT__48
10
0
20
0
30
0
70
128
71
24
72
6
73
26
0
VERTEX
8
OBJECT__48
10
0
20
0
30
0
70
128
71
5
72
4
73
8
0
VERTEX
8
OBJECT__48
10
0
20
0
30
0
70
128
71
27
72
28
73
11
0
VERTEX
8
OBJECT__48
10
0
20
0
30
0
70
128
71
29
72
23
73
28
0
VERTEX
8
OBJECT__48
10
0
20
0
30
0
70
128
71
21
72
12
73
22
0
VERTEX
8
OBJECT__48
10
0
20
0
30
0
70
128
71
18
72
16
73
15
0
VERTEX
8
OBJECT__48
10
0
20
0
30
0
70
128
71
26
72
25
73
24
0
VERTEX
8
OBJECT__48
10
0
20
0
30
0
70
128
71
11
72
10
73
27
0
VERTEX
8
OBJECT__48
10
0
20
0
30
0
70
128
71
23
72
29
73
21
0
VERTEX
8
OBJECT__48
10
0
20
0
30
0
70
128
71
25
72
20
73
19
0
VERTEX
8
OBJECT__48
10
0
20
0
30
0
70
128
71
28
72
27
73
29
0
VERTEX
8
OBJECT__48
10
0
20
0
30
0
70
128
71
3
72
26
73
6
0
VERTEX
8
OBJECT__48
10
0
20
0
30
0
70
128
71
14
72
22
73
12
0
SEQEND
8
OBJECT__48
0
POLYLINE
8
OBJECT__49
66
1
70
64
71
36
72
36
62
253
0
VERTEX
8
OBJECT__49
10
-20.722000
20
9.979000
30
-46.000000
70
192
0
VERTEX
8
OBJECT__49
10
-23.000000
20
0.000000
30
-46.000000
70
192
0
VERTEX
8
OBJECT__49
10
-22.500000
20
0.000000
30
-45.500000
70
192
0
VERTEX
8
OBJECT__49
10
-14.340000
20
17.982000
30
-46.000000
70
192
0
VERTEX
8
OBJECT__49
10
-17.780001
20
12.888000
30
-45.500000
70
192
0
VERTEX
8
OBJECT__49
10
-20.271999
20
9.762000
30
-45.500000
70
192
0
VERTEX
8
OBJECT__49
10
-14.029000
20
17.591000
30
-45.500000
70
192
0
VERTEX
8
OBJECT__49
10
-6.796000
20
21.073999
30
-45.500000
70
192
0
VERTEX
8
OBJECT__49
10
-5.118000
20
22.423000
30
-46.000000
70
192
0
VERTEX
8
OBJECT__49
10
5.118000
20
22.423000
30
-46.000000
70
192
0
VERTEX
8
OBJECT__49
10
-5.007000
20
21.936001
30
-45.500000
70
192
0
VERTEX
8
OBJECT__49
10
14.340000
20
17.982000
30
-46.000000
70
192
0
VERTEX
8
OBJECT__49
10
6.796000
20
21.073999
30
-45.500000
70
192
0
VERTEX
8
OBJECT__49
10
5.007000
20
21.936001
30
-45.500000
70
192
0
VERTEX
8
OBJECT__49
10
14.029000
20
17.591000
30
-45.500000
70
192
0
VERTEX
8
OBJECT__49
10
17.780001
20
12.888000
30
-45.500000
70
192
0
VERTEX
8
OBJECT__49
10
20.722000
20
9.979000
30
-46.000000
70
192
0
VERTEX
8
OBJECT__49
10
23.000000
20
0.000000
30
-46.000000
70
192
0
VERTEX
8
OBJECT__49
10
20.271999
20
9.762000
30
-45.500000
70
192
0
VERTEX
8
OBJECT__49
10
22.500000
20
0.000000
30
-45.500000
70
192
0
VERTEX
8
OBJECT__49
10
20.271999
20
-9.762000
30
-45.500000
70
192
0
VERTEX
8
OBJECT__49
10
14.340000
20
-17.982000
30
-46.000000
70
192
0
VERTEX
8
OBJECT__49
10
20.722000
20
-9.979000
30
-46.000000
70
192
0
VERTEX
8
OBJECT__49
10
17.780001
20
-12.888000
30
-45.500000
70
192
0
VERTEX
8
OBJECT__49
10
14.029000
20
-17.591000
30
-45.500000
70
192
0
VERTEX
8
OBJECT__49
10
6.796000
20
-21.073999
30
-45.500000
70
192
0
VERTEX
8
OBJECT__49
10
5.118000
20
-22.423000
30
-46.000000
70
192
0
VERTEX
8
OBJECT__49
10
5.007000
20
-21.936001
30
-45.500000
70
192
0
VERTEX
8
OBJECT__49
10
-5.007000
20
-21.936001
30
-45.500000
70
192
0
VERTEX
8
OBJECT__49
10
-14.340000
20
-17.982000
30
-46.000000
70
192
0
VERTEX
8
OBJECT__49
10
-5.118000
20
-22.423000
30
-46.000000
70
192
0
VERTEX
8
OBJECT__49
10
-6.796000
20
-21.073999
30
-45.500000
70
192
0
VERTEX
8
OBJECT__49
10
-14.029000
20
-17.591000
30
-45.500000
70
192
0
VERTEX
8
OBJECT__49
10
-17.780001
20
-12.888000
30
-45.500000
70
192
0
VERTEX
8
OBJECT__49
10
-20.722000
20
-9.979000
30
-46.000000
70
192
0
VERTEX
8
OBJECT__49
10
-20.271999
20
-9.762000
30
-45.500000
70
192
0
VERTEX
8
OBJECT__49
10
0
20
0
30
0
70
128
71
1
72
2
73
3
0
VERTEX
8
OBJECT__49
10
0
20
0
30
0
70
128
71
4
72
1
73
5
0
VERTEX
8
OBJECT__49
10
0
20
0
30
0
70
128
71
1
72
6
73
5
0
VERTEX
8
OBJECT__49
10
0
20
0
30
0
70
128
71
4
72
7
73
8
0
VERTEX
8
OBJECT__49
10
0
20
0
30
0
70
128
71
8
72
9
73
4
0
VERTEX
8
OBJECT__49
10
0
20
0
30
0
70
128
71
10
72
9
73
11
0
VERTEX
8
OBJECT__49
10
0
20
0
30
0
70
128
71
12
72
10
73
13
0
VERTEX
8
OBJECT__49
10
0
20
0
30
0
70
128
71
10
72
14
73
13
0
VERTEX
8
OBJECT__49
10
0
20
0
30
0
70
128
71
12
72
15
73
16
0
VERTEX
8
OBJECT__49
10
0
20
0
30
0
70
128
71
16
72
17
73
12
0
VERTEX
8
OBJECT__49
10
0
20
0
30
0
70
128
71
18
72
17
73
19
0
VERTEX
8
OBJECT__49
10
0
20
0
30
0
70
128
71
18
72
20
73
21
0
VERTEX
8
OBJECT__49
10
0
20
0
30
0
70
128
71
22
72
23
73
24
0
VERTEX
8
OBJECT__49
10
0
20
0
30
0
70
128
71
23
72
21
73
24
0
VERTEX
8
OBJECT__49
10
0
20
0
30
0
70
128
71
22
72
25
73
26
0
VERTEX
8
OBJECT__49
10
0
20
0
30
0
70
128
71
26
72
27
73
22
0
VERTEX
8
OBJECT__49
10
0
20
0
30
0
70
128
71
27
72
28
73
29
0
VERTEX
8
OBJECT__49
10
0
20
0
30
0
70
128
71
30
72
31
73
32
0
VERTEX
8
OBJECT__49
10
0
20
0
30
0
70
128
71
31
72
29
73
32
0
VERTEX
8
OBJECT__49
10
0
20
0
30
0
70
128
71
30
72
33
73
34
0
VERTEX
8
OBJECT__49
10
0
20
0
30
0
70
128
71
34
72
35
73
30
0
VERTEX
8
OBJECT__49
10
0
20
0
30
0
70
128
71
2
72
35
73
36
0
VERTEX
8
OBJECT__49
10
0
20
0
30
0
70
128
71
36
72
3
73
2
0
VERTEX
8
OBJECT__49
10
0
20
0
30
0
70
128
71
34
72
36
73
35
0
VERTEX
8
OBJECT__49
10
0
20
0
30
0
70
128
71
32
72
33
73
30
0
VERTEX
8
OBJECT__49
10
0
20
0
30
0
70
128
71
29
72
31
73
27
0
VERTEX
8
OBJECT__49
10
0
20
0
30
0
70
128
71
26
72
28
73
27
0
VERTEX
8
OBJECT__49
10
0
20
0
30
0
70
128
71
24
72
25
73
22
0
VERTEX
8
OBJECT__49
10
0
20
0
30
0
70
128
71
21
72
23
73
18
0
VERTEX
8
OBJECT__49
10
0
20
0
30
0
70
128
71
19
72
20
73
18
0
VERTEX
8
OBJECT__49
10
0
20
0
30
0
70
128
71
16
72
19
73
17
0
VERTEX
8
OBJECT__49
10
0
20
0
30
0
70
128
71
13
72
15
73
12
0
VERTEX
8
OBJECT__49
10
0
20
0
30
0
70
128
71
11
72
14
73
10
0
VERTEX
8
OBJECT__49
10
0
20
0
30
0
70
128
71
8
72
11
73
9
0
VERTEX
8
OBJECT__49
10
0
20
0
30
0
70
128
71
5
72
7
73
4
0
VERTEX
8
OBJECT__49
10
0
20
0
30
0
70
128
71
3
72
6
73
1
0
SEQEND
8
OBJECT__49
0
POLYLINE
8
OBJECT__50
66
1
70
64
71
44
72
44
62
253
0
VERTEX
8
OBJECT__50
10
-17.780001
20
12.888000
30
-45.500000
70
192
0
VERTEX
8
OBJECT__50
10
-20.271999
20
9.762000
30
-45.500000
70
192
0
VERTEX
8
OBJECT__50
10
-20.271999
20
9.762000
30
-42.500000
70
192
0
VERTEX
8
OBJECT__50
10
-22.500000
20
0.000000
30
-42.500000
70
192
0
VERTEX
8
OBJECT__50
10
-22.500000
20
0.000000
30
-45.500000
70
192
0
VERTEX
8
OBJECT__50
10
-6.796000
20
21.073999
30
-45.500000
70
192
0
VERTEX
8
OBJECT__50
10
-14.029000
20
17.591000
30
-45.500000
70
192
0
VERTEX
8
OBJECT__50
10
-14.029000
20
17.591000
30
-42.500000
70
192
0
VERTEX
8
OBJECT__50
10
-17.780001
20
12.888000
30
-42.500000
70
192
0
VERTEX
8
OBJECT__50
10
6.796000
20
21.073999
30
-45.500000
70
192
0
VERTEX
8
OBJECT__50
10
5.007000
20
21.936001
30
-45.500000
70
192
0
VERTEX
8
OBJECT__50
10
5.007000
20
21.936001
30
-42.500000
70
192
0
VERTEX
8
OBJECT__50
10
-5.007000
20
21.936001
30
-42.500000
70
192
0
VERTEX
8
OBJECT__50
10
-5.007000
20
21.936001
30
-45.500000
70
192
0
VERTEX
8
OBJECT__50
10
-6.796000
20
21.073999
30
-42.500000
70
192
0
VERTEX
8
OBJECT__50
10
17.780001
20
12.888000
30
-45.500000
70
192
0
VERTEX
8
OBJECT__50
10
14.029000
20
17.591000
30
-45.500000
70
192
0
VERTEX
8
OBJECT__50
10
14.029000
20
17.591000
30
-42.500000
70
192
0
VERTEX
8
OBJECT__50
10
6.796000
20
21.073999
30
-42.500000
70
192
0
VERTEX
8
OBJECT__50
10
22.500000
20
0.000000
30
-45.500000
70
192
0
VERTEX
8
OBJECT__50
10
20.271999
20
9.762000
30
-45.500000
70
192
0
VERTEX
8
OBJECT__50
10
20.271999
20
9.762000
30
-42.500000
70
192
0
VERTEX
8
OBJECT__50
10
17.780001
20
12.888000
30
-42.500000
70
192
0
VERTEX
8
OBJECT__50
10
17.780001
20
-12.888000
30
-45.500000
70
192
0
VERTEX
8
OBJECT__50
10
20.271999
20
-9.762000
30
-45.500000
70
192
0
VERTEX
8
OBJECT__50
10
20.271999
20
-9.762000
30
-42.500000
70
192
0
VERTEX
8
OBJECT__50
10
22.500000
20
0.000000
30
-42.500000
70
192
0
VERTEX
8
OBJECT__50
10
6.796000
20
-21.073999
30
-45.500000
70
192
0
VERTEX
8
OBJECT__50
10
14.029000
20
-17.591000
30
-45.500000
70
192
0
VERTEX
8
OBJECT__50
10
14.029000
20
-17.591000
30
-42.500000
70
192
0
VERTEX
8
OBJECT__50
10
17.780001
20
-12.888000
30
-42.500000
70
192
0
VERTEX
8
OBJECT__50
10
-6.796000
20
-21.073999
30
-45.500000
70
192
0
VERTEX
8
OBJECT__50
10
-5.007000
20
-21.936001
30
-45.500000
70
192
0
VERTEX
8
OBJECT__50
10
-5.007000
20
-21.936001
30
-42.500000
70
192
0
VERTEX
8
OBJECT__50
10
5.007000
20
-21.936001
30
-42.500000
70
192
0
VERTEX
8
OBJECT__50
10
5.007000
20
-21.936001
30
-45.500000
70
192
0
VERTEX
8
OBJECT__50
10
6.796000
20
-21.073999
30
-42.500000
70
192
0
VERTEX
8
OBJECT__50
10
-17.780001
20
-12.888000
30
-45.500000
70
192
0
VERTEX
8
OBJECT__50
10
-14.029000
20
-17.591000
30
-45.500000
70
192
0
VERTEX
8
OBJECT__50
10
-14.029000
20
-17.591000
30
-42.500000
70
192
0
VERTEX
8
OBJECT__50
10
-6.796000
20
-21.073999
30
-42.500000
70
192
0
VERTEX
8
OBJECT__50
10
-20.271999
20
-9.762000
30
-45.500000
70
192
0
VERTEX
8
OBJECT__50
10
-20.271999
20
-9.762000
30
-42.500000
70
192
0
VERTEX
8
OBJECT__50
10
-17.780001
20
-12.888000
30
-42.500000
70
192
0
VERTEX
8
OBJECT__50
10
0
20
0
30
0
70
128
71
1
72
2
73
3
0
VERTEX
8
OBJECT__50
10
0
20
0
30
0
70
128
71
4
72
3
73
2
0
VERTEX
8
OBJECT__50
10
0
20
0
30
0
70
128
71
2
72
5
73
4
0
VERTEX
8
OBJECT__50
10
0
20
0
30
0
70
128
71
6
72
7
73
8
0
VERTEX
8
OBJECT__50
10
0
20
0
30
0
70
128
71
9
72
8
73
7
0
VERTEX
8
OBJECT__50
10
0
20
0
30
0
70
128
71
7
72
1
73
9
0
VERTEX
8
OBJECT__50
10
0
20
0
30
0
70
128
71
10
72
11
73
12
0
VERTEX
8
OBJECT__50
10
0
20
0
30
0
70
128
71
13
72
12
73
11
0
VERTEX
8
OBJECT__50
10
0
20
0
30
0
70
128
71
11
72
14
73
13
0
VERTEX
8
OBJECT__50
10
0
20
0
30
0
70
128
71
15
72
13
73
14
0
VERTEX
8
OBJECT__50
10
0
20
0
30
0
70
128
71
14
72
6
73
15
0
VERTEX
8
OBJECT__50
10
0
20
0
30
0
70
128
71
16
72
17
73
18
0
VERTEX
8
OBJECT__50
10
0
20
0
30
0
70
128
71
19
72
18
73
17
0
VERTEX
8
OBJECT__50
10
0
20
0
30
0
70
128
71
17
72
10
73
19
0
VERTEX
8
OBJECT__50
10
0
20
0
30
0
70
128
71
20
72
21
73
22
0
VERTEX
8
OBJECT__50
10
0
20
0
30
0
70
128
71
23
72
22
73
21
0
VERTEX
8
OBJECT__50
10
0
20
0
30
0
70
128
71
21
72
16
73
23
0
VERTEX
8
OBJECT__50
10
0
20
0
30
0
70
128
71
24
72
25
73
26
0
VERTEX
8
OBJECT__50
10
0
20
0
30
0
70
128
71
27
72
26
73
25
0
VERTEX
8
OBJECT__50
10
0
20
0
30
0
70
128
71
25
72
20
73
27
0
VERTEX
8
OBJECT__50
10
0
20
0
30
0
70
128
71
28
72
29
73
30
0
VERTEX
8
OBJECT__50
10
0
20
0
30
0
70
128
71
31
72
30
73
29
0
VERTEX
8
OBJECT__50
10
0
20
0
30
0
70
128
71
29
72
24
73
31
0
VERTEX
8
OBJECT__50
10
0
20
0
30
0
70
128
71
32
72
33
73
34
0
VERTEX
8
OBJECT__50
10
0
20
0
30
0
70
128
71
35
72
34
73
33
0
VERTEX
8
OBJECT__50
10
0
20
0
30
0
70
128
71
33
72
36
73
35
0
VERTEX
8
OBJECT__50
10
0
20
0
30
0
70
128
71
37
72
35
73
36
0
VERTEX
8
OBJECT__50
10
0
20
0
30
0
70
128
71
36
72
28
73
37
0
VERTEX
8
OBJECT__50
10
0
20
0
30
0
70
128
71
38
72
39
73
40
0
VERTEX
8
OBJECT__50
10
0
20
0
30
0
70
128
71
41
72
40
73
39
0
VERTEX
8
OBJECT__50
10
0
20
0
30
0
70
128
71
39
72
32
73
41
0
VERTEX
8
OBJECT__50
10
0
20
0
30
0
70
128
71
5
72
42
73
43
0
VERTEX
8
OBJECT__50
10
0
20
0
30
0
70
128
71
44
72
43
73
42
0
VERTEX
8
OBJECT__50
10
0
20
0
30
0
70
128
71
42
72
38
73
44
0
VERTEX
8
OBJECT__50
10
0
20
0
30
0
70
128
71
43
72
4
73
5
0
VERTEX
8
OBJECT__50
10
0
20
0
30
0
70
128
71
40
72
44
73
38
0
VERTEX
8
OBJECT__50
10
0
20
0
30
0
70
128
71
34
72
41
73
32
0
VERTEX
8
OBJECT__50
10
0
20
0
30
0
70
128
71
30
72
37
73
28
0
VERTEX
8
OBJECT__50
10
0
20
0
30
0
70
128
71
26
72
31
73
24
0
VERTEX
8
OBJECT__50
10
0
20
0
30
0
70
128
71
22
72
27
73
20
0
VERTEX
8
OBJECT__50
10
0
20
0
30
0
70
128
71
18
72
23
73
16
0
VERTEX
8
OBJECT__50
10
0
20
0
30
0
70
128
71
12
72
19
73
10
0
VERTEX
8
OBJECT__50
10
0
20
0
30
0
70
128
71
8
72
15
73
6
0
VERTEX
8
OBJECT__50
10
0
20
0
30
0
70
128
71
3
72
9
73
1
0
SEQEND
8
OBJECT__50
0
POLYLINE
8
OBJECT__51
66
1
70
64
71
36
72
36
62
253
0
VERTEX
8
OBJECT__51
10
-22.500000
20
0.000000
30
-42.500000
70
192
0
VERTEX
8
OBJECT__51
10
-22.000000
20
0.000000
30
-42.000000
70
192
0
VERTEX
8
OBJECT__51
10
-19.820999
20
9.545000
30
-42.000000
70
192
0
VERTEX
8
OBJECT__51
10
-13.717000
20
17.200001
30
-42.000000
70
192
0
VERTEX
8
OBJECT__51
10
-14.029000
20
17.591000
30
-42.500000
70
192
0
VERTEX
8
OBJECT__51
10
-17.780001
20
12.888000
30
-42.500000
70
192
0
VERTEX
8
OBJECT__51
10
-4.895000
20
21.448000
30
-42.000000
70
192
0
VERTEX
8
OBJECT__51
10
-6.796000
20
21.073999
30
-42.500000
70
192
0
VERTEX
8
OBJECT__51
10
-5.007000
20
21.936001
30
-42.500000
70
192
0
VERTEX
8
OBJECT__51
10
5.007000
20
21.936001
30
-42.500000
70
192
0
VERTEX
8
OBJECT__51
10
13.717000
20
17.200001
30
-42.000000
70
192
0
VERTEX
8
OBJECT__51
10
14.029000
20
17.591000
30
-42.500000
70
192
0
VERTEX
8
OBJECT__51
10
6.796000
20
21.073999
30
-42.500000
70
192
0
VERTEX
8
OBJECT__51
10
4.895000
20
21.448000
30
-42.000000
70
192
0
VERTEX
8
OBJECT__51
10
19.820999
20
9.545000
30
-42.000000
70
192
0
VERTEX
8
OBJECT__51
10
17.780001
20
12.888000
30
-42.500000
70
192
0
VERTEX
8
OBJECT__51
10
20.271999
20
9.762000
30
-42.500000
70
192
0
VERTEX
8
OBJECT__51
10
22.500000
20
0.000000
30
-42.500000
70
192
0
VERTEX
8
OBJECT__51
10
22.000000
20
0.000000
30
-42.000000
70
192
0
VERTEX
8
OBJECT__51
10
19.820999
20
-9.545000
30
-42.000000
70
192
0
VERTEX
8
OBJECT__51
10
13.717000
20
-17.200001
30
-42.000000
70
192
0
VERTEX
8
OBJECT__51
10
14.029000
20
-17.591000
30
-42.500000
70
192
0
VERTEX
8
OBJECT__51
10
17.780001
20
-12.888000
30
-42.500000
70
192
0
VERTEX
8
OBJECT__51
10
4.895000
20
-21.448000
30
-42.000000
70
192
0
VERTEX
8
OBJECT__51
10
6.796000
20
-21.073999
30
-42.500000
70
192
0
VERTEX
8
OBJECT__51
10
5.007000
20
-21.936001
30
-42.500000
70
192
0
VERTEX
8
OBJECT__51
10
-5.007000
20
-21.936001
30
-42.500000
70
192
0
VERTEX
8
OBJECT__51
10
-13.717000
20
-17.200001
30
-42.000000
70
192
0
VERTEX
8
OBJECT__51
10
-14.029000
20
-17.591000
30
-42.500000
70
192
0
VERTEX
8
OBJECT__51
10
-6.796000
20
-21.073999
30
-42.500000
70
192
0
VERTEX
8
OBJECT__51
10
-4.895000
20
-21.448000
30
-42.000000
70
192
0
VERTEX
8
OBJECT__51
10
-19.820999
20
-9.545000
30
-42.000000
70
192
0
VERTEX
8
OBJECT__51
10
-17.780001
20
-12.888000
30
-42.500000
70
192
0
VERTEX
8
OBJECT__51
10
-20.271999
20
-9.762000
30
-42.500000
70
192
0
VERTEX
8
OBJECT__51
10
20.271999
20
-9.762000
30
-42.500000
70
192
0
VERTEX
8
OBJECT__51
10
-20.271999
20
9.762000
30
-42.500000
70
192
0
VERTEX
8
OBJECT__51
10
0
20
0
30
0
70
128
71
1
72
2
73
3
0
VERTEX
8
OBJECT__51
10
0
20
0
30
0
70
128
71
4
72
5
73
6
0
VERTEX
8
OBJECT__51
10
0
20
0
30
0
70
128
71
6
72
3
73
4
0
VERTEX
8
OBJECT__51
10
0
20
0
30
0
70
128
71
4
72
7
73
8
0
VERTEX
8
OBJECT__51
10
0
20
0
30
0
70
128
71
7
72
9
73
8
0
VERTEX
8
OBJECT__51
10
0
20
0
30
0
70
128
71
10
72
9
73
7
0
VERTEX
8
OBJECT__51
10
0
20
0
30
0
70
128
71
11
72
12
73
13
0
VERTEX
8
OBJECT__51
10
0
20
0
30
0
70
128
71
13
72
14
73
11
0
VERTEX
8
OBJECT__51
10
0
20
0
30
0
70
128
71
11
72
15
73
16
0
VERTEX
8
OBJECT__51
10
0
20
0
30
0
70
128
71
15
72
17
73
16
0
VERTEX
8
OBJECT__51
10
0
20
0
30
0
70
128
71
18
72
17
73
15
0
VERTEX
8
OBJECT__51
10
0
20
0
30
0
70
128
71
18
72
19
73
20
0
VERTEX
8
OBJECT__51
10
0
20
0
30
0
70
128
71
21
72
22
73
23
0
VERTEX
8
OBJECT__51
10
0
20
0
30
0
70
128
71
23
72
20
73
21
0
VERTEX
8
OBJECT__51
10
0
20
0
30
0
70
128
71
21
72
24
73
25
0
VERTEX
8
OBJECT__51
10
0
20
0
30
0
70
128
71
24
72
26
73
25
0
VERTEX
8
OBJECT__51
10
0
20
0
30
0
70
128
71
27
72
26
73
24
0
VERTEX
8
OBJECT__51
10
0
20
0
30
0
70
128
71
28
72
29
73
30
0
VERTEX
8
OBJECT__51
10
0
20
0
30
0
70
128
71
30
72
31
73
28
0
VERTEX
8
OBJECT__51
10
0
20
0
30
0
70
128
71
28
72
32
73
33
0
VERTEX
8
OBJECT__51
10
0
20
0
30
0
70
128
71
32
72
34
73
33
0
VERTEX
8
OBJECT__51
10
0
20
0
30
0
70
128
71
34
72
32
73
2
0
VERTEX
8
OBJECT__51
10
0
20
0
30
0
70
128
71
2
72
1
73
34
0
VERTEX
8
OBJECT__51
10
0
20
0
30
0
70
128
71
33
72
29
73
28
0
VERTEX
8
OBJECT__51
10
0
20
0
30
0
70
128
71
30
72
27
73
31
0
VERTEX
8
OBJECT__51
10
0
20
0
30
0
70
128
71
24
72
31
73
27
0
VERTEX
8
OBJECT__51
10
0
20
0
30
0
70
128
71
25
72
22
73
21
0
VERTEX
8
OBJECT__51
10
0
20
0
30
0
70
128
71
23
72
35
73
20
0
VERTEX
8
OBJECT__51
10
0
20
0
30
0
70
128
71
20
72
35
73
18
0
VERTEX
8
OBJECT__51
10
0
20
0
30
0
70
128
71
15
72
19
73
18
0
VERTEX
8
OBJECT__51
10
0
20
0
30
0
70
128
71
16
72
12
73
11
0
VERTEX
8
OBJECT__51
10
0
20
0
30
0
70
128
71
13
72
10
73
14
0
VERTEX
8
OBJECT__51
10
0
20
0
30
0
70
128
71
7
72
14
73
10
0
VERTEX
8
OBJECT__51
10
0
20
0
30
0
70
128
71
8
72
5
73
4
0
VERTEX
8
OBJECT__51
10
0
20
0
30
0
70
128
71
6
72
36
73
3
0
VERTEX
8
OBJECT__51
10
0
20
0
30
0
70
128
71
3
72
36
73
1
0
SEQEND
8
OBJECT__51
0
POLYLINE
8
OBJECT__52
66
1
70
64
71
14
72
12
62
253
0
VERTEX
8
OBJECT__52
10
-4.895000
20
21.448000
30
-42.000000
70
192
0
VERTEX
8
OBJECT__52
10
-19.820999
20
9.545000
30
-42.000000
70
192
0
VERTEX
8
OBJECT__52
10
-22.000000
20
0.000000
30
-42.000000
70
192
0
VERTEX
8
OBJECT__52
10
19.820999
20
9.545000
30
-42.000000
70
192
0
VERTEX
8
OBJECT__52
10
13.717000
20
-17.200001
30
-42.000000
70
192
0
VERTEX
8
OBJECT__52
10
19.820999
20
-9.545000
30
-42.000000
70
192
0
VERTEX
8
OBJECT__52
10
-4.895000
20
-21.448000
30
-42.000000
70
192
0
VERTEX
8
OBJECT__52
10
4.895000
20
-21.448000
30
-42.000000
70
192
0
VERTEX
8
OBJECT__52
10
-13.717000
20
17.200001
30
-42.000000
70
192
0
VERTEX
8
OBJECT__52
10
-19.820999
20
-9.545000
30
-42.000000
70
192
0
VERTEX
8
OBJECT__52
10
-13.717000
20
-17.200001
30
-42.000000
70
192
0
VERTEX
8
OBJECT__52
10
4.895000
20
21.448000
30
-42.000000
70
192
0
VERTEX
8
OBJECT__52
10
13.717000
20
17.200001
30
-42.000000
70
192
0
VERTEX
8
OBJECT__52
10
22.000000
20
0.000000
30
-42.000000
70
192
0
VERTEX
8
OBJECT__52
10
0
20
0
30
0
70
128
71
1
72
2
73
3
0
VERTEX
8
OBJECT__52
10
0
20
0
30
0
70
128
71
4
72
5
73
6
0
VERTEX
8
OBJECT__52
10
0
20
0
30
0
70
128
71
4
72
7
73
8
0
VERTEX
8
OBJECT__52
10
0
20
0
30
0
70
128
71
1
72
9
73
2
0
VERTEX
8
OBJECT__52
10
0
20
0
30
0
70
128
71
8
72
5
73
4
0
VERTEX
8
OBJECT__52
10
0
20
0
30
0
70
128
71
4
72
10
73
11
0
VERTEX
8
OBJECT__52
10
0
20
0
30
0
70
128
71
10
72
12
73
1
0
VERTEX
8
OBJECT__52
10
0
20
0
30
0
70
128
71
10
72
4
73
13
0
VERTEX
8
OBJECT__52
10
0
20
0
30
0
70
128
71
11
72
7
73
4
0
VERTEX
8
OBJECT__52
10
0
20
0
30
0
70
128
71
13
72
12
73
10
0
VERTEX
8
OBJECT__52
10
0
20
0
30
0
70
128
71
3
72
10
73
1
0
VERTEX
8
OBJECT__52
10
0
20
0
30
0
70
128
71
6
72
14
73
4
0
SEQEND
8
OBJECT__52
0
POLYLINE
8
OBJECT__53
66
1
70
64
71
20
72
20
62
253
0
VERTEX
8
OBJECT__53
10
13.789000
20
-11.570000
30
46.000000
70
192
0
VERTEX
8
OBJECT__53
10
13.789000
20
-11.570000
30
-46.000000
70
192
0
VERTEX
8
OBJECT__53
10
18.000000
20
0.000000
30
-46.000000
70
192
0
VERTEX
8
OBJECT__53
10
3.126000
20
-17.726999
30
46.000000
70
192
0
VERTEX
8
OBJECT__53
10
3.126000
20
-17.726999
30
-46.000000
70
192
0
VERTEX
8
OBJECT__53
10
-9.000000
20
-15.588000
30
46.000000
70
192
0
VERTEX
8
OBJECT__53
10
-9.000000
20
-15.588000
30
-46.000000
70
192
0
VERTEX
8
OBJECT__53
10
-16.914000
20
-6.156000
30
46.000000
70
192
0
VERTEX
8
OBJECT__53
10
-16.914000
20
-6.156000
30
-46.000000
70
192
0
VERTEX
8
OBJECT__53
10
-18.000000
20
0.000000
30
46.000000
70
192
0
VERTEX
8
OBJECT__53
10
-16.914000
20
6.156000
30
46.000000
70
192
0
VERTEX
8
OBJECT__53
10
-16.914000
20
6.156000
30
-46.000000
70
192
0
VERTEX
8
OBJECT__53
10
-18.000000
20
0.000000
30
-46.000000
70
192
0
VERTEX
8
OBJECT__53
10
-9.000000
20
15.588000
30
46.000000
70
192
0
VERTEX
8
OBJECT__53
10
-9.000000
20
15.588000
30
-46.000000
70
192
0
VERTEX
8
OBJECT__53
10
3.126000
20
17.726999
30
46.000000
70
192
0
VERTEX
8
OBJECT__53
10
3.126000
20
17.726999
30
-46.000000
70
192
0
VERTEX
8
OBJECT__53
10
13.789000
20
11.570000
30
46.000000
70
192
0
VERTEX
8
OBJECT__53
10
13.789000
20
11.570000
30
-46.000000
70
192
0
VERTEX
8
OBJECT__53
10
18.000000
20
0.000000
30
46.000000
70
192
0
VERTEX
8
OBJECT__53
10
0
20
0
30
0
70
128
71
1
72
2
73
3
0
VERTEX
8
OBJECT__53
10
0
20
0
30
0
70
128
71
4
72
5
73
2
0
VERTEX
8
OBJECT__53
10
0
20
0
30
0
70
128
71
6
72
7
73
5
0
VERTEX
8
OBJECT__53
10
0
20
0
30
0
70
128
71
8
72
9
73
7
0
VERTEX
8
OBJECT__53
10
0
20
0
30
0
70
128
71
10
72
11
73
12
0
VERTEX
8
OBJECT__53
10
0
20
0
30
0
70
128
71
13
72
9
73
8
0
VERTEX
8
OBJECT__53
10
0
20
0
30
0
70
128
71
8
72
10
73
13
0
VERTEX
8
OBJECT__53
10
0
20
0
30
0
70
128
71
14
72
15
73
12
0
VERTEX
8
OBJECT__53
10
0
20
0
30
0
70
128
71
16
72
17
73
15
0
VERTEX
8
OBJECT__53
10
0
20
0
30
0
70
128
71
18
72
19
73
17
0
VERTEX
8
OBJECT__53
10
0
20
0
30
0
70
128
71
20
72
3
73
19
0
VERTEX
8
OBJECT__53
10
0
20
0
30
0
70
128
71
19
72
18
73
20
0
VERTEX
8
OBJECT__53
10
0
20
0
30
0
70
128
71
17
72
16
73
18
0
VERTEX
8
OBJECT__53
10
0
20
0
30
0
70
128
71
15
72
14
73
16
0
VERTEX
8
OBJECT__53
10
0
20
0
30
0
70
128
71
12
72
11
73
14
0
VERTEX
8
OBJECT__53
10
0
20
0
30
0
70
128
71
12
72
13
73
10
0
VERTEX
8
OBJECT__53
10
0
20
0
30
0
70
128
71
7
72
6
73
8
0
VERTEX
8
OBJECT__53
10
0
20
0
30
0
70
128
71
5
72
4
73
6
0
VERTEX
8
OBJECT__53
10
0
20
0
30
0
70
128
71
2
72
1
73
4
0
VERTEX
8
OBJECT__53
10
0
20
0
30
0
70
128
71
3
72
20
73
1
0
SEQEND
8
OBJECT__53
0
POLYLINE
8
OBJECT__54
66
1
70
64
71
10
72
8
62
253
0
VERTEX
8
OBJECT__54
10
-16.914000
20
-6.156000
30
46.000000
70
192
0
VERTEX
8
OBJECT__54
10
3.126000
20
-17.726999
30
46.000000
70
192
0
VERTEX
8
OBJECT__54
10
13.789000
20
-11.570000
30
46.000000
70
192
0
VERTEX
8
OBJECT__54
10
13.789000
20
11.570000
30
46.000000
70
192
0
VERTEX
8
OBJECT__54
10
3.126000
20
17.726999
30
46.000000
70
192
0
VERTEX
8
OBJECT__54
10
-9.000000
20
15.588000
30
46.000000
70
192
0
VERTEX
8
OBJECT__54
10
-9.000000
20
-15.588000
30
46.000000
70
192
0
VERTEX
8
OBJECT__54
10
-16.914000
20
6.156000
30
46.000000
70
192
0
VERTEX
8
OBJECT__54
10
18.000000
20
0.000000
30
46.000000
70
192
0
VERTEX
8
OBJECT__54
10
-18.000000
20
0.000000
30
46.000000
70
192
0
VERTEX
8
OBJECT__54
10
0
20
0
30
0
70
128
71
1
72
2
73
3
0
VERTEX
8
OBJECT__54
10
0
20
0
30
0
70
128
71
4
72
5
73
6
0
VERTEX
8
OBJECT__54
10
0
20
0
30
0
70
128
71
1
72
7
73
2
0
VERTEX
8
OBJECT__54
10
0
20
0
30
0
70
128
71
8
72
9
73
4
0
VERTEX
8
OBJECT__54
10
0
20
0
30
0
70
128
71
9
72
10
73
1
0
VERTEX
8
OBJECT__54
10
0
20
0
30
0
70
128
71
6
72
8
73
4
0
VERTEX
8
OBJECT__54
10
0
20
0
30
0
70
128
71
8
72
10
73
9
0
VERTEX
8
OBJECT__54
10
0
20
0
30
0
70
128
71
3
72
9
73
1
0
SEQEND
8
OBJECT__54
0
POLYLINE
8
OBJECT__56
66
1
70
64
71
7
72
5
62
253
0
VERTEX
8
OBJECT__56
10
-25.778999
20
-9.000000
30
-2.059000
70
192
0
VERTEX
8
OBJECT__56
10
-21.278000
20
-9.000000
30
-9.592000
70
192
0
VERTEX
8
OBJECT__56
10
-19.906000
20
-9.000000
30
-5.936000
70
192
0
VERTEX
8
OBJECT__56
10
-28.601000
20
-9.000000
30
-4.758000
70
192
0
VERTEX
8
OBJECT__56
10
-28.250999
20
-9.000000
30
-8.647000
70
192
0
VERTEX
8
OBJECT__56
10
-24.992001
20
-9.000000
30
-10.798000
70
192
0
VERTEX
8
OBJECT__56
10
-21.909000
20
-9.000000
30
-2.584000
70
192
0
VERTEX
8
OBJECT__56
10
0
20
0
30
0
70
128
71
1
72
2
73
3
0
VERTEX
8
OBJECT__56
10
0
20
0
30
0
70
128
71
1
72
4
73
5
0
VERTEX
8
OBJECT__56
10
0
20
0
30
0
70
128
71
1
72
6
73
2
0
VERTEX
8
OBJECT__56
10
0
20
0
30
0
70
128
71
3
72
7
73
1
0
VERTEX
8
OBJECT__56
10
0
20
0
30
0
70
128
71
5
72
6
73
1
0
SEQEND
8
OBJECT__56
0
POLYLINE
8
OBJECT__57
66
1
70
64
71
18
72
18
62
253
0
VERTEX
8
OBJECT__57
10
-29.069000
20
-8.500000
30
-4.582000
70
192
0
VERTEX
8
OBJECT__57
10
-28.601000
20
-9.000000
30
-4.758000
70
192
0
VERTEX
8
OBJECT__57
10
-25.778999
20
-9.000000
30
-2.059000
70
192
0
VERTEX
8
OBJECT__57
10
-28.250999
20
-9.000000
30
-8.647000
70
192
0
VERTEX
8
OBJECT__57
10
-28.915001
20
-8.500000
30
-6.297000
70
192
0
VERTEX
8
OBJECT__57
10
-28.680000
20
-8.500000
30
-8.904000
70
192
0
VERTEX
8
OBJECT__57
10
-25.760000
20
-8.500000
30
-10.832000
70
192
0
VERTEX
8
OBJECT__57
10
-24.992001
20
-9.000000
30
-10.798000
70
192
0
VERTEX
8
OBJECT__57
10
-25.059000
20
-8.500000
30
-11.294000
70
192
0
VERTEX
8
OBJECT__57
10
-20.933001
20
-8.500000
30
-9.953000
70
192
0
VERTEX
8
OBJECT__57
10
-21.278000
20
-9.000000
30
-9.592000
70
192
0
VERTEX
8
OBJECT__57
10
-19.906000
20
-9.000000
30
-5.936000
70
192
0
VERTEX
8
OBJECT__57
10
-20.638000
20
-8.500000
30
-9.167000
70
192
0
VERTEX
8
OBJECT__57
10
-19.408001
20
-8.500000
30
-5.891000
70
192
0
VERTEX
8
OBJECT__57
10
-20.750999
20
-8.500000
30
-3.644000
70
192
0
VERTEX
8
OBJECT__57
10
-21.909000
20
-9.000000
30
-2.584000
70
192
0
VERTEX
8
OBJECT__57
10
-25.933001
20
-8.500000
30
-1.584000
70
192
0
VERTEX
8
OBJECT__57
10
-21.634001
20
-8.500000
30
-2.166000
70
192
0
VERTEX
8
OBJECT__57
10
0
20
0
30
0
70
128
71
1
72
2
73
3
0
VERTEX
8
OBJECT__57
10
0
20
0
30
0
70
128
71
4
72
2
73
5
0
VERTEX
8
OBJECT__57
10
0
20
0
30
0
70
128
71
2
72
1
73
5
0
VERTEX
8
OBJECT__57
10
0
20
0
30
0
70
128
71
4
72
6
73
7
0
VERTEX
8
OBJECT__57
10
0
20
0
30
0
70
128
71
7
72
8
73
4
0
VERTEX
8
OBJECT__57
10
0
20
0
30
0
70
128
71
9
72
10
73
11
0
VERTEX
8
OBJECT__57
10
0
20
0
30
0
70
128
71
12
72
11
73
13
0
VERTEX
8
OBJECT__57
10
0
20
0
30
0
70
128
71
11
72
10
73
13
0
VERTEX
8
OBJECT__57
10
0
20
0
30
0
70
128
71
12
72
14
73
15
0
VERTEX
8
OBJECT__57
10
0
20
0
30
0
70
128
71
15
72
16
73
12
0
VERTEX
8
OBJECT__57
10
0
20
0
30
0
70
128
71
17
72
3
73
16
0
VERTEX
8
OBJECT__57
10
0
20
0
30
0
70
128
71
16
72
18
73
17
0
VERTEX
8
OBJECT__57
10
0
20
0
30
0
70
128
71
15
72
18
73
16
0
VERTEX
8
OBJECT__57
10
0
20
0
30
0
70
128
71
13
72
14
73
12
0
VERTEX
8
OBJECT__57
10
0
20
0
30
0
70
128
71
11
72
8
73
9
0
VERTEX
8
OBJECT__57
10
0
20
0
30
0
70
128
71
7
72
9
73
8
0
VERTEX
8
OBJECT__57
10
0
20
0
30
0
70
128
71
5
72
6
73
4
0
VERTEX
8
OBJECT__57
10
0
20
0
30
0
70
128
71
3
72
17
73
1
0
SEQEND
8
OBJECT__57
0
POLYLINE
8
OBJECT__59
66
1
70
64
71
30
72
32
62
253
0
VERTEX
8
OBJECT__59
10
-29.069000
20
8.500000
30
-4.582000
70
192
0
VERTEX
8
OBJECT__59
10
-28.915001
20
8.500000
30
-6.297000
70
192
0
VERTEX
8
OBJECT__59
10
-28.915001
20
-8.500000
30
-6.297000
70
192
0
VERTEX
8
OBJECT__59
10
-29.069000
20
-8.500000
30
-4.582000
70
192
0
VERTEX
8
OBJECT__59
10
-25.933001
20
-8.500000
30
-1.584000
70
192
0
VERTEX
8
OBJECT__59
10
-25.933001
20
8.500000
30
-1.584000
70
192
0
VERTEX
8
OBJECT__59
10
-28.680000
20
8.500000
30
-8.904000
70
192
0
VERTEX
8
OBJECT__59
10
-28.680000
20
-8.500000
30
-8.904000
70
192
0
VERTEX
8
OBJECT__59
10
-25.760000
20
8.500000
30
-10.832000
70
192
0
VERTEX
8
OBJECT__59
10
-25.760000
20
-8.500000
30
-10.832000
70
192
0
VERTEX
8
OBJECT__59
10
-20.933001
20
8.500000
30
-9.953000
70
192
0
VERTEX
8
OBJECT__59
10
-21.333000
20
1.483000
30
-10.297000
70
192
0
VERTEX
8
OBJECT__59
10
-22.839001
20
2.120000
30
-11.093000
70
192
0
VERTEX
8
OBJECT__59
10
-25.059000
20
8.500000
30
-11.294000
70
192
0
VERTEX
8
OBJECT__59
10
-20.638000
20
8.500000
30
-9.167000
70
192
0
VERTEX
8
OBJECT__59
10
-24.514999
20
1.499000
30
-11.338000
70
192
0
VERTEX
8
OBJECT__59
10
-20.785000
20
-0.003000
30
-9.806000
70
192
0
VERTEX
8
OBJECT__59
10
-20.638000
20
-8.500000
30
-9.167000
70
192
0
VERTEX
8
OBJECT__59
10
-21.291000
20
-1.436000
30
-10.264000
70
192
0
VERTEX
8
OBJECT__59
10
-20.933001
20
-8.500000
30
-9.953000
70
192
0
VERTEX
8
OBJECT__59
10
-25.059000
20
-8.500000
30
-11.294000
70
192
0
VERTEX
8
OBJECT__59
10
-24.533001
20
-1.484000
30
-11.337000
70
192
0
VERTEX
8
OBJECT__59
10
-22.843000
20
-2.120000
30
-11.094000
70
192
0
VERTEX
8
OBJECT__59
10
-25.266001
20
0.002000
30
-11.262000
70
192
0
VERTEX
8
OBJECT__59
10
-20.750999
20
-8.500000
30
-3.644000
70
192
0
VERTEX
8
OBJECT__59
10
-19.408001
20
-8.500000
30
-5.891000
70
192
0
VERTEX
8
OBJECT__59
10
-19.408001
20
8.500000
30
-5.891000
70
192
0
VERTEX
8
OBJECT__59
10
-21.634001
20
-8.500000
30
-2.166000
70
192
0
VERTEX
8
OBJECT__59
10
-21.634001
20
8.500000
30
-2.166000
70
192
0
VERTEX
8
OBJECT__59
10
-20.750999
20
8.500000
30
-3.644000
70
192
0
VERTEX
8
OBJECT__59
10
0
20
0
30
0
70
128
71
1
72
2
73
3
0
VERTEX
8
OBJECT__59
10
0
20
0
30
0
70
128
71
1
72
4
73
5
0
VERTEX
8
OBJECT__59
10
0
20
0
30
0
70
128
71
5
72
6
73
1
0
VERTEX
8
OBJECT__59
10
0
20
0
30
0
70
128
71
2
72
7
73
8
0
VERTEX
8
OBJECT__59
10
0
20
0
30
0
70
128
71
9
72
10
73
8
0
VERTEX
8
OBJECT__59
10
0
20
0
30
0
70
128
71
8
72
7
73
9
0
VERTEX
8
OBJECT__59
10
0
20
0
30
0
70
128
71
11
72
12
73
13
0
VERTEX
8
OBJECT__59
10
0
20
0
30
0
70
128
71
13
72
14
73
11
0
VERTEX
8
OBJECT__59
10
0
20
0
30
0
70
128
71
11
72
15
73
12
0
VERTEX
8
OBJECT__59
10
0
20
0
30
0
70
128
71
13
72
16
73
14
0
VERTEX
8
OBJECT__59
10
0
20
0
30
0
70
128
71
15
72
17
73
12
0
VERTEX
8
OBJECT__59
10
0
20
0
30
0
70
128
71
18
72
19
73
17
0
VERTEX
8
OBJECT__59
10
0
20
0
30
0
70
128
71
19
72
18
73
20
0
VERTEX
8
OBJECT__59
10
0
20
0
30
0
70
128
71
21
72
22
73
23
0
VERTEX
8
OBJECT__59
10
0
20
0
30
0
70
128
71
23
72
20
73
21
0
VERTEX
8
OBJECT__59
10
0
20
0
30
0
70
128
71
21
72
10
73
22
0
VERTEX
8
OBJECT__59
10
0
20
0
30
0
70
128
71
10
72
9
73
24
0
VERTEX
8
OBJECT__59
10
0
20
0
30
0
70
128
71
24
72
22
73
10
0
VERTEX
8
OBJECT__59
10
0
20
0
30
0
70
128
71
20
72
23
73
19
0
VERTEX
8
OBJECT__59
10
0
20
0
30
0
70
128
71
17
72
15
73
18
0
VERTEX
8
OBJECT__59
10
0
20
0
30
0
70
128
71
16
72
24
73
14
0
VERTEX
8
OBJECT__59
10
0
20
0
30
0
70
128
71
25
72
26
73
27
0
VERTEX
8
OBJECT__59
10
0
20
0
30
0
70
128
71
15
72
27
73
26
0
VERTEX
8
OBJECT__59
10
0
20
0
30
0
70
128
71
26
72
18
73
15
0
VERTEX
8
OBJECT__59
10
0
20
0
30
0
70
128
71
5
72
28
73
29
0
VERTEX
8
OBJECT__59
10
0
20
0
30
0
70
128
71
30
72
29
73
28
0
VERTEX
8
OBJECT__59
10
0
20
0
30
0
70
128
71
28
72
25
73
30
0
VERTEX
8
OBJECT__59
10
0
20
0
30
0
70
128
71
29
72
6
73
5
0
VERTEX
8
OBJECT__59
10
0
20
0
30
0
70
128
71
27
72
30
73
25
0
VERTEX
8
OBJECT__59
10
0
20
0
30
0
70
128
71
24
72
9
73
14
0
VERTEX
8
OBJECT__59
10
0
20
0
30
0
70
128
71
8
72
3
73
2
0
VERTEX
8
OBJECT__59
10
0
20
0
30
0
70
128
71
3
72
4
73
1
0
SEQEND
8
OBJECT__59
0
POLYLINE
8
OBJECT__60
66
1
70
64
71
18
72
18
62
253
0
VERTEX
8
OBJECT__60
10
-29.069000
20
8.500000
30
-4.582000
70
192
0
VERTEX
8
OBJECT__60
10
-25.933001
20
8.500000
30
-1.584000
70
192
0
VERTEX
8
OBJECT__60
10
-25.778999
20
9.000000
30
-2.059000
70
192
0
VERTEX
8
OBJECT__60
10
-28.250999
20
9.000000
30
-8.647000
70
192
0
VERTEX
8
OBJECT__60
10
-28.680000
20
8.500000
30
-8.904000
70
192
0
VERTEX
8
OBJECT__60
10
-28.915001
20
8.500000
30
-6.297000
70
192
0
VERTEX
8
OBJECT__60
10
-28.601000
20
9.000000
30
-4.758000
70
192
0
VERTEX
8
OBJECT__60
10
-24.992001
20
9.000000
30
-10.798000
70
192
0
VERTEX
8
OBJECT__60
10
-25.760000
20
8.500000
30
-10.832000
70
192
0
VERTEX
8
OBJECT__60
10
-25.059000
20
8.500000
30
-11.294000
70
192
0
VERTEX
8
OBJECT__60
10
-21.278000
20
9.000000
30
-9.592000
70
192
0
VERTEX
8
OBJECT__60
10
-19.906000
20
9.000000
30
-5.936000
70
192
0
VERTEX
8
OBJECT__60
10
-19.408001
20
8.500000
30
-5.891000
70
192
0
VERTEX
8
OBJECT__60
10
-20.638000
20
8.500000
30
-9.167000
70
192
0
VERTEX
8
OBJECT__60
10
-21.909000
20
9.000000
30
-2.584000
70
192
0
VERTEX
8
OBJECT__60
10
-20.750999
20
8.500000
30
-3.644000
70
192
0
VERTEX
8
OBJECT__60
10
-21.634001
20
8.500000
30
-2.166000
70
192
0
VERTEX
8
OBJECT__60
10
-20.933001
20
8.500000
30
-9.953000
70
192
0
VERTEX
8
OBJECT__60
10
0
20
0
30
0
70
128
71
1
72
2
73
3
0
VERTEX
8
OBJECT__60
10
0
20
0
30
0
70
128
71
4
72
5
73
6
0
VERTEX
8
OBJECT__60
10
0
20
0
30
0
70
128
71
6
72
7
73
4
0
VERTEX
8
OBJECT__60
10
0
20
0
30
0
70
128
71
4
72
8
73
9
0
VERTEX
8
OBJECT__60
10
0
20
0
30
0
70
128
71
8
72
10
73
9
0
VERTEX
8
OBJECT__60
10
0
20
0
30
0
70
128
71
10
72
8
73
11
0
VERTEX
8
OBJECT__60
10
0
20
0
30
0
70
128
71
12
72
13
73
14
0
VERTEX
8
OBJECT__60
10
0
20
0
30
0
70
128
71
14
72
11
73
12
0
VERTEX
8
OBJECT__60
10
0
20
0
30
0
70
128
71
12
72
15
73
16
0
VERTEX
8
OBJECT__60
10
0
20
0
30
0
70
128
71
15
72
17
73
16
0
VERTEX
8
OBJECT__60
10
0
20
0
30
0
70
128
71
2
72
17
73
15
0
VERTEX
8
OBJECT__60
10
0
20
0
30
0
70
128
71
15
72
3
73
2
0
VERTEX
8
OBJECT__60
10
0
20
0
30
0
70
128
71
16
72
13
73
12
0
VERTEX
8
OBJECT__60
10
0
20
0
30
0
70
128
71
14
72
18
73
11
0
VERTEX
8
OBJECT__60
10
0
20
0
30
0
70
128
71
11
72
18
73
10
0
VERTEX
8
OBJECT__60
10
0
20
0
30
0
70
128
71
9
72
5
73
4
0
VERTEX
8
OBJECT__60
10
0
20
0
30
0
70
128
71
6
72
1
73
7
0
VERTEX
8
OBJECT__60
10
0
20
0
30
0
70
128
71
3
72
7
73
1
0
SEQEND
8
OBJECT__60
0
POLYLINE
8
OBJECT__61
66
1
70
64
71
7
72
5
62
253
0
VERTEX
8
OBJECT__61
10
-25.778999
20
9.000000
30
-2.059000
70
192
0
VERTEX
8
OBJECT__61
10
-21.909000
20
9.000000
30
-2.584000
70
192
0
VERTEX
8
OBJECT__61
10
-19.906000
20
9.000000
30
-5.936000
70
192
0
VERTEX
8
OBJECT__61
10
-21.278000
20
9.000000
30
-9.592000
70
192
0
VERTEX
8
OBJECT__61
10
-24.992001
20
9.000000
30
-10.798000
70
192
0
VERTEX
8
OBJECT__61
10
-28.250999
20
9.000000
30
-8.647000
70
192
0
VERTEX
8
OBJECT__61
10
-28.601000
20
9.000000
30
-4.758000
70
192
0
VERTEX
8
OBJECT__61
10
0
20
0
30
0
70
128
71
1
72
2
73
3
0
VERTEX
8
OBJECT__61
10
0
20
0
30
0
70
128
71
3
72
4
73
1
0
VERTEX
8
OBJECT__61
10
0
20
0
30
0
70
128
71
1
72
5
73
6
0
VERTEX
8
OBJECT__61
10
0
20
0
30
0
70
128
71
6
72
7
73
1
0
VERTEX
8
OBJECT__61
10
0
20
0
30
0
70
128
71
4
72
5
73
1
0
SEQEND
8
OBJECT__61
0
POLYLINE
8
OBJECT__62
66
1
70
64
71
12
72
12
62
253
0
VERTEX
8
OBJECT__62
10
11.932000
20
59.000000
30
13.592000
70
192
0
VERTEX
8
OBJECT__62
10
11.932000
20
74.000000
30
13.592000
70
192
0
VERTEX
8
OBJECT__62
10
18.784000
20
74.000000
30
10.541000
70
192
0
VERTEX
8
OBJECT__62
10
11.148000
20
59.000000
30
21.051001
70
192
0
VERTEX
8
OBJECT__62
10
11.148000
20
74.000000
30
21.051001
70
192
0
VERTEX
8
OBJECT__62
10
17.216000
20
59.000000
30
25.459000
70
192
0
VERTEX
8
OBJECT__62
10
17.216000
20
74.000000
30
25.459000
70
192
0
VERTEX
8
OBJECT__62
10
24.068001
20
59.000000
30
22.408001
70
192
0
VERTEX
8
OBJECT__62
10
24.068001
20
74.000000
30
22.408001
70
192
0
VERTEX
8
OBJECT__62
10
24.851999
20
59.000000
30
14.949000
70
192
0
VERTEX
8
OBJECT__62
10
24.851999
20
74.000000
30
14.949000
70
192
0
VERTEX
8
OBJECT__62
10
18.784000
20
59.000000
30
10.541000
70
192
0
VERTEX
8
OBJECT__62
10
0
20
0
30
0
70
128
71
1
72
2
73
3
0
VERTEX
8
OBJECT__62
10
0
20
0
30
0
70
128
71
4
72
5
73
2
0
VERTEX
8
OBJECT__62
10
0
20
0
30
0
70
128
71
6
72
7
73
5
0
VERTEX
8
OBJECT__62
10
0
20
0
30
0
70
128
71
8
72
9
73
7
0
VERTEX
8
OBJECT__62
10
0
20
0
30
0
70
128
71
10
72
11
73
9
0
VERTEX
8
OBJECT__62
10
0
20
0
30
0
70
128
71
12
72
3
73
11
0
VERTEX
8
OBJECT__62
10
0
20
0
30
0
70
128
71
11
72
10
73
12
0
VERTEX
8
OBJECT__62
10
0
20
0
30
0
70
128
71
9
72
8
73
10
0
VERTEX
8
OBJECT__62
10
0
20
0
30
0
70
128
71
7
72
6
73
8
0
VERTEX
8
OBJECT__62
10
0
20
0
30
0
70
128
71
5
72
4
73
6
0
VERTEX
8
OBJECT__62
10
0
20
0
30
0
70
128
71
2
72
1
73
4
0
VERTEX
8
OBJECT__62
10
0
20
0
30
0
70
128
71
3
72
12
73
1
0
SEQEND
8
OBJECT__62
0
POLYLINE
8
OBJECT__63
66
1
70
64
71
14
72
14
62
253
0
VERTEX
8
OBJECT__63
10
32.769001
20
59.000000
30
19.552000
70
192
0
VERTEX
8
OBJECT__63
10
24.851999
20
59.000000
30
14.949000
70
192
0
VERTEX
8
OBJECT__63
10
24.068001
20
59.000000
30
22.408001
70
192
0
VERTEX
8
OBJECT__63
10
3.231000
20
59.000000
30
16.448000
70
192
0
VERTEX
8
OBJECT__63
10
11.148000
20
59.000000
30
21.051001
70
192
0
VERTEX
8
OBJECT__63
10
11.932000
20
59.000000
30
13.592000
70
192
0
VERTEX
8
OBJECT__63
10
27.344999
20
59.000000
30
29.541000
70
192
0
VERTEX
8
OBJECT__63
10
17.216000
20
59.000000
30
25.459000
70
192
0
VERTEX
8
OBJECT__63
10
29.541000
20
59.000000
30
8.655000
70
192
0
VERTEX
8
OBJECT__63
10
8.655000
20
59.000000
30
6.459000
70
192
0
VERTEX
8
OBJECT__63
10
18.784000
20
59.000000
30
10.541000
70
192
0
VERTEX
8
OBJECT__63
10
6.459000
20
59.000000
30
27.344999
70
192
0
VERTEX
8
OBJECT__63
10
19.552000
20
59.000000
30
3.231000
70
192
0
VERTEX
8
OBJECT__63
10
16.448000
20
59.000000
30
32.769001
70
192
0
VERTEX
8
OBJECT__63
10
0
20
0
30
0
70
128
71
1
72
2
73
3
0
VERTEX
8
OBJECT__63
10
0
20
0
30
0
70
128
71
4
72
5
73
6
0
VERTEX
8
OBJECT__63
10
0
20
0
30
0
70
128
71
7
72
3
73
8
0
VERTEX
8
OBJECT__63
10
0
20
0
30
0
70
128
71
1
72
9
73
2
0
VERTEX
8
OBJECT__63
10
0
20
0
30
0
70
128
71
10
72
6
73
11
0
VERTEX
8
OBJECT__63
10
0
20
0
30
0
70
128
71
4
72
12
73
5
0
VERTEX
8
OBJECT__63
10
0
20
0
30
0
70
128
71
3
72
7
73
1
0
VERTEX
8
OBJECT__63
10
0
20
0
30
0
70
128
71
9
72
13
73
11
0
VERTEX
8
OBJECT__63
10
0
20
0
30
0
70
128
71
6
72
10
73
4
0
VERTEX
8
OBJECT__63
10
0
20
0
30
0
70
128
71
12
72
14
73
8
0
VERTEX
8
OBJECT__63
10
0
20
0
30
0
70
128
71
11
72
2
73
9
0
VERTEX
8
OBJECT__63
10
0
20
0
30
0
70
128
71
8
72
5
73
12
0
VERTEX
8
OBJECT__63
10
0
20
0
30
0
70
128
71
11
72
13
73
10
0
VERTEX
8
OBJECT__63
10
0
20
0
30
0
70
128
71
8
72
14
73
7
0
SEQEND
8
OBJECT__63
0
POLYLINE
8
OBJECT__65
66
1
70
64
71
16
72
16
62
253
0
VERTEX
8
OBJECT__65
10
6.459000
20
59.000000
30
27.344999
70
192
0
VERTEX
8
OBJECT__65
10
6.459000
20
37.000000
30
27.344999
70
192
0
VERTEX
8
OBJECT__65
10
16.448000
20
37.000000
30
32.769001
70
192
0
VERTEX
8
OBJECT__65
10
3.231000
20
59.000000
30
16.448000
70
192
0
VERTEX
8
OBJECT__65
10
3.231000
20
37.000000
30
16.448000
70
192
0
VERTEX
8
OBJECT__65
10
8.655000
20
59.000000
30
6.459000
70
192
0
VERTEX
8
OBJECT__65
10
8.655000
20
37.000000
30
6.459000
70
192
0
VERTEX
8
OBJECT__65
10
19.552000
20
59.000000
30
3.231000
70
192
0
VERTEX
8
OBJECT__65
10
19.552000
20
37.000000
30
3.231000
70
192
0
VERTEX
8
OBJECT__65
10
29.541000
20
59.000000
30
8.655000
70
192
0
VERTEX
8
OBJECT__65
10
29.541000
20
37.000000
30
8.655000
70
192
0
VERTEX
8
OBJECT__65
10
32.769001
20
59.000000
30
19.552000
70
192
0
VERTEX
8
OBJECT__65
10
32.769001
20
37.000000
30
19.552000
70
192
0
VERTEX
8
OBJECT__65
10
27.344999
20
59.000000
30
29.541000
70
192
0
VERTEX
8
OBJECT__65
10
27.344999
20
37.000000
30
29.541000
70
192
0
VERTEX
8
OBJECT__65
10
16.448000
20
59.000000
30
32.769001
70
192
0
VERTEX
8
OBJECT__65
10
0
20
0
30
0
70
128
71
1
72
2
73
3
0
VERTEX
8
OBJECT__65
10
0
20
0
30
0
70
128
71
4
72
5
73
2
0
VERTEX
8
OBJECT__65
10
0
20
0
30
0
70
128
71
6
72
7
73
5
0
VERTEX
8
OBJECT__65
10
0
20
0
30
0
70
128
71
8
72
9
73
7
0
VERTEX
8
OBJECT__65
10
0
20
0
30
0
70
128
71
10
72
11
73
9
0
VERTEX
8
OBJECT__65
10
0
20
0
30
0
70
128
71
12
72
13
73
11
0
VERTEX
8
OBJECT__65
10
0
20
0
30
0
70
128
71
14
72
15
73
13
0
VERTEX
8
OBJECT__65
10
0
20
0
30
0
70
128
71
16
72
3
73
15
0
VERTEX
8
OBJECT__65
10
0
20
0
30
0
70
128
71
15
72
14
73
16
0
VERTEX
8
OBJECT__65
10
0
20
0
30
0
70
128
71
13
72
12
73
14
0
VERTEX
8
OBJECT__65
10
0
20
0
30
0
70
128
71
11
72
10
73
12
0
VERTEX
8
OBJECT__65
10
0
20
0
30
0
70
128
71
9
72
8
73
10
0
VERTEX
8
OBJECT__65
10
0
20
0
30
0
70
128
71
7
72
6
73
8
0
VERTEX
8
OBJECT__65
10
0
20
0
30
0
70
128
71
5
72
4
73
6
0
VERTEX
8
OBJECT__65
10
0
20
0
30
0
70
128
71
2
72
1
73
4
0
VERTEX
8
OBJECT__65
10
0
20
0
30
0
70
128
71
3
72
16
73
1
0
SEQEND
8
OBJECT__65
0
ENDSEC
0
EOF
